ISO-10303-21;
HEADER;
FILE_DESCRIPTION( ( 'STEP AP214' ), '1' );
FILE_NAME( '//goodhand-server/Shared Folders/GoodHand Data/Kipp CAD/K1129/K1129.101415.stp', '2020-12-10T10:15:55', ( '' ), ( '' ), ' ', 'PARTsolutions', ' ' );
FILE_SCHEMA( ( 'AUTOMOTIVE_DESIGN { 1 0 10303 214 1 1 1 1 }' ) );
ENDSEC;
DATA;
#1 = MECHANICAL_DESIGN_GEOMETRIC_PRESENTATION_REPRESENTATION( ' ', ( #10, #11, #12, #13, #14, #15, #16, #17, #18, #19, #20, #21 ), #6 );
#2 = PRODUCT_DEFINITION_CONTEXT( '', #22, 'design' );
#3 = APPLICATION_PROTOCOL_DEFINITION( 'international standard', 'automotive_design', 2001, #22 );
#4 = PRODUCT_CATEGORY_RELATIONSHIP( 'NONE', 'NONE', #23, #24 );
#5 = SHAPE_DEFINITION_REPRESENTATION( #25, #26 );
#6 =  ( GEOMETRIC_REPRESENTATION_CONTEXT( 3 )GLOBAL_UNCERTAINTY_ASSIGNED_CONTEXT( ( #29 ) )GLOBAL_UNIT_ASSIGNED_CONTEXT( ( #31, #32, #33 ) )REPRESENTATION_CONTEXT( 'NONE', 'WORKSPACE' ) );
#10 = STYLED_ITEM( '', ( #35 ), #36 );
#11 = STYLED_ITEM( '', ( #37 ), #38 );
#12 = STYLED_ITEM( '', ( #39 ), #40 );
#13 = STYLED_ITEM( '', ( #41 ), #42 );
#14 = STYLED_ITEM( '', ( #43 ), #44 );
#15 = STYLED_ITEM( '', ( #45 ), #46 );
#16 = STYLED_ITEM( '', ( #47 ), #48 );
#17 = STYLED_ITEM( '', ( #49 ), #50 );
#18 = STYLED_ITEM( '', ( #51 ), #52 );
#19 = STYLED_ITEM( '', ( #53 ), #54 );
#20 = STYLED_ITEM( '', ( #55 ), #56 );
#21 = STYLED_ITEM( '', ( #57 ), #58 );
#22 = APPLICATION_CONTEXT( 'core data for automotive mechanical design processes' );
#23 = PRODUCT_CATEGORY( 'part', 'NONE' );
#24 = PRODUCT_RELATED_PRODUCT_CATEGORY( 'detail', ' ', ( #59 ) );
#25 = PRODUCT_DEFINITION_SHAPE( 'NONE', 'NONE', #60 );
#26 = ADVANCED_BREP_SHAPE_REPRESENTATION( '_K1129.101415', ( #61, #62 ), #6 );
#29 = UNCERTAINTY_MEASURE_WITH_UNIT( LENGTH_MEASURE( 0.00100000000000000 ), #31, '', '' );
#31 =  ( CONVERSION_BASED_UNIT( 'MILLIMETRE', #65 )LENGTH_UNIT(  )NAMED_UNIT( #68 ) );
#32 =  ( NAMED_UNIT( #70 )PLANE_ANGLE_UNIT(  )SI_UNIT( $, .RADIAN. ) );
#33 =  ( NAMED_UNIT( #70 )SI_UNIT( $, .STERADIAN. )SOLID_ANGLE_UNIT(  ) );
#35 = PRESENTATION_STYLE_ASSIGNMENT( ( #76 ) );
#36 = ADVANCED_FACE( '', ( #77 ), #78, .F. );
#37 = PRESENTATION_STYLE_ASSIGNMENT( ( #79 ) );
#38 = ADVANCED_FACE( '', ( #80, #81 ), #82, .T. );
#39 = PRESENTATION_STYLE_ASSIGNMENT( ( #83 ) );
#40 = ADVANCED_FACE( '', ( #84 ), #85, .T. );
#41 = PRESENTATION_STYLE_ASSIGNMENT( ( #86 ) );
#42 = ADVANCED_FACE( '', ( #87 ), #88, .T. );
#43 = PRESENTATION_STYLE_ASSIGNMENT( ( #89 ) );
#44 = ADVANCED_FACE( '', ( #90, #91 ), #92, .T. );
#45 = PRESENTATION_STYLE_ASSIGNMENT( ( #93 ) );
#46 = ADVANCED_FACE( '', ( #94 ), #95, .T. );
#47 = PRESENTATION_STYLE_ASSIGNMENT( ( #96 ) );
#48 = ADVANCED_FACE( '', ( #97, #98 ), #99, .T. );
#49 = PRESENTATION_STYLE_ASSIGNMENT( ( #100 ) );
#50 = ADVANCED_FACE( '', ( #101 ), #102, .T. );
#51 = PRESENTATION_STYLE_ASSIGNMENT( ( #103 ) );
#52 = ADVANCED_FACE( '', ( #104 ), #105, .T. );
#53 = PRESENTATION_STYLE_ASSIGNMENT( ( #106 ) );
#54 = ADVANCED_FACE( '', ( #107, #108 ), #109, .F. );
#55 = PRESENTATION_STYLE_ASSIGNMENT( ( #110 ) );
#56 = ADVANCED_FACE( '', ( #111 ), #112, .F. );
#57 = PRESENTATION_STYLE_ASSIGNMENT( ( #113 ) );
#58 = ADVANCED_FACE( '', ( #114 ), #115, .T. );
#59 = PRODUCT( '_K1129.101415', '_K1129.101415', 'PART-_K1129.101415-DESC', ( #116 ) );
#60 = PRODUCT_DEFINITION( 'NONE', 'NONE', #117, #2 );
#61 = MANIFOLD_SOLID_BREP( '_K1129.101415', #118 );
#62 = AXIS2_PLACEMENT_3D( '', #119, #120, #121 );
#65 = LENGTH_MEASURE_WITH_UNIT( LENGTH_MEASURE( 1.00000000000000 ), #122 );
#68 = DIMENSIONAL_EXPONENTS( 1.00000000000000, 0.000000000000000, 0.000000000000000, 0.000000000000000, 0.000000000000000, 0.000000000000000, 0.000000000000000 );
#70 = DIMENSIONAL_EXPONENTS( 0.000000000000000, 0.000000000000000, 0.000000000000000, 0.000000000000000, 0.000000000000000, 0.000000000000000, 0.000000000000000 );
#76 = SURFACE_STYLE_USAGE( .BOTH., #123 );
#77 = FACE_OUTER_BOUND( '', #124, .T. );
#78 = PLANE( '', #125 );
#79 = SURFACE_STYLE_USAGE( .BOTH., #126 );
#80 = FACE_BOUND( '', #127, .T. );
#81 = FACE_OUTER_BOUND( '', #128, .T. );
#82 = CONICAL_SURFACE( '', #129, 6.85857404930000, 0.801106126700000 );
#83 = SURFACE_STYLE_USAGE( .BOTH., #130 );
#84 = FACE_OUTER_BOUND( '', #131, .T. );
#85 = PLANE( '', #132 );
#86 = SURFACE_STYLE_USAGE( .BOTH., #133 );
#87 = FACE_OUTER_BOUND( '', #134, .T. );
#88 = PLANE( '', #135 );
#89 = SURFACE_STYLE_USAGE( .BOTH., #136 );
#90 = FACE_OUTER_BOUND( '', #137, .T. );
#91 = FACE_BOUND( '', #138, .T. );
#92 = CONICAL_SURFACE( '', #139, 6.65713133020000, 0.769690200100000 );
#93 = SURFACE_STYLE_USAGE( .BOTH., #140 );
#94 = FACE_OUTER_BOUND( '', #141, .T. );
#95 = PLANE( '', #142 );
#96 = SURFACE_STYLE_USAGE( .BOTH., #143 );
#97 = FACE_BOUND( '', #144, .T. );
#98 = FACE_OUTER_BOUND( '', #145, .T. );
#99 = CONICAL_SURFACE( '', #146, 7.14142595070000, 0.0314159265000000 );
#100 = SURFACE_STYLE_USAGE( .BOTH., #147 );
#101 = FACE_OUTER_BOUND( '', #148, .T. );
#102 = PLANE( '', #149 );
#103 = SURFACE_STYLE_USAGE( .BOTH., #150 );
#104 = FACE_OUTER_BOUND( '', #151, .T. );
#105 = PLANE( '', #152 );
#106 = SURFACE_STYLE_USAGE( .BOTH., #153 );
#107 = FACE_OUTER_BOUND( '', #154, .T. );
#108 = FACE_BOUND( '', #155, .T. );
#109 = PLANE( '', #156 );
#110 = SURFACE_STYLE_USAGE( .BOTH., #157 );
#111 = FACE_OUTER_BOUND( '', #158, .T. );
#112 = PLANE( '', #159 );
#113 = SURFACE_STYLE_USAGE( .BOTH., #160 );
#114 = FACE_OUTER_BOUND( '', #161, .T. );
#115 = PLANE( '', #162 );
#116 = PRODUCT_CONTEXT( '', #22, 'mechanical' );
#117 = PRODUCT_DEFINITION_FORMATION_WITH_SPECIFIED_SOURCE( ' ', 'NONE', #59, .NOT_KNOWN. );
#118 = CLOSED_SHELL( '', ( #44, #54, #46, #42, #50, #56, #38, #48, #52, #40, #58, #36 ) );
#119 = CARTESIAN_POINT( '', ( 0.000000000000000, 0.000000000000000, 0.000000000000000 ) );
#120 = DIRECTION( '', ( 0.000000000000000, 0.000000000000000, 1.00000000000000 ) );
#121 = DIRECTION( '', ( 1.00000000000000, 0.000000000000000, 0.000000000000000 ) );
#122 =  ( LENGTH_UNIT(  )NAMED_UNIT( #68 )SI_UNIT( .MILLI., .METRE. ) );
#123 = SURFACE_SIDE_STYLE( '', ( #164 ) );
#124 = EDGE_LOOP( '', ( #165, #166, #167, #168, #169, #170 ) );
#125 = AXIS2_PLACEMENT_3D( '', #171, #172, #173 );
#126 = SURFACE_SIDE_STYLE( '', ( #174 ) );
#127 = EDGE_LOOP( '', ( #175 ) );
#128 = EDGE_LOOP( '', ( #176 ) );
#129 = AXIS2_PLACEMENT_3D( '', #177, #178, #179 );
#130 = SURFACE_SIDE_STYLE( '', ( #180 ) );
#131 = EDGE_LOOP( '', ( #181, #182, #183, #184 ) );
#132 = AXIS2_PLACEMENT_3D( '', #185, #186, #187 );
#133 = SURFACE_SIDE_STYLE( '', ( #188 ) );
#134 = EDGE_LOOP( '', ( #189, #190, #191, #192 ) );
#135 = AXIS2_PLACEMENT_3D( '', #193, #194, #195 );
#136 = SURFACE_SIDE_STYLE( '', ( #196 ) );
#137 = EDGE_LOOP( '', ( #197 ) );
#138 = EDGE_LOOP( '', ( #198 ) );
#139 = AXIS2_PLACEMENT_3D( '', #199, #200, #201 );
#140 = SURFACE_SIDE_STYLE( '', ( #202 ) );
#141 = EDGE_LOOP( '', ( #203, #204, #205, #206 ) );
#142 = AXIS2_PLACEMENT_3D( '', #207, #208, #209 );
#143 = SURFACE_SIDE_STYLE( '', ( #210 ) );
#144 = EDGE_LOOP( '', ( #211 ) );
#145 = EDGE_LOOP( '', ( #212 ) );
#146 = AXIS2_PLACEMENT_3D( '', #213, #214, #215 );
#147 = SURFACE_SIDE_STYLE( '', ( #216 ) );
#148 = EDGE_LOOP( '', ( #217, #218, #219, #220 ) );
#149 = AXIS2_PLACEMENT_3D( '', #221, #222, #223 );
#150 = SURFACE_SIDE_STYLE( '', ( #224 ) );
#151 = EDGE_LOOP( '', ( #225, #226, #227, #228 ) );
#152 = AXIS2_PLACEMENT_3D( '', #229, #230, #231 );
#153 = SURFACE_SIDE_STYLE( '', ( #232 ) );
#154 = EDGE_LOOP( '', ( #233 ) );
#155 = EDGE_LOOP( '', ( #234, #235, #236, #237, #238, #239 ) );
#156 = AXIS2_PLACEMENT_3D( '', #240, #241, #242 );
#157 = SURFACE_SIDE_STYLE( '', ( #243 ) );
#158 = EDGE_LOOP( '', ( #244 ) );
#159 = AXIS2_PLACEMENT_3D( '', #245, #246, #247 );
#160 = SURFACE_SIDE_STYLE( '', ( #248 ) );
#161 = EDGE_LOOP( '', ( #249, #250, #251, #252 ) );
#162 = AXIS2_PLACEMENT_3D( '', #253, #254, #255 );
#164 = SURFACE_STYLE_FILL_AREA( #256 );
#165 = ORIENTED_EDGE( '', *, *, #257, .F. );
#166 = ORIENTED_EDGE( '', *, *, #258, .F. );
#167 = ORIENTED_EDGE( '', *, *, #259, .F. );
#168 = ORIENTED_EDGE( '', *, *, #260, .F. );
#169 = ORIENTED_EDGE( '', *, *, #261, .F. );
#170 = ORIENTED_EDGE( '', *, *, #262, .F. );
#171 = CARTESIAN_POINT( '', ( 5.00000000000000, 0.000000000000000, 0.000000000000000 ) );
#172 = DIRECTION( '', ( 1.00000000000000, 0.000000000000000, 0.000000000000000 ) );
#173 = DIRECTION( '', ( 0.000000000000000, 0.000000000000000, -1.00000000000000 ) );
#174 = SURFACE_STYLE_FILL_AREA( #263 );
#175 = ORIENTED_EDGE( '', *, *, #264, .F. );
#176 = ORIENTED_EDGE( '', *, *, #265, .T. );
#177 = CARTESIAN_POINT( '', ( 9.50024671981713, 0.000000000000000, 0.000000000000000 ) );
#178 = DIRECTION( '', ( -1.00000000000000, 0.000000000000000, -0.000000000000000 ) );
#179 = DIRECTION( '', ( 0.000000000000000, 0.000000000000000, 1.00000000000000 ) );
#180 = SURFACE_STYLE_FILL_AREA( #266 );
#181 = ORIENTED_EDGE( '', *, *, #267, .F. );
#182 = ORIENTED_EDGE( '', *, *, #268, .F. );
#183 = ORIENTED_EDGE( '', *, *, #259, .T. );
#184 = ORIENTED_EDGE( '', *, *, #269, .T. );
#185 = CARTESIAN_POINT( '', ( 5.00000000000000, 2.02072594216369, -3.50000000000000 ) );
#186 = DIRECTION( '', ( 0.000000000000000, -0.866025403784439, 0.500000000000000 ) );
#187 = DIRECTION( '', ( 0.000000000000000, -0.500000000000000, -0.866025403784439 ) );
#188 = SURFACE_STYLE_FILL_AREA( #270 );
#189 = ORIENTED_EDGE( '', *, *, #271, .F. );
#190 = ORIENTED_EDGE( '', *, *, #272, .F. );
#191 = ORIENTED_EDGE( '', *, *, #261, .T. );
#192 = ORIENTED_EDGE( '', *, *, #273, .T. );
#193 = CARTESIAN_POINT( '', ( 5.00000000000000, -4.04145188432738, 0.000000000000000 ) );
#194 = DIRECTION( '', ( -0.000000000000000, 0.866025403784439, 0.500000000000000 ) );
#195 = DIRECTION( '', ( 0.000000000000000, -0.500000000000000, 0.866025403784439 ) );
#196 = SURFACE_STYLE_FILL_AREA( #274 );
#197 = ORIENTED_EDGE( '', *, *, #275, .F. );
#198 = ORIENTED_EDGE( '', *, *, #276, .T. );
#199 = CARTESIAN_POINT( '', ( 0.000000000000000, 0.000000000000000, 0.000000000000000 ) );
#200 = DIRECTION( '', ( 1.00000000000000, -0.000000000000000, -0.000000000000000 ) );
#201 = DIRECTION( '', ( -0.000000000000000, 0.000000000000000, -1.00000000000000 ) );
#202 = SURFACE_STYLE_FILL_AREA( #277 );
#203 = ORIENTED_EDGE( '', *, *, #278, .F. );
#204 = ORIENTED_EDGE( '', *, *, #279, .F. );
#205 = ORIENTED_EDGE( '', *, *, #262, .T. );
#206 = ORIENTED_EDGE( '', *, *, #272, .T. );
#207 = CARTESIAN_POINT( '', ( 5.00000000000000, -2.02072594216369, 3.50000000000000 ) );
#208 = DIRECTION( '', ( 0.000000000000000, 0.866025403784439, -0.500000000000000 ) );
#209 = DIRECTION( '', ( 0.000000000000000, 0.500000000000000, 0.866025403784439 ) );
#210 = SURFACE_STYLE_FILL_AREA( #280 );
#211 = ORIENTED_EDGE( '', *, *, #265, .F. );
#212 = ORIENTED_EDGE( '', *, *, #275, .T. );
#213 = CARTESIAN_POINT( '', ( 0.499753280182865, 0.000000000000000, 0.000000000000000 ) );
#214 = DIRECTION( '', ( -1.00000000000000, 0.000000000000000, -0.000000000000000 ) );
#215 = DIRECTION( '', ( 0.000000000000000, 0.000000000000000, 1.00000000000000 ) );
#216 = SURFACE_STYLE_FILL_AREA( #281 );
#217 = ORIENTED_EDGE( '', *, *, #282, .F. );
#218 = ORIENTED_EDGE( '', *, *, #283, .F. );
#219 = ORIENTED_EDGE( '', *, *, #257, .T. );
#220 = ORIENTED_EDGE( '', *, *, #279, .T. );
#221 = CARTESIAN_POINT( '', ( 5.00000000000000, 2.02072594216369, 3.50000000000000 ) );
#222 = DIRECTION( '', ( 0.000000000000000, 0.000000000000000, -1.00000000000000 ) );
#223 = DIRECTION( '', ( -1.00000000000000, 0.000000000000000, 0.000000000000000 ) );
#224 = SURFACE_STYLE_FILL_AREA( #284 );
#225 = ORIENTED_EDGE( '', *, *, #285, .F. );
#226 = ORIENTED_EDGE( '', *, *, #273, .F. );
#227 = ORIENTED_EDGE( '', *, *, #260, .T. );
#228 = ORIENTED_EDGE( '', *, *, #268, .T. );
#229 = CARTESIAN_POINT( '', ( 5.00000000000000, -2.02072594216369, -3.50000000000000 ) );
#230 = DIRECTION( '', ( 0.000000000000000, 0.000000000000000, 1.00000000000000 ) );
#231 = DIRECTION( '', ( 1.00000000000000, 0.000000000000000, -0.000000000000000 ) );
#232 = SURFACE_STYLE_FILL_AREA( #286 );
#233 = ORIENTED_EDGE( '', *, *, #276, .F. );
#234 = ORIENTED_EDGE( '', *, *, #282, .T. );
#235 = ORIENTED_EDGE( '', *, *, #278, .T. );
#236 = ORIENTED_EDGE( '', *, *, #271, .T. );
#237 = ORIENTED_EDGE( '', *, *, #285, .T. );
#238 = ORIENTED_EDGE( '', *, *, #267, .T. );
#239 = ORIENTED_EDGE( '', *, *, #287, .T. );
#240 = CARTESIAN_POINT( '', ( 0.000000000000000, 0.000000000000000, 0.000000000000000 ) );
#241 = DIRECTION( '', ( 1.00000000000000, 0.000000000000000, -0.000000000000000 ) );
#242 = DIRECTION( '', ( -0.000000000000000, 0.000000000000000, -1.00000000000000 ) );
#243 = SURFACE_STYLE_FILL_AREA( #288 );
#244 = ORIENTED_EDGE( '', *, *, #264, .T. );
#245 = CARTESIAN_POINT( '', ( 10.0000000000000, 6.34286866978324, 0.000000000000000 ) );
#246 = DIRECTION( '', ( -1.00000000000000, 0.000000000000000, 0.000000000000000 ) );
#247 = DIRECTION( '', ( 0.000000000000000, 0.000000000000000, 1.00000000000000 ) );
#248 = SURFACE_STYLE_FILL_AREA( #289 );
#249 = ORIENTED_EDGE( '', *, *, #287, .F. );
#250 = ORIENTED_EDGE( '', *, *, #269, .F. );
#251 = ORIENTED_EDGE( '', *, *, #258, .T. );
#252 = ORIENTED_EDGE( '', *, *, #283, .T. );
#253 = CARTESIAN_POINT( '', ( 5.00000000000000, 4.04145188432738, 0.000000000000000 ) );
#254 = DIRECTION( '', ( 0.000000000000000, -0.866025403784439, -0.500000000000000 ) );
#255 = DIRECTION( '', ( 0.000000000000000, 0.500000000000000, -0.866025403784439 ) );
#256 = FILL_AREA_STYLE( '', ( #290 ) );
#257 = EDGE_CURVE( '', #291, #292, #293, .T. );
#258 = EDGE_CURVE( '', #294, #291, #295, .T. );
#259 = EDGE_CURVE( '', #296, #294, #297, .T. );
#260 = EDGE_CURVE( '', #298, #296, #299, .T. );
#261 = EDGE_CURVE( '', #300, #298, #301, .T. );
#262 = EDGE_CURVE( '', #292, #300, #302, .T. );
#263 = FILL_AREA_STYLE( '', ( #303 ) );
#264 = EDGE_CURVE( '', #304, #304, #305, .T. );
#265 = EDGE_CURVE( '', #306, #306, #307, .T. );
#266 = FILL_AREA_STYLE( '', ( #308 ) );
#267 = EDGE_CURVE( '', #309, #310, #311, .T. );
#268 = EDGE_CURVE( '', #296, #309, #312, .T. );
#269 = EDGE_CURVE( '', #294, #310, #313, .T. );
#270 = FILL_AREA_STYLE( '', ( #314 ) );
#271 = EDGE_CURVE( '', #315, #316, #317, .T. );
#272 = EDGE_CURVE( '', #300, #315, #318, .T. );
#273 = EDGE_CURVE( '', #298, #316, #319, .T. );
#274 = FILL_AREA_STYLE( '', ( #320 ) );
#275 = EDGE_CURVE( '', #321, #321, #322, .T. );
#276 = EDGE_CURVE( '', #323, #323, #324, .T. );
#277 = FILL_AREA_STYLE( '', ( #325 ) );
#278 = EDGE_CURVE( '', #326, #315, #327, .T. );
#279 = EDGE_CURVE( '', #292, #326, #328, .T. );
#280 = FILL_AREA_STYLE( '', ( #329 ) );
#281 = FILL_AREA_STYLE( '', ( #330 ) );
#282 = EDGE_CURVE( '', #331, #326, #332, .T. );
#283 = EDGE_CURVE( '', #291, #331, #333, .T. );
#284 = FILL_AREA_STYLE( '', ( #334 ) );
#285 = EDGE_CURVE( '', #316, #309, #335, .T. );
#286 = FILL_AREA_STYLE( '', ( #336 ) );
#287 = EDGE_CURVE( '', #310, #331, #337, .T. );
#288 = FILL_AREA_STYLE( '', ( #338 ) );
#289 = FILL_AREA_STYLE( '', ( #339 ) );
#290 = FILL_AREA_STYLE_COLOUR( '', #340 );
#291 = VERTEX_POINT( '', #341 );
#292 = VERTEX_POINT( '', #342 );
#293 = LINE( '', #343, #344 );
#294 = VERTEX_POINT( '', #345 );
#295 = LINE( '', #346, #347 );
#296 = VERTEX_POINT( '', #348 );
#297 = LINE( '', #349, #350 );
#298 = VERTEX_POINT( '', #351 );
#299 = LINE( '', #352, #353 );
#300 = VERTEX_POINT( '', #354 );
#301 = LINE( '', #355, #356 );
#302 = LINE( '', #357, #358 );
#303 = FILL_AREA_STYLE_COLOUR( '', #359 );
#304 = VERTEX_POINT( '', #360 );
#305 = CIRCLE( '', #361, 6.34286866980000 );
#306 = VERTEX_POINT( '', #362 );
#307 = CIRCLE( '', #363, 6.85857404930000 );
#308 = FILL_AREA_STYLE_COLOUR( '', #364 );
#309 = VERTEX_POINT( '', #365 );
#310 = VERTEX_POINT( '', #366 );
#311 = LINE( '', #367, #368 );
#312 = LINE( '', #369, #370 );
#313 = LINE( '', #371, #372 );
#314 = FILL_AREA_STYLE_COLOUR( '', #373 );
#315 = VERTEX_POINT( '', #374 );
#316 = VERTEX_POINT( '', #375 );
#317 = LINE( '', #376, #377 );
#318 = LINE( '', #378, #379 );
#319 = LINE( '', #380, #381 );
#320 = FILL_AREA_STYLE_COLOUR( '', #382 );
#321 = VERTEX_POINT( '', #383 );
#322 = CIRCLE( '', #384, 7.14142595070000 );
#323 = VERTEX_POINT( '', #385 );
#324 = CIRCLE( '', #386, 6.65713133020000 );
#325 = FILL_AREA_STYLE_COLOUR( '', #387 );
#326 = VERTEX_POINT( '', #388 );
#327 = LINE( '', #389, #390 );
#328 = LINE( '', #391, #392 );
#329 = FILL_AREA_STYLE_COLOUR( '', #393 );
#330 = FILL_AREA_STYLE_COLOUR( '', #394 );
#331 = VERTEX_POINT( '', #395 );
#332 = LINE( '', #396, #397 );
#333 = LINE( '', #398, #399 );
#334 = FILL_AREA_STYLE_COLOUR( '', #400 );
#335 = LINE( '', #401, #402 );
#336 = FILL_AREA_STYLE_COLOUR( '', #403 );
#337 = LINE( '', #404, #405 );
#338 = FILL_AREA_STYLE_COLOUR( '', #406 );
#339 = FILL_AREA_STYLE_COLOUR( '', #407 );
#340 = COLOUR_RGB( '', 0.689999997600000, 0.689999997600000, 0.689999997600000 );
#341 = CARTESIAN_POINT( '', ( 5.00000000000000, 2.02072594216369, 3.50000000000000 ) );
#342 = CARTESIAN_POINT( '', ( 5.00000000000000, -2.02072594216369, 3.50000000000000 ) );
#343 = CARTESIAN_POINT( '', ( 5.00000000000000, 2.02072594216369, 3.50000000000000 ) );
#344 = VECTOR( '', #408, 1000.00000000000 );
#345 = CARTESIAN_POINT( '', ( 5.00000000000000, 4.04145188432738, 0.000000000000000 ) );
#346 = CARTESIAN_POINT( '', ( 5.00000000000000, 4.04145188432738, 0.000000000000000 ) );
#347 = VECTOR( '', #409, 1000.00000000000 );
#348 = CARTESIAN_POINT( '', ( 5.00000000000000, 2.02072594216369, -3.50000000000000 ) );
#349 = CARTESIAN_POINT( '', ( 5.00000000000000, 2.02072594216369, -3.50000000000000 ) );
#350 = VECTOR( '', #410, 1000.00000000000 );
#351 = CARTESIAN_POINT( '', ( 5.00000000000000, -2.02072594216369, -3.50000000000000 ) );
#352 = CARTESIAN_POINT( '', ( 5.00000000000000, -2.02072594216369, -3.50000000000000 ) );
#353 = VECTOR( '', #411, 1000.00000000000 );
#354 = CARTESIAN_POINT( '', ( 5.00000000000000, -4.04145188432738, 0.000000000000000 ) );
#355 = CARTESIAN_POINT( '', ( 5.00000000000000, -4.04145188432738, 0.000000000000000 ) );
#356 = VECTOR( '', #412, 1000.00000000000 );
#357 = CARTESIAN_POINT( '', ( 5.00000000000000, -2.02072594216369, 3.50000000000000 ) );
#358 = VECTOR( '', #413, 1000.00000000000 );
#359 = COLOUR_RGB( '', 0.689999997600000, 0.689999997600000, 0.689999997600000 );
#360 = CARTESIAN_POINT( '', ( 10.0000000000000, 0.000000000000000, -6.34286866978324 ) );
#361 = AXIS2_PLACEMENT_3D( '', #414, #415, #416 );
#362 = CARTESIAN_POINT( '', ( 9.50024671981713, 0.000000000000000, -6.85857404932231 ) );
#363 = AXIS2_PLACEMENT_3D( '', #417, #418, #419 );
#364 = COLOUR_RGB( '', 0.689999997600000, 0.689999997600000, 0.689999997600000 );
#365 = CARTESIAN_POINT( '', ( 0.000000000000000, 2.02072594216369, -3.50000000000000 ) );
#366 = CARTESIAN_POINT( '', ( 0.000000000000000, 4.04145188432738, 0.000000000000000 ) );
#367 = CARTESIAN_POINT( '', ( 0.000000000000000, 2.02072594216369, -3.50000000000000 ) );
#368 = VECTOR( '', #420, 1000.00000000000 );
#369 = CARTESIAN_POINT( '', ( 5.00000000000000, 2.02072594216369, -3.50000000000000 ) );
#370 = VECTOR( '', #421, 1000.00000000000 );
#371 = CARTESIAN_POINT( '', ( 5.00000000000000, 4.04145188432738, 0.000000000000000 ) );
#372 = VECTOR( '', #422, 1000.00000000000 );
#373 = COLOUR_RGB( '', 0.689999997600000, 0.689999997600000, 0.689999997600000 );
#374 = CARTESIAN_POINT( '', ( 0.000000000000000, -4.04145188432738, 0.000000000000000 ) );
#375 = CARTESIAN_POINT( '', ( 0.000000000000000, -2.02072594216369, -3.50000000000000 ) );
#376 = CARTESIAN_POINT( '', ( 0.000000000000000, -4.04145188432738, 0.000000000000000 ) );
#377 = VECTOR( '', #423, 1000.00000000000 );
#378 = CARTESIAN_POINT( '', ( 5.00000000000000, -4.04145188432738, 0.000000000000000 ) );
#379 = VECTOR( '', #424, 1000.00000000000 );
#380 = CARTESIAN_POINT( '', ( 5.00000000000000, -2.02072594216369, -3.50000000000000 ) );
#381 = VECTOR( '', #425, 1000.00000000000 );
#382 = COLOUR_RGB( '', 0.689999997600000, 0.689999997600000, 0.689999997600000 );
#383 = CARTESIAN_POINT( '', ( 0.499753280182865, 0.000000000000000, -7.14142595067769 ) );
#384 = AXIS2_PLACEMENT_3D( '', #426, #427, #428 );
#385 = CARTESIAN_POINT( '', ( 0.000000000000000, 0.000000000000000, -6.65713133021676 ) );
#386 = AXIS2_PLACEMENT_3D( '', #429, #430, #431 );
#387 = COLOUR_RGB( '', 0.689999997600000, 0.689999997600000, 0.689999997600000 );
#388 = CARTESIAN_POINT( '', ( 0.000000000000000, -2.02072594216369, 3.50000000000000 ) );
#389 = CARTESIAN_POINT( '', ( 0.000000000000000, -2.02072594216369, 3.50000000000000 ) );
#390 = VECTOR( '', #432, 1000.00000000000 );
#391 = CARTESIAN_POINT( '', ( 5.00000000000000, -2.02072594216369, 3.50000000000000 ) );
#392 = VECTOR( '', #433, 1000.00000000000 );
#393 = COLOUR_RGB( '', 0.689999997600000, 0.689999997600000, 0.689999997600000 );
#394 = COLOUR_RGB( '', 0.689999997600000, 0.689999997600000, 0.689999997600000 );
#395 = CARTESIAN_POINT( '', ( 0.000000000000000, 2.02072594216369, 3.50000000000000 ) );
#396 = CARTESIAN_POINT( '', ( 0.000000000000000, 2.02072594216369, 3.50000000000000 ) );
#397 = VECTOR( '', #434, 1000.00000000000 );
#398 = CARTESIAN_POINT( '', ( 5.00000000000000, 2.02072594216369, 3.50000000000000 ) );
#399 = VECTOR( '', #435, 1000.00000000000 );
#400 = COLOUR_RGB( '', 0.689999997600000, 0.689999997600000, 0.689999997600000 );
#401 = CARTESIAN_POINT( '', ( 0.000000000000000, -2.02072594216369, -3.50000000000000 ) );
#402 = VECTOR( '', #436, 1000.00000000000 );
#403 = COLOUR_RGB( '', 0.689999997600000, 0.689999997600000, 0.689999997600000 );
#404 = CARTESIAN_POINT( '', ( 0.000000000000000, 4.04145188432738, 0.000000000000000 ) );
#405 = VECTOR( '', #437, 1000.00000000000 );
#406 = COLOUR_RGB( '', 0.689999997600000, 0.689999997600000, 0.689999997600000 );
#407 = COLOUR_RGB( '', 0.689999997600000, 0.689999997600000, 0.689999997600000 );
#408 = DIRECTION( '', ( 0.000000000000000, -1.00000000000000, 0.000000000000000 ) );
#409 = DIRECTION( '', ( 0.000000000000000, -0.500000000000000, 0.866025403784439 ) );
#410 = DIRECTION( '', ( 0.000000000000000, 0.500000000000000, 0.866025403784439 ) );
#411 = DIRECTION( '', ( 0.000000000000000, 1.00000000000000, 0.000000000000000 ) );
#412 = DIRECTION( '', ( 0.000000000000000, 0.500000000000000, -0.866025403784439 ) );
#413 = DIRECTION( '', ( 0.000000000000000, -0.500000000000000, -0.866025403784439 ) );
#414 = CARTESIAN_POINT( '', ( 10.0000000000000, 0.000000000000000, 0.000000000000000 ) );
#415 = DIRECTION( '', ( 1.00000000000000, 0.000000000000000, -0.000000000000000 ) );
#416 = DIRECTION( '', ( -0.000000000000000, 0.000000000000000, -1.00000000000000 ) );
#417 = CARTESIAN_POINT( '', ( 9.50024671981713, 0.000000000000000, 0.000000000000000 ) );
#418 = DIRECTION( '', ( 1.00000000000000, 0.000000000000000, -0.000000000000000 ) );
#419 = DIRECTION( '', ( -0.000000000000000, 0.000000000000000, -1.00000000000000 ) );
#420 = DIRECTION( '', ( 0.000000000000000, 0.500000000000000, 0.866025403784439 ) );
#421 = DIRECTION( '', ( -1.00000000000000, -0.000000000000000, -0.000000000000000 ) );
#422 = DIRECTION( '', ( -1.00000000000000, -0.000000000000000, -0.000000000000000 ) );
#423 = DIRECTION( '', ( 0.000000000000000, 0.500000000000000, -0.866025403784439 ) );
#424 = DIRECTION( '', ( -1.00000000000000, -0.000000000000000, -0.000000000000000 ) );
#425 = DIRECTION( '', ( -1.00000000000000, -0.000000000000000, -0.000000000000000 ) );
#426 = CARTESIAN_POINT( '', ( 0.499753280182865, 0.000000000000000, 0.000000000000000 ) );
#427 = DIRECTION( '', ( 1.00000000000000, 0.000000000000000, -0.000000000000000 ) );
#428 = DIRECTION( '', ( -0.000000000000000, 0.000000000000000, -1.00000000000000 ) );
#429 = CARTESIAN_POINT( '', ( 0.000000000000000, 0.000000000000000, 0.000000000000000 ) );
#430 = DIRECTION( '', ( 1.00000000000000, 0.000000000000000, -0.000000000000000 ) );
#431 = DIRECTION( '', ( -0.000000000000000, 0.000000000000000, -1.00000000000000 ) );
#432 = DIRECTION( '', ( 0.000000000000000, -0.500000000000000, -0.866025403784439 ) );
#433 = DIRECTION( '', ( -1.00000000000000, -0.000000000000000, -0.000000000000000 ) );
#434 = DIRECTION( '', ( 0.000000000000000, -1.00000000000000, 0.000000000000000 ) );
#435 = DIRECTION( '', ( -1.00000000000000, -0.000000000000000, -0.000000000000000 ) );
#436 = DIRECTION( '', ( 0.000000000000000, 1.00000000000000, 0.000000000000000 ) );
#437 = DIRECTION( '', ( 0.000000000000000, -0.500000000000000, 0.866025403784439 ) );
ENDSEC;
END-ISO-10303-21;
