ISO-10303-21;
HEADER;
FILE_DESCRIPTION( ( 'STEP AP214' ), '1' );
FILE_NAME( '//goodhand-server/Shared Folders/GoodHand Data/Kipp CAD/K1154/K1154.1141030.stp', '2020-12-10T10:26:48', ( '' ), ( '' ), ' ', 'PARTsolutions', ' ' );
FILE_SCHEMA( ( 'AUTOMOTIVE_DESIGN { 1 0 10303 214 1 1 1 1 }' ) );
ENDSEC;
DATA;
#1 = MECHANICAL_DESIGN_GEOMETRIC_PRESENTATION_REPRESENTATION( ' ', ( #10, #11, #12, #13, #14, #15, #16, #17, #18, #19, #20 ), #6 );
#2 = PRODUCT_DEFINITION_CONTEXT( '', #21, 'design' );
#3 = APPLICATION_PROTOCOL_DEFINITION( 'international standard', 'automotive_design', 2001, #21 );
#4 = PRODUCT_CATEGORY_RELATIONSHIP( 'NONE', 'NONE', #22, #23 );
#5 = SHAPE_DEFINITION_REPRESENTATION( #24, #25 );
#6 =  ( GEOMETRIC_REPRESENTATION_CONTEXT( 3 )GLOBAL_UNCERTAINTY_ASSIGNED_CONTEXT( ( #28 ) )GLOBAL_UNIT_ASSIGNED_CONTEXT( ( #30, #31, #32 ) )REPRESENTATION_CONTEXT( 'NONE', 'WORKSPACE' ) );
#10 = STYLED_ITEM( '', ( #34 ), #35 );
#11 = STYLED_ITEM( '', ( #36 ), #37 );
#12 = STYLED_ITEM( '', ( #38 ), #39 );
#13 = STYLED_ITEM( '', ( #40 ), #41 );
#14 = STYLED_ITEM( '', ( #42 ), #43 );
#15 = STYLED_ITEM( '', ( #44 ), #45 );
#16 = STYLED_ITEM( '', ( #46 ), #47 );
#17 = STYLED_ITEM( '', ( #48 ), #49 );
#18 = STYLED_ITEM( '', ( #50 ), #51 );
#19 = STYLED_ITEM( '', ( #52 ), #53 );
#20 = STYLED_ITEM( '', ( #54 ), #55 );
#21 = APPLICATION_CONTEXT( 'core data for automotive mechanical design processes' );
#22 = PRODUCT_CATEGORY( 'part', 'NONE' );
#23 = PRODUCT_RELATED_PRODUCT_CATEGORY( 'detail', ' ', ( #56 ) );
#24 = PRODUCT_DEFINITION_SHAPE( 'NONE', 'NONE', #57 );
#25 = ADVANCED_BREP_SHAPE_REPRESENTATION( '_K1154.1141030', ( #58, #59 ), #6 );
#28 = UNCERTAINTY_MEASURE_WITH_UNIT( LENGTH_MEASURE( 0.00100000000000000 ), #30, '', '' );
#30 =  ( CONVERSION_BASED_UNIT( 'MILLIMETRE', #62 )LENGTH_UNIT(  )NAMED_UNIT( #65 ) );
#31 =  ( NAMED_UNIT( #67 )PLANE_ANGLE_UNIT(  )SI_UNIT( $, .RADIAN. ) );
#32 =  ( NAMED_UNIT( #67 )SI_UNIT( $, .STERADIAN. )SOLID_ANGLE_UNIT(  ) );
#34 = PRESENTATION_STYLE_ASSIGNMENT( ( #73 ) );
#35 = ADVANCED_FACE( '', ( #74, #75, #76, #77, #78 ), #79, .F. );
#36 = PRESENTATION_STYLE_ASSIGNMENT( ( #80 ) );
#37 = ADVANCED_FACE( '', ( #81 ), #82, .T. );
#38 = PRESENTATION_STYLE_ASSIGNMENT( ( #83 ) );
#39 = ADVANCED_FACE( '', ( #84, #85 ), #86, .F. );
#40 = PRESENTATION_STYLE_ASSIGNMENT( ( #87 ) );
#41 = ADVANCED_FACE( '', ( #88, #89 ), #90, .T. );
#42 = PRESENTATION_STYLE_ASSIGNMENT( ( #91 ) );
#43 = ADVANCED_FACE( '', ( #92, #93 ), #94, .F. );
#44 = PRESENTATION_STYLE_ASSIGNMENT( ( #95 ) );
#45 = ADVANCED_FACE( '', ( #96, #97, #98, #99 ), #100, .F. );
#46 = PRESENTATION_STYLE_ASSIGNMENT( ( #101 ) );
#47 = ADVANCED_FACE( '', ( #102, #103 ), #104, .T. );
#48 = PRESENTATION_STYLE_ASSIGNMENT( ( #105 ) );
#49 = ADVANCED_FACE( '', ( #106, #107 ), #108, .F. );
#50 = PRESENTATION_STYLE_ASSIGNMENT( ( #109 ) );
#51 = ADVANCED_FACE( '', ( #110, #111 ), #112, .T. );
#52 = PRESENTATION_STYLE_ASSIGNMENT( ( #113 ) );
#53 = ADVANCED_FACE( '', ( #114, #115 ), #116, .T. );
#54 = PRESENTATION_STYLE_ASSIGNMENT( ( #117 ) );
#55 = ADVANCED_FACE( '', ( #118, #119 ), #120, .F. );
#56 = PRODUCT( '_K1154.1141030', '_K1154.1141030', 'PART-_K1154.1141030-DESC', ( #121 ) );
#57 = PRODUCT_DEFINITION( 'NONE', 'NONE', #122, #2 );
#58 = MANIFOLD_SOLID_BREP( '_K1154.1141030', #123 );
#59 = AXIS2_PLACEMENT_3D( '', #124, #125, #126 );
#62 = LENGTH_MEASURE_WITH_UNIT( LENGTH_MEASURE( 1.00000000000000 ), #127 );
#65 = DIMENSIONAL_EXPONENTS( 1.00000000000000, 0.000000000000000, 0.000000000000000, 0.000000000000000, 0.000000000000000, 0.000000000000000, 0.000000000000000 );
#67 = DIMENSIONAL_EXPONENTS( 0.000000000000000, 0.000000000000000, 0.000000000000000, 0.000000000000000, 0.000000000000000, 0.000000000000000, 0.000000000000000 );
#73 = SURFACE_STYLE_USAGE( .BOTH., #128 );
#74 = FACE_OUTER_BOUND( '', #129, .T. );
#75 = FACE_BOUND( '', #130, .T. );
#76 = FACE_BOUND( '', #131, .T. );
#77 = FACE_BOUND( '', #132, .T. );
#78 = FACE_BOUND( '', #133, .T. );
#79 = PLANE( '', #134 );
#80 = SURFACE_STYLE_USAGE( .BOTH., #135 );
#81 = FACE_OUTER_BOUND( '', #136, .T. );
#82 = PLANE( '', #137 );
#83 = SURFACE_STYLE_USAGE( .BOTH., #138 );
#84 = FACE_OUTER_BOUND( '', #139, .T. );
#85 = FACE_OUTER_BOUND( '', #140, .T. );
#86 = CYLINDRICAL_SURFACE( '', #141, 0.500000000000000 );
#87 = SURFACE_STYLE_USAGE( .BOTH., #142 );
#88 = FACE_OUTER_BOUND( '', #143, .T. );
#89 = FACE_OUTER_BOUND( '', #144, .T. );
#90 = CYLINDRICAL_SURFACE( '', #145, 7.00000000000000 );
#91 = SURFACE_STYLE_USAGE( .BOTH., #146 );
#92 = FACE_BOUND( '', #147, .T. );
#93 = FACE_OUTER_BOUND( '', #148, .T. );
#94 = CONICAL_SURFACE( '', #149, 5.19000000000000, 0.451026811800000 );
#95 = SURFACE_STYLE_USAGE( .BOTH., #150 );
#96 = FACE_BOUND( '', #151, .T. );
#97 = FACE_BOUND( '', #152, .T. );
#98 = FACE_BOUND( '', #153, .T. );
#99 = FACE_OUTER_BOUND( '', #154, .T. );
#100 = PLANE( '', #155 );
#101 = SURFACE_STYLE_USAGE( .BOTH., #156 );
#102 = FACE_OUTER_BOUND( '', #157, .T. );
#103 = FACE_OUTER_BOUND( '', #158, .T. );
#104 = CYLINDRICAL_SURFACE( '', #159, 10.0000000000000 );
#105 = SURFACE_STYLE_USAGE( .BOTH., #160 );
#106 = FACE_OUTER_BOUND( '', #161, .T. );
#107 = FACE_OUTER_BOUND( '', #162, .T. );
#108 = CYLINDRICAL_SURFACE( '', #163, 0.500000000000000 );
#109 = SURFACE_STYLE_USAGE( .BOTH., #164 );
#110 = FACE_BOUND( '', #165, .T. );
#111 = FACE_OUTER_BOUND( '', #166, .T. );
#112 = CONICAL_SURFACE( '', #167, 7.00000000000000, 0.451026811800000 );
#113 = SURFACE_STYLE_USAGE( .BOTH., #168 );
#114 = FACE_OUTER_BOUND( '', #169, .T. );
#115 = FACE_OUTER_BOUND( '', #170, .T. );
#116 = TOROIDAL_SURFACE( '', #171, 6.00000000000000, 0.900000000000000 );
#117 = SURFACE_STYLE_USAGE( .BOTH., #172 );
#118 = FACE_OUTER_BOUND( '', #173, .T. );
#119 = FACE_OUTER_BOUND( '', #174, .T. );
#120 = CYLINDRICAL_SURFACE( '', #175, 0.500000000000000 );
#121 = PRODUCT_CONTEXT( '', #21, 'mechanical' );
#122 = PRODUCT_DEFINITION_FORMATION_WITH_SPECIFIED_SOURCE( ' ', 'NONE', #56, .NOT_KNOWN. );
#123 = CLOSED_SHELL( '', ( #35, #49, #45, #47, #41, #51, #43, #53, #37, #55, #39 ) );
#124 = CARTESIAN_POINT( '', ( 0.000000000000000, 0.000000000000000, 0.000000000000000 ) );
#125 = DIRECTION( '', ( 0.000000000000000, 0.000000000000000, 1.00000000000000 ) );
#126 = DIRECTION( '', ( 1.00000000000000, 0.000000000000000, 0.000000000000000 ) );
#127 =  ( LENGTH_UNIT(  )NAMED_UNIT( #65 )SI_UNIT( .MILLI., .METRE. ) );
#128 = SURFACE_SIDE_STYLE( '', ( #177 ) );
#129 = EDGE_LOOP( '', ( #178 ) );
#130 = EDGE_LOOP( '', ( #179 ) );
#131 = EDGE_LOOP( '', ( #180 ) );
#132 = EDGE_LOOP( '', ( #181 ) );
#133 = EDGE_LOOP( '', ( #182 ) );
#134 = AXIS2_PLACEMENT_3D( '', #183, #184, #185 );
#135 = SURFACE_SIDE_STYLE( '', ( #186 ) );
#136 = EDGE_LOOP( '', ( #187 ) );
#137 = AXIS2_PLACEMENT_3D( '', #188, #189, #190 );
#138 = SURFACE_SIDE_STYLE( '', ( #191 ) );
#139 = EDGE_LOOP( '', ( #192 ) );
#140 = EDGE_LOOP( '', ( #193 ) );
#141 = AXIS2_PLACEMENT_3D( '', #194, #195, #196 );
#142 = SURFACE_SIDE_STYLE( '', ( #197 ) );
#143 = EDGE_LOOP( '', ( #198 ) );
#144 = EDGE_LOOP( '', ( #199 ) );
#145 = AXIS2_PLACEMENT_3D( '', #200, #201, #202 );
#146 = SURFACE_SIDE_STYLE( '', ( #203 ) );
#147 = EDGE_LOOP( '', ( #204 ) );
#148 = EDGE_LOOP( '', ( #205 ) );
#149 = AXIS2_PLACEMENT_3D( '', #206, #207, #208 );
#150 = SURFACE_SIDE_STYLE( '', ( #209 ) );
#151 = EDGE_LOOP( '', ( #210 ) );
#152 = EDGE_LOOP( '', ( #211 ) );
#153 = EDGE_LOOP( '', ( #212 ) );
#154 = EDGE_LOOP( '', ( #213 ) );
#155 = AXIS2_PLACEMENT_3D( '', #214, #215, #216 );
#156 = SURFACE_SIDE_STYLE( '', ( #217 ) );
#157 = EDGE_LOOP( '', ( #218 ) );
#158 = EDGE_LOOP( '', ( #219 ) );
#159 = AXIS2_PLACEMENT_3D( '', #220, #221, #222 );
#160 = SURFACE_SIDE_STYLE( '', ( #223 ) );
#161 = EDGE_LOOP( '', ( #224 ) );
#162 = EDGE_LOOP( '', ( #225 ) );
#163 = AXIS2_PLACEMENT_3D( '', #226, #227, #228 );
#164 = SURFACE_SIDE_STYLE( '', ( #229 ) );
#165 = EDGE_LOOP( '', ( #230 ) );
#166 = EDGE_LOOP( '', ( #231 ) );
#167 = AXIS2_PLACEMENT_3D( '', #232, #233, #234 );
#168 = SURFACE_SIDE_STYLE( '', ( #235 ) );
#169 = EDGE_LOOP( '', ( #236 ) );
#170 = EDGE_LOOP( '', ( #237 ) );
#171 = AXIS2_PLACEMENT_3D( '', #238, #239, #240 );
#172 = SURFACE_SIDE_STYLE( '', ( #241 ) );
#173 = EDGE_LOOP( '', ( #242 ) );
#174 = EDGE_LOOP( '', ( #243 ) );
#175 = AXIS2_PLACEMENT_3D( '', #244, #245, #246 );
#177 = SURFACE_STYLE_FILL_AREA( #247 );
#178 = ORIENTED_EDGE( '', *, *, #248, .F. );
#179 = ORIENTED_EDGE( '', *, *, #249, .F. );
#180 = ORIENTED_EDGE( '', *, *, #250, .F. );
#181 = ORIENTED_EDGE( '', *, *, #251, .F. );
#182 = ORIENTED_EDGE( '', *, *, #252, .T. );
#183 = CARTESIAN_POINT( '', ( 7.00000000000000, 1.00000000000000, 0.000000000000000 ) );
#184 = DIRECTION( '', ( 0.000000000000000, -1.00000000000000, -0.000000000000000 ) );
#185 = DIRECTION( '', ( 0.000000000000000, 0.000000000000000, -1.00000000000000 ) );
#186 = SURFACE_STYLE_FILL_AREA( #253 );
#187 = ORIENTED_EDGE( '', *, *, #254, .F. );
#188 = CARTESIAN_POINT( '', ( 5.00000000000000, 9.10000000000000, 0.000000000000000 ) );
#189 = DIRECTION( '', ( 0.000000000000000, 1.00000000000000, 0.000000000000000 ) );
#190 = DIRECTION( '', ( 0.000000000000000, -0.000000000000000, 1.00000000000000 ) );
#191 = SURFACE_STYLE_FILL_AREA( #255 );
#192 = ORIENTED_EDGE( '', *, *, #249, .T. );
#193 = ORIENTED_EDGE( '', *, *, #256, .F. );
#194 = CARTESIAN_POINT( '', ( 4.25000000000000, 1.00000000000000, -7.36121593216773 ) );
#195 = DIRECTION( '', ( -0.000000000000000, 1.00000000000000, -0.000000000000000 ) );
#196 = DIRECTION( '', ( 0.866025403784439, 0.000000000000000, 0.500000000000000 ) );
#197 = SURFACE_STYLE_FILL_AREA( #257 );
#198 = ORIENTED_EDGE( '', *, *, #252, .F. );
#199 = ORIENTED_EDGE( '', *, *, #258, .T. );
#200 = CARTESIAN_POINT( '', ( 0.000000000000000, 0.000000000000000, 0.000000000000000 ) );
#201 = DIRECTION( '', ( -0.000000000000000, 1.00000000000000, 0.000000000000000 ) );
#202 = DIRECTION( '', ( 0.000000000000000, 0.000000000000000, -1.00000000000000 ) );
#203 = SURFACE_STYLE_FILL_AREA( #259 );
#204 = ORIENTED_EDGE( '', *, *, #254, .T. );
#205 = ORIENTED_EDGE( '', *, *, #260, .F. );
#206 = CARTESIAN_POINT( '', ( 0.000000000000000, 9.49230090491866, 0.000000000000000 ) );
#207 = DIRECTION( '', ( -0.000000000000000, 1.00000000000000, 0.000000000000000 ) );
#208 = DIRECTION( '', ( 0.000000000000000, -0.000000000000000, 1.00000000000000 ) );
#209 = SURFACE_STYLE_FILL_AREA( #261 );
#210 = ORIENTED_EDGE( '', *, *, #256, .T. );
#211 = ORIENTED_EDGE( '', *, *, #262, .T. );
#212 = ORIENTED_EDGE( '', *, *, #263, .T. );
#213 = ORIENTED_EDGE( '', *, *, #264, .T. );
#214 = CARTESIAN_POINT( '', ( 10.0000000000000, 0.000000000000000, 0.000000000000000 ) );
#215 = DIRECTION( '', ( 0.000000000000000, 1.00000000000000, 0.000000000000000 ) );
#216 = DIRECTION( '', ( 0.000000000000000, -0.000000000000000, 1.00000000000000 ) );
#217 = SURFACE_STYLE_FILL_AREA( #265 );
#218 = ORIENTED_EDGE( '', *, *, #264, .F. );
#219 = ORIENTED_EDGE( '', *, *, #248, .T. );
#220 = CARTESIAN_POINT( '', ( 0.000000000000000, 0.000000000000000, 0.000000000000000 ) );
#221 = DIRECTION( '', ( -0.000000000000000, 1.00000000000000, 0.000000000000000 ) );
#222 = DIRECTION( '', ( 0.000000000000000, 0.000000000000000, -1.00000000000000 ) );
#223 = SURFACE_STYLE_FILL_AREA( #266 );
#224 = ORIENTED_EDGE( '', *, *, #251, .T. );
#225 = ORIENTED_EDGE( '', *, *, #263, .F. );
#226 = CARTESIAN_POINT( '', ( -8.50000000000000, 1.00000000000000, 0.000000000000000 ) );
#227 = DIRECTION( '', ( -0.000000000000000, 1.00000000000000, 0.000000000000000 ) );
#228 = DIRECTION( '', ( 0.000000000000000, 0.000000000000000, -1.00000000000000 ) );
#229 = SURFACE_STYLE_FILL_AREA( #267 );
#230 = ORIENTED_EDGE( '', *, *, #268, .T. );
#231 = ORIENTED_EDGE( '', *, *, #258, .F. );
#232 = CARTESIAN_POINT( '', ( 0.000000000000000, 9.09999999999998, 0.000000000000000 ) );
#233 = DIRECTION( '', ( -0.000000000000000, -1.00000000000000, -0.000000000000000 ) );
#234 = DIRECTION( '', ( 0.000000000000000, 0.000000000000000, -1.00000000000000 ) );
#235 = SURFACE_STYLE_FILL_AREA( #269 );
#236 = ORIENTED_EDGE( '', *, *, #260, .T. );
#237 = ORIENTED_EDGE( '', *, *, #268, .F. );
#238 = CARTESIAN_POINT( '', ( 0.000000000000000, 9.10000000000000, 0.000000000000000 ) );
#239 = DIRECTION( '', ( 0.000000000000000, -1.00000000000000, -0.000000000000000 ) );
#240 = DIRECTION( '', ( 0.000000000000000, 0.000000000000000, -1.00000000000000 ) );
#241 = SURFACE_STYLE_FILL_AREA( #270 );
#242 = ORIENTED_EDGE( '', *, *, #250, .T. );
#243 = ORIENTED_EDGE( '', *, *, #262, .F. );
#244 = CARTESIAN_POINT( '', ( 4.25000000000000, 1.00000000000000, 7.36121593216773 ) );
#245 = DIRECTION( '', ( -0.000000000000000, 1.00000000000000, -0.000000000000000 ) );
#246 = DIRECTION( '', ( -0.866025403784439, 0.000000000000000, 0.500000000000000 ) );
#247 = FILL_AREA_STYLE( '', ( #271 ) );
#248 = EDGE_CURVE( '', #272, #272, #273, .T. );
#249 = EDGE_CURVE( '', #274, #274, #275, .T. );
#250 = EDGE_CURVE( '', #276, #276, #277, .T. );
#251 = EDGE_CURVE( '', #278, #278, #279, .T. );
#252 = EDGE_CURVE( '', #280, #280, #281, .T. );
#253 = FILL_AREA_STYLE( '', ( #282 ) );
#254 = EDGE_CURVE( '', #283, #283, #284, .T. );
#255 = FILL_AREA_STYLE( '', ( #285 ) );
#256 = EDGE_CURVE( '', #286, #286, #287, .T. );
#257 = FILL_AREA_STYLE( '', ( #288 ) );
#258 = EDGE_CURVE( '', #289, #289, #290, .T. );
#259 = FILL_AREA_STYLE( '', ( #291 ) );
#260 = EDGE_CURVE( '', #292, #292, #293, .T. );
#261 = FILL_AREA_STYLE( '', ( #294 ) );
#262 = EDGE_CURVE( '', #295, #295, #296, .T. );
#263 = EDGE_CURVE( '', #297, #297, #298, .T. );
#264 = EDGE_CURVE( '', #299, #299, #300, .T. );
#265 = FILL_AREA_STYLE( '', ( #301 ) );
#266 = FILL_AREA_STYLE( '', ( #302 ) );
#267 = FILL_AREA_STYLE( '', ( #303 ) );
#268 = EDGE_CURVE( '', #304, #304, #305, .T. );
#269 = FILL_AREA_STYLE( '', ( #306 ) );
#270 = FILL_AREA_STYLE( '', ( #307 ) );
#271 = FILL_AREA_STYLE_COLOUR( '', #308 );
#272 = VERTEX_POINT( '', #309 );
#273 = CIRCLE( '', #310, 10.0000000000000 );
#274 = VERTEX_POINT( '', #311 );
#275 = CIRCLE( '', #312, 0.500000000000000 );
#276 = VERTEX_POINT( '', #313 );
#277 = CIRCLE( '', #314, 0.500000000000000 );
#278 = VERTEX_POINT( '', #315 );
#279 = CIRCLE( '', #316, 0.500000000000000 );
#280 = VERTEX_POINT( '', #317 );
#281 = CIRCLE( '', #318, 7.00000000000000 );
#282 = FILL_AREA_STYLE_COLOUR( '', #319 );
#283 = VERTEX_POINT( '', #320 );
#284 = CIRCLE( '', #321, 5.00000000000000 );
#285 = FILL_AREA_STYLE_COLOUR( '', #322 );
#286 = VERTEX_POINT( '', #323 );
#287 = CIRCLE( '', #324, 0.500000000000000 );
#288 = FILL_AREA_STYLE_COLOUR( '', #325 );
#289 = VERTEX_POINT( '', #326 );
#290 = CIRCLE( '', #327, 7.00000000000000 );
#291 = FILL_AREA_STYLE_COLOUR( '', #328 );
#292 = VERTEX_POINT( '', #329 );
#293 = CIRCLE( '', #330, 5.19000000000000 );
#294 = FILL_AREA_STYLE_COLOUR( '', #331 );
#295 = VERTEX_POINT( '', #332 );
#296 = CIRCLE( '', #333, 0.500000000000000 );
#297 = VERTEX_POINT( '', #334 );
#298 = CIRCLE( '', #335, 0.500000000000000 );
#299 = VERTEX_POINT( '', #336 );
#300 = CIRCLE( '', #337, 10.0000000000000 );
#301 = FILL_AREA_STYLE_COLOUR( '', #338 );
#302 = FILL_AREA_STYLE_COLOUR( '', #339 );
#303 = FILL_AREA_STYLE_COLOUR( '', #340 );
#304 = VERTEX_POINT( '', #341 );
#305 = CIRCLE( '', #342, 6.81000000000000 );
#306 = FILL_AREA_STYLE_COLOUR( '', #343 );
#307 = FILL_AREA_STYLE_COLOUR( '', #344 );
#308 = COLOUR_RGB( '', 0.689999997600000, 0.689999997600000, 0.689999997600000 );
#309 = CARTESIAN_POINT( '', ( 0.000000000000000, 1.00000000000000, -10.0000000000000 ) );
#310 = AXIS2_PLACEMENT_3D( '', #345, #346, #347 );
#311 = CARTESIAN_POINT( '', ( 4.00000000000000, 1.00000000000000, -6.92820323027551 ) );
#312 = AXIS2_PLACEMENT_3D( '', #348, #349, #350 );
#313 = CARTESIAN_POINT( '', ( 4.00000000000000, 1.00000000000000, 6.92820323027551 ) );
#314 = AXIS2_PLACEMENT_3D( '', #351, #352, #353 );
#315 = CARTESIAN_POINT( '', ( -8.00000000000000, 1.00000000000000, 0.000000000000000 ) );
#316 = AXIS2_PLACEMENT_3D( '', #354, #355, #356 );
#317 = CARTESIAN_POINT( '', ( 0.000000000000000, 0.999999999999999, -7.00000000000000 ) );
#318 = AXIS2_PLACEMENT_3D( '', #357, #358, #359 );
#319 = COLOUR_RGB( '', 0.689999997600000, 0.689999997600000, 0.689999997600000 );
#320 = CARTESIAN_POINT( '', ( 0.000000000000000, 9.10000000000000, -5.00000000000000 ) );
#321 = AXIS2_PLACEMENT_3D( '', #360, #361, #362 );
#322 = COLOUR_RGB( '', 0.689999997600000, 0.689999997600000, 0.689999997600000 );
#323 = CARTESIAN_POINT( '', ( 4.00000000000000, 0.000000000000000, -6.92820323027551 ) );
#324 = AXIS2_PLACEMENT_3D( '', #363, #364, #365 );
#325 = COLOUR_RGB( '', 0.689999997600000, 0.689999997600000, 0.689999997600000 );
#326 = CARTESIAN_POINT( '', ( 0.000000000000000, 9.09999999999998, -7.00000000000000 ) );
#327 = AXIS2_PLACEMENT_3D( '', #366, #367, #368 );
#328 = COLOUR_RGB( '', 0.689999997600000, 0.689999997600000, 0.689999997600000 );
#329 = CARTESIAN_POINT( '', ( 0.000000000000000, 9.49230090491866, -5.19000000000000 ) );
#330 = AXIS2_PLACEMENT_3D( '', #369, #370, #371 );
#331 = COLOUR_RGB( '', 0.689999997600000, 0.689999997600000, 0.689999997600000 );
#332 = CARTESIAN_POINT( '', ( 4.00000000000000, 0.000000000000000, 6.92820323027551 ) );
#333 = AXIS2_PLACEMENT_3D( '', #372, #373, #374 );
#334 = CARTESIAN_POINT( '', ( -8.00000000000000, 0.000000000000000, 0.000000000000000 ) );
#335 = AXIS2_PLACEMENT_3D( '', #375, #376, #377 );
#336 = CARTESIAN_POINT( '', ( 0.000000000000000, 0.000000000000000, -10.0000000000000 ) );
#337 = AXIS2_PLACEMENT_3D( '', #378, #379, #380 );
#338 = COLOUR_RGB( '', 0.689999997600000, 0.689999997600000, 0.689999997600000 );
#339 = COLOUR_RGB( '', 0.689999997600000, 0.689999997600000, 0.689999997600000 );
#340 = COLOUR_RGB( '', 0.689999997600000, 0.689999997600000, 0.689999997600000 );
#341 = CARTESIAN_POINT( '', ( 0.000000000000000, 9.49230090491865, -6.81000000000001 ) );
#342 = AXIS2_PLACEMENT_3D( '', #381, #382, #383 );
#343 = COLOUR_RGB( '', 0.689999997600000, 0.689999997600000, 0.689999997600000 );
#344 = COLOUR_RGB( '', 0.689999997600000, 0.689999997600000, 0.689999997600000 );
#345 = CARTESIAN_POINT( '', ( 0.000000000000000, 1.00000000000000, 0.000000000000000 ) );
#346 = DIRECTION( '', ( 0.000000000000000, -1.00000000000000, -0.000000000000000 ) );
#347 = DIRECTION( '', ( 0.000000000000000, 0.000000000000000, -1.00000000000000 ) );
#348 = CARTESIAN_POINT( '', ( 4.25000000000000, 1.00000000000000, -7.36121593216773 ) );
#349 = DIRECTION( '', ( 0.000000000000000, 1.00000000000000, 0.000000000000000 ) );
#350 = DIRECTION( '', ( -0.500000000000000, 0.000000000000000, 0.866025403784439 ) );
#351 = CARTESIAN_POINT( '', ( 4.25000000000000, 1.00000000000000, 7.36121593216773 ) );
#352 = DIRECTION( '', ( 0.000000000000000, 1.00000000000000, 0.000000000000000 ) );
#353 = DIRECTION( '', ( -0.500000000000000, 0.000000000000000, -0.866025403784439 ) );
#354 = CARTESIAN_POINT( '', ( -8.50000000000000, 1.00000000000000, 0.000000000000000 ) );
#355 = DIRECTION( '', ( -0.000000000000000, 1.00000000000000, 0.000000000000000 ) );
#356 = DIRECTION( '', ( 1.00000000000000, 0.000000000000000, 0.000000000000000 ) );
#357 = CARTESIAN_POINT( '', ( 0.000000000000000, 0.999999999999999, 0.000000000000000 ) );
#358 = DIRECTION( '', ( 0.000000000000000, -1.00000000000000, -0.000000000000000 ) );
#359 = DIRECTION( '', ( 0.000000000000000, 0.000000000000000, -1.00000000000000 ) );
#360 = CARTESIAN_POINT( '', ( 0.000000000000000, 9.10000000000000, 0.000000000000000 ) );
#361 = DIRECTION( '', ( 0.000000000000000, -1.00000000000000, -0.000000000000000 ) );
#362 = DIRECTION( '', ( 0.000000000000000, 0.000000000000000, -1.00000000000000 ) );
#363 = CARTESIAN_POINT( '', ( 4.25000000000000, 0.000000000000000, -7.36121593216773 ) );
#364 = DIRECTION( '', ( 0.000000000000000, 1.00000000000000, 0.000000000000000 ) );
#365 = DIRECTION( '', ( -0.500000000000000, 0.000000000000000, 0.866025403784439 ) );
#366 = CARTESIAN_POINT( '', ( 0.000000000000000, 9.09999999999998, 0.000000000000000 ) );
#367 = DIRECTION( '', ( 0.000000000000000, -1.00000000000000, -0.000000000000000 ) );
#368 = DIRECTION( '', ( 0.000000000000000, 0.000000000000000, -1.00000000000000 ) );
#369 = CARTESIAN_POINT( '', ( 0.000000000000000, 9.49230090491866, 0.000000000000000 ) );
#370 = DIRECTION( '', ( 0.000000000000000, -1.00000000000000, -0.000000000000000 ) );
#371 = DIRECTION( '', ( 0.000000000000000, 0.000000000000000, -1.00000000000000 ) );
#372 = CARTESIAN_POINT( '', ( 4.25000000000000, 0.000000000000000, 7.36121593216773 ) );
#373 = DIRECTION( '', ( 0.000000000000000, 1.00000000000000, 0.000000000000000 ) );
#374 = DIRECTION( '', ( -0.500000000000000, 0.000000000000000, -0.866025403784439 ) );
#375 = CARTESIAN_POINT( '', ( -8.50000000000000, 0.000000000000000, 0.000000000000000 ) );
#376 = DIRECTION( '', ( -0.000000000000000, 1.00000000000000, 0.000000000000000 ) );
#377 = DIRECTION( '', ( 1.00000000000000, 0.000000000000000, 0.000000000000000 ) );
#378 = CARTESIAN_POINT( '', ( 0.000000000000000, 0.000000000000000, 0.000000000000000 ) );
#379 = DIRECTION( '', ( 0.000000000000000, -1.00000000000000, -0.000000000000000 ) );
#380 = DIRECTION( '', ( 0.000000000000000, 0.000000000000000, -1.00000000000000 ) );
#381 = CARTESIAN_POINT( '', ( 0.000000000000000, 9.49230090491865, 0.000000000000000 ) );
#382 = DIRECTION( '', ( 0.000000000000000, -1.00000000000000, -0.000000000000000 ) );
#383 = DIRECTION( '', ( 0.000000000000000, 0.000000000000000, -1.00000000000000 ) );
ENDSEC;
END-ISO-10303-21;
