ISO-10303-21;
HEADER;
FILE_DESCRIPTION( ( 'STEP AP214' ), '1' );
FILE_NAME( '//goodhand-server/Shared Folders/GoodHand Data/Kipp CAD/K1129/K1129.101615.stp', '2020-12-10T10:15:57', ( '' ), ( '' ), ' ', 'PARTsolutions', ' ' );
FILE_SCHEMA( ( 'AUTOMOTIVE_DESIGN { 1 0 10303 214 1 1 1 1 }' ) );
ENDSEC;
DATA;
#1 = MECHANICAL_DESIGN_GEOMETRIC_PRESENTATION_REPRESENTATION( ' ', ( #10, #11, #12, #13, #14, #15, #16, #17, #18, #19, #20, #21 ), #6 );
#2 = PRODUCT_DEFINITION_CONTEXT( '', #22, 'design' );
#3 = APPLICATION_PROTOCOL_DEFINITION( 'international standard', 'automotive_design', 2001, #22 );
#4 = PRODUCT_CATEGORY_RELATIONSHIP( 'NONE', 'NONE', #23, #24 );
#5 = SHAPE_DEFINITION_REPRESENTATION( #25, #26 );
#6 =  ( GEOMETRIC_REPRESENTATION_CONTEXT( 3 )GLOBAL_UNCERTAINTY_ASSIGNED_CONTEXT( ( #29 ) )GLOBAL_UNIT_ASSIGNED_CONTEXT( ( #31, #32, #33 ) )REPRESENTATION_CONTEXT( 'NONE', 'WORKSPACE' ) );
#10 = STYLED_ITEM( '', ( #35 ), #36 );
#11 = STYLED_ITEM( '', ( #37 ), #38 );
#12 = STYLED_ITEM( '', ( #39 ), #40 );
#13 = STYLED_ITEM( '', ( #41 ), #42 );
#14 = STYLED_ITEM( '', ( #43 ), #44 );
#15 = STYLED_ITEM( '', ( #45 ), #46 );
#16 = STYLED_ITEM( '', ( #47 ), #48 );
#17 = STYLED_ITEM( '', ( #49 ), #50 );
#18 = STYLED_ITEM( '', ( #51 ), #52 );
#19 = STYLED_ITEM( '', ( #53 ), #54 );
#20 = STYLED_ITEM( '', ( #55 ), #56 );
#21 = STYLED_ITEM( '', ( #57 ), #58 );
#22 = APPLICATION_CONTEXT( 'core data for automotive mechanical design processes' );
#23 = PRODUCT_CATEGORY( 'part', 'NONE' );
#24 = PRODUCT_RELATED_PRODUCT_CATEGORY( 'detail', ' ', ( #59 ) );
#25 = PRODUCT_DEFINITION_SHAPE( 'NONE', 'NONE', #60 );
#26 = ADVANCED_BREP_SHAPE_REPRESENTATION( '_K1129.101615', ( #61, #62 ), #6 );
#29 = UNCERTAINTY_MEASURE_WITH_UNIT( LENGTH_MEASURE( 0.00100000000000000 ), #31, '', '' );
#31 =  ( CONVERSION_BASED_UNIT( 'MILLIMETRE', #65 )LENGTH_UNIT(  )NAMED_UNIT( #68 ) );
#32 =  ( NAMED_UNIT( #70 )PLANE_ANGLE_UNIT(  )SI_UNIT( $, .RADIAN. ) );
#33 =  ( NAMED_UNIT( #70 )SI_UNIT( $, .STERADIAN. )SOLID_ANGLE_UNIT(  ) );
#35 = PRESENTATION_STYLE_ASSIGNMENT( ( #76 ) );
#36 = ADVANCED_FACE( '', ( #77 ), #78, .T. );
#37 = PRESENTATION_STYLE_ASSIGNMENT( ( #79 ) );
#38 = ADVANCED_FACE( '', ( #80, #81 ), #82, .T. );
#39 = PRESENTATION_STYLE_ASSIGNMENT( ( #83 ) );
#40 = ADVANCED_FACE( '', ( #84 ), #85, .T. );
#41 = PRESENTATION_STYLE_ASSIGNMENT( ( #86 ) );
#42 = ADVANCED_FACE( '', ( #87, #88 ), #89, .T. );
#43 = PRESENTATION_STYLE_ASSIGNMENT( ( #90 ) );
#44 = ADVANCED_FACE( '', ( #91 ), #92, .T. );
#45 = PRESENTATION_STYLE_ASSIGNMENT( ( #93 ) );
#46 = ADVANCED_FACE( '', ( #94, #95 ), #96, .T. );
#47 = PRESENTATION_STYLE_ASSIGNMENT( ( #97 ) );
#48 = ADVANCED_FACE( '', ( #98 ), #99, .T. );
#49 = PRESENTATION_STYLE_ASSIGNMENT( ( #100 ) );
#50 = ADVANCED_FACE( '', ( #101 ), #102, .T. );
#51 = PRESENTATION_STYLE_ASSIGNMENT( ( #103 ) );
#52 = ADVANCED_FACE( '', ( #104 ), #105, .F. );
#53 = PRESENTATION_STYLE_ASSIGNMENT( ( #106 ) );
#54 = ADVANCED_FACE( '', ( #107 ), #108, .F. );
#55 = PRESENTATION_STYLE_ASSIGNMENT( ( #109 ) );
#56 = ADVANCED_FACE( '', ( #110 ), #111, .T. );
#57 = PRESENTATION_STYLE_ASSIGNMENT( ( #112 ) );
#58 = ADVANCED_FACE( '', ( #113, #114 ), #115, .F. );
#59 = PRODUCT( '_K1129.101615', '_K1129.101615', 'PART-_K1129.101615-DESC', ( #116 ) );
#60 = PRODUCT_DEFINITION( 'NONE', 'NONE', #117, #2 );
#61 = MANIFOLD_SOLID_BREP( '_K1129.101615', #118 );
#62 = AXIS2_PLACEMENT_3D( '', #119, #120, #121 );
#65 = LENGTH_MEASURE_WITH_UNIT( LENGTH_MEASURE( 1.00000000000000 ), #122 );
#68 = DIMENSIONAL_EXPONENTS( 1.00000000000000, 0.000000000000000, 0.000000000000000, 0.000000000000000, 0.000000000000000, 0.000000000000000, 0.000000000000000 );
#70 = DIMENSIONAL_EXPONENTS( 0.000000000000000, 0.000000000000000, 0.000000000000000, 0.000000000000000, 0.000000000000000, 0.000000000000000, 0.000000000000000 );
#76 = SURFACE_STYLE_USAGE( .BOTH., #123 );
#77 = FACE_OUTER_BOUND( '', #124, .T. );
#78 = PLANE( '', #125 );
#79 = SURFACE_STYLE_USAGE( .BOTH., #126 );
#80 = FACE_OUTER_BOUND( '', #127, .T. );
#81 = FACE_BOUND( '', #128, .T. );
#82 = CONICAL_SURFACE( '', #129, 7.65713133020000, 0.769690200100000 );
#83 = SURFACE_STYLE_USAGE( .BOTH., #130 );
#84 = FACE_OUTER_BOUND( '', #131, .T. );
#85 = PLANE( '', #132 );
#86 = SURFACE_STYLE_USAGE( .BOTH., #133 );
#87 = FACE_BOUND( '', #134, .T. );
#88 = FACE_OUTER_BOUND( '', #135, .T. );
#89 = CONICAL_SURFACE( '', #136, 8.14142595070000, 0.0314159265000000 );
#90 = SURFACE_STYLE_USAGE( .BOTH., #137 );
#91 = FACE_OUTER_BOUND( '', #138, .T. );
#92 = PLANE( '', #139 );
#93 = SURFACE_STYLE_USAGE( .BOTH., #140 );
#94 = FACE_BOUND( '', #141, .T. );
#95 = FACE_OUTER_BOUND( '', #142, .T. );
#96 = CONICAL_SURFACE( '', #143, 7.85857404930000, 0.801106126700000 );
#97 = SURFACE_STYLE_USAGE( .BOTH., #144 );
#98 = FACE_OUTER_BOUND( '', #145, .T. );
#99 = PLANE( '', #146 );
#100 = SURFACE_STYLE_USAGE( .BOTH., #147 );
#101 = FACE_OUTER_BOUND( '', #148, .T. );
#102 = PLANE( '', #149 );
#103 = SURFACE_STYLE_USAGE( .BOTH., #150 );
#104 = FACE_OUTER_BOUND( '', #151, .T. );
#105 = PLANE( '', #152 );
#106 = SURFACE_STYLE_USAGE( .BOTH., #153 );
#107 = FACE_OUTER_BOUND( '', #154, .T. );
#108 = PLANE( '', #155 );
#109 = SURFACE_STYLE_USAGE( .BOTH., #156 );
#110 = FACE_OUTER_BOUND( '', #157, .T. );
#111 = PLANE( '', #158 );
#112 = SURFACE_STYLE_USAGE( .BOTH., #159 );
#113 = FACE_OUTER_BOUND( '', #160, .T. );
#114 = FACE_BOUND( '', #161, .T. );
#115 = PLANE( '', #162 );
#116 = PRODUCT_CONTEXT( '', #22, 'mechanical' );
#117 = PRODUCT_DEFINITION_FORMATION_WITH_SPECIFIED_SOURCE( ' ', 'NONE', #59, .NOT_KNOWN. );
#118 = CLOSED_SHELL( '', ( #38, #58, #44, #50, #36, #54, #46, #42, #40, #56, #48, #52 ) );
#119 = CARTESIAN_POINT( '', ( 0.000000000000000, 0.000000000000000, 0.000000000000000 ) );
#120 = DIRECTION( '', ( 0.000000000000000, 0.000000000000000, 1.00000000000000 ) );
#121 = DIRECTION( '', ( 1.00000000000000, 0.000000000000000, 0.000000000000000 ) );
#122 =  ( LENGTH_UNIT(  )NAMED_UNIT( #68 )SI_UNIT( .MILLI., .METRE. ) );
#123 = SURFACE_SIDE_STYLE( '', ( #164 ) );
#124 = EDGE_LOOP( '', ( #165, #166, #167, #168 ) );
#125 = AXIS2_PLACEMENT_3D( '', #169, #170, #171 );
#126 = SURFACE_SIDE_STYLE( '', ( #172 ) );
#127 = EDGE_LOOP( '', ( #173 ) );
#128 = EDGE_LOOP( '', ( #174 ) );
#129 = AXIS2_PLACEMENT_3D( '', #175, #176, #177 );
#130 = SURFACE_SIDE_STYLE( '', ( #178 ) );
#131 = EDGE_LOOP( '', ( #179, #180, #181, #182 ) );
#132 = AXIS2_PLACEMENT_3D( '', #183, #184, #185 );
#133 = SURFACE_SIDE_STYLE( '', ( #186 ) );
#134 = EDGE_LOOP( '', ( #187 ) );
#135 = EDGE_LOOP( '', ( #188 ) );
#136 = AXIS2_PLACEMENT_3D( '', #189, #190, #191 );
#137 = SURFACE_SIDE_STYLE( '', ( #192 ) );
#138 = EDGE_LOOP( '', ( #193, #194, #195, #196 ) );
#139 = AXIS2_PLACEMENT_3D( '', #197, #198, #199 );
#140 = SURFACE_SIDE_STYLE( '', ( #200 ) );
#141 = EDGE_LOOP( '', ( #201 ) );
#142 = EDGE_LOOP( '', ( #202 ) );
#143 = AXIS2_PLACEMENT_3D( '', #203, #204, #205 );
#144 = SURFACE_SIDE_STYLE( '', ( #206 ) );
#145 = EDGE_LOOP( '', ( #207, #208, #209, #210 ) );
#146 = AXIS2_PLACEMENT_3D( '', #211, #212, #213 );
#147 = SURFACE_SIDE_STYLE( '', ( #214 ) );
#148 = EDGE_LOOP( '', ( #215, #216, #217, #218 ) );
#149 = AXIS2_PLACEMENT_3D( '', #219, #220, #221 );
#150 = SURFACE_SIDE_STYLE( '', ( #222 ) );
#151 = EDGE_LOOP( '', ( #223, #224, #225, #226, #227, #228 ) );
#152 = AXIS2_PLACEMENT_3D( '', #229, #230, #231 );
#153 = SURFACE_SIDE_STYLE( '', ( #232 ) );
#154 = EDGE_LOOP( '', ( #233 ) );
#155 = AXIS2_PLACEMENT_3D( '', #234, #235, #236 );
#156 = SURFACE_SIDE_STYLE( '', ( #237 ) );
#157 = EDGE_LOOP( '', ( #238, #239, #240, #241 ) );
#158 = AXIS2_PLACEMENT_3D( '', #242, #243, #244 );
#159 = SURFACE_SIDE_STYLE( '', ( #245 ) );
#160 = EDGE_LOOP( '', ( #246 ) );
#161 = EDGE_LOOP( '', ( #247, #248, #249, #250, #251, #252 ) );
#162 = AXIS2_PLACEMENT_3D( '', #253, #254, #255 );
#164 = SURFACE_STYLE_FILL_AREA( #256 );
#165 = ORIENTED_EDGE( '', *, *, #257, .F. );
#166 = ORIENTED_EDGE( '', *, *, #258, .F. );
#167 = ORIENTED_EDGE( '', *, *, #259, .T. );
#168 = ORIENTED_EDGE( '', *, *, #260, .T. );
#169 = CARTESIAN_POINT( '', ( 5.00000000000000, 2.30940107675850, 4.00000000000000 ) );
#170 = DIRECTION( '', ( 0.000000000000000, 0.000000000000000, -1.00000000000000 ) );
#171 = DIRECTION( '', ( -1.00000000000000, 0.000000000000000, 0.000000000000000 ) );
#172 = SURFACE_STYLE_FILL_AREA( #261 );
#173 = ORIENTED_EDGE( '', *, *, #262, .F. );
#174 = ORIENTED_EDGE( '', *, *, #263, .T. );
#175 = CARTESIAN_POINT( '', ( 0.000000000000000, 0.000000000000000, 0.000000000000000 ) );
#176 = DIRECTION( '', ( 1.00000000000000, -0.000000000000000, -0.000000000000000 ) );
#177 = DIRECTION( '', ( -0.000000000000000, 0.000000000000000, -1.00000000000000 ) );
#178 = SURFACE_STYLE_FILL_AREA( #264 );
#179 = ORIENTED_EDGE( '', *, *, #265, .F. );
#180 = ORIENTED_EDGE( '', *, *, #266, .F. );
#181 = ORIENTED_EDGE( '', *, *, #267, .T. );
#182 = ORIENTED_EDGE( '', *, *, #268, .T. );
#183 = CARTESIAN_POINT( '', ( 5.00000000000000, -2.30940107675850, -4.00000000000000 ) );
#184 = DIRECTION( '', ( 0.000000000000000, 0.000000000000000, 1.00000000000000 ) );
#185 = DIRECTION( '', ( 1.00000000000000, 0.000000000000000, -0.000000000000000 ) );
#186 = SURFACE_STYLE_FILL_AREA( #269 );
#187 = ORIENTED_EDGE( '', *, *, #270, .F. );
#188 = ORIENTED_EDGE( '', *, *, #262, .T. );
#189 = CARTESIAN_POINT( '', ( 0.499753280182865, 0.000000000000000, 0.000000000000000 ) );
#190 = DIRECTION( '', ( -1.00000000000000, 0.000000000000000, -0.000000000000000 ) );
#191 = DIRECTION( '', ( 0.000000000000000, 0.000000000000000, 1.00000000000000 ) );
#192 = SURFACE_STYLE_FILL_AREA( #271 );
#193 = ORIENTED_EDGE( '', *, *, #272, .F. );
#194 = ORIENTED_EDGE( '', *, *, #260, .F. );
#195 = ORIENTED_EDGE( '', *, *, #273, .T. );
#196 = ORIENTED_EDGE( '', *, *, #274, .T. );
#197 = CARTESIAN_POINT( '', ( 5.00000000000000, -2.30940107675850, 4.00000000000000 ) );
#198 = DIRECTION( '', ( 0.000000000000000, 0.866025403784439, -0.500000000000000 ) );
#199 = DIRECTION( '', ( 0.000000000000000, 0.500000000000000, 0.866025403784439 ) );
#200 = SURFACE_STYLE_FILL_AREA( #275 );
#201 = ORIENTED_EDGE( '', *, *, #276, .F. );
#202 = ORIENTED_EDGE( '', *, *, #270, .T. );
#203 = CARTESIAN_POINT( '', ( 9.50024671981713, 0.000000000000000, 0.000000000000000 ) );
#204 = DIRECTION( '', ( -1.00000000000000, 0.000000000000000, -0.000000000000000 ) );
#205 = DIRECTION( '', ( 0.000000000000000, 0.000000000000000, 1.00000000000000 ) );
#206 = SURFACE_STYLE_FILL_AREA( #277 );
#207 = ORIENTED_EDGE( '', *, *, #278, .F. );
#208 = ORIENTED_EDGE( '', *, *, #279, .F. );
#209 = ORIENTED_EDGE( '', *, *, #280, .T. );
#210 = ORIENTED_EDGE( '', *, *, #258, .T. );
#211 = CARTESIAN_POINT( '', ( 5.00000000000000, 4.61880215351701, 0.000000000000000 ) );
#212 = DIRECTION( '', ( 0.000000000000000, -0.866025403784439, -0.500000000000000 ) );
#213 = DIRECTION( '', ( 0.000000000000000, 0.500000000000000, -0.866025403784439 ) );
#214 = SURFACE_STYLE_FILL_AREA( #281 );
#215 = ORIENTED_EDGE( '', *, *, #282, .F. );
#216 = ORIENTED_EDGE( '', *, *, #274, .F. );
#217 = ORIENTED_EDGE( '', *, *, #283, .T. );
#218 = ORIENTED_EDGE( '', *, *, #266, .T. );
#219 = CARTESIAN_POINT( '', ( 5.00000000000000, -4.61880215351701, 0.000000000000000 ) );
#220 = DIRECTION( '', ( -0.000000000000000, 0.866025403784439, 0.500000000000000 ) );
#221 = DIRECTION( '', ( 0.000000000000000, -0.500000000000000, 0.866025403784439 ) );
#222 = SURFACE_STYLE_FILL_AREA( #284 );
#223 = ORIENTED_EDGE( '', *, *, #259, .F. );
#224 = ORIENTED_EDGE( '', *, *, #280, .F. );
#225 = ORIENTED_EDGE( '', *, *, #285, .F. );
#226 = ORIENTED_EDGE( '', *, *, #267, .F. );
#227 = ORIENTED_EDGE( '', *, *, #283, .F. );
#228 = ORIENTED_EDGE( '', *, *, #273, .F. );
#229 = CARTESIAN_POINT( '', ( 5.00000000000000, 0.000000000000000, 0.000000000000000 ) );
#230 = DIRECTION( '', ( 1.00000000000000, 0.000000000000000, 0.000000000000000 ) );
#231 = DIRECTION( '', ( 0.000000000000000, 0.000000000000000, -1.00000000000000 ) );
#232 = SURFACE_STYLE_FILL_AREA( #286 );
#233 = ORIENTED_EDGE( '', *, *, #276, .T. );
#234 = CARTESIAN_POINT( '', ( 10.0000000000000, 7.34286866978324, 0.000000000000000 ) );
#235 = DIRECTION( '', ( -1.00000000000000, 0.000000000000000, 0.000000000000000 ) );
#236 = DIRECTION( '', ( 0.000000000000000, 0.000000000000000, 1.00000000000000 ) );
#237 = SURFACE_STYLE_FILL_AREA( #287 );
#238 = ORIENTED_EDGE( '', *, *, #288, .F. );
#239 = ORIENTED_EDGE( '', *, *, #268, .F. );
#240 = ORIENTED_EDGE( '', *, *, #285, .T. );
#241 = ORIENTED_EDGE( '', *, *, #279, .T. );
#242 = CARTESIAN_POINT( '', ( 5.00000000000000, 2.30940107675850, -4.00000000000000 ) );
#243 = DIRECTION( '', ( 0.000000000000000, -0.866025403784439, 0.500000000000000 ) );
#244 = DIRECTION( '', ( 0.000000000000000, -0.500000000000000, -0.866025403784439 ) );
#245 = SURFACE_STYLE_FILL_AREA( #289 );
#246 = ORIENTED_EDGE( '', *, *, #263, .F. );
#247 = ORIENTED_EDGE( '', *, *, #257, .T. );
#248 = ORIENTED_EDGE( '', *, *, #272, .T. );
#249 = ORIENTED_EDGE( '', *, *, #282, .T. );
#250 = ORIENTED_EDGE( '', *, *, #265, .T. );
#251 = ORIENTED_EDGE( '', *, *, #288, .T. );
#252 = ORIENTED_EDGE( '', *, *, #278, .T. );
#253 = CARTESIAN_POINT( '', ( 0.000000000000000, 0.000000000000000, 0.000000000000000 ) );
#254 = DIRECTION( '', ( 1.00000000000000, 0.000000000000000, -0.000000000000000 ) );
#255 = DIRECTION( '', ( -0.000000000000000, 0.000000000000000, -1.00000000000000 ) );
#256 = FILL_AREA_STYLE( '', ( #290 ) );
#257 = EDGE_CURVE( '', #291, #292, #293, .T. );
#258 = EDGE_CURVE( '', #294, #291, #295, .T. );
#259 = EDGE_CURVE( '', #294, #296, #297, .T. );
#260 = EDGE_CURVE( '', #296, #292, #298, .T. );
#261 = FILL_AREA_STYLE( '', ( #299 ) );
#262 = EDGE_CURVE( '', #300, #300, #301, .T. );
#263 = EDGE_CURVE( '', #302, #302, #303, .T. );
#264 = FILL_AREA_STYLE( '', ( #304 ) );
#265 = EDGE_CURVE( '', #305, #306, #307, .T. );
#266 = EDGE_CURVE( '', #308, #305, #309, .T. );
#267 = EDGE_CURVE( '', #308, #310, #311, .T. );
#268 = EDGE_CURVE( '', #310, #306, #312, .T. );
#269 = FILL_AREA_STYLE( '', ( #313 ) );
#270 = EDGE_CURVE( '', #314, #314, #315, .T. );
#271 = FILL_AREA_STYLE( '', ( #316 ) );
#272 = EDGE_CURVE( '', #292, #317, #318, .T. );
#273 = EDGE_CURVE( '', #296, #319, #320, .T. );
#274 = EDGE_CURVE( '', #319, #317, #321, .T. );
#275 = FILL_AREA_STYLE( '', ( #322 ) );
#276 = EDGE_CURVE( '', #323, #323, #324, .T. );
#277 = FILL_AREA_STYLE( '', ( #325 ) );
#278 = EDGE_CURVE( '', #326, #291, #327, .T. );
#279 = EDGE_CURVE( '', #328, #326, #329, .T. );
#280 = EDGE_CURVE( '', #328, #294, #330, .T. );
#281 = FILL_AREA_STYLE( '', ( #331 ) );
#282 = EDGE_CURVE( '', #317, #305, #332, .T. );
#283 = EDGE_CURVE( '', #319, #308, #333, .T. );
#284 = FILL_AREA_STYLE( '', ( #334 ) );
#285 = EDGE_CURVE( '', #310, #328, #335, .T. );
#286 = FILL_AREA_STYLE( '', ( #336 ) );
#287 = FILL_AREA_STYLE( '', ( #337 ) );
#288 = EDGE_CURVE( '', #306, #326, #338, .T. );
#289 = FILL_AREA_STYLE( '', ( #339 ) );
#290 = FILL_AREA_STYLE_COLOUR( '', #340 );
#291 = VERTEX_POINT( '', #341 );
#292 = VERTEX_POINT( '', #342 );
#293 = LINE( '', #343, #344 );
#294 = VERTEX_POINT( '', #345 );
#295 = LINE( '', #346, #347 );
#296 = VERTEX_POINT( '', #348 );
#297 = LINE( '', #349, #350 );
#298 = LINE( '', #351, #352 );
#299 = FILL_AREA_STYLE_COLOUR( '', #353 );
#300 = VERTEX_POINT( '', #354 );
#301 = CIRCLE( '', #355, 8.14142595070000 );
#302 = VERTEX_POINT( '', #356 );
#303 = CIRCLE( '', #357, 7.65713133020000 );
#304 = FILL_AREA_STYLE_COLOUR( '', #358 );
#305 = VERTEX_POINT( '', #359 );
#306 = VERTEX_POINT( '', #360 );
#307 = LINE( '', #361, #362 );
#308 = VERTEX_POINT( '', #363 );
#309 = LINE( '', #364, #365 );
#310 = VERTEX_POINT( '', #366 );
#311 = LINE( '', #367, #368 );
#312 = LINE( '', #369, #370 );
#313 = FILL_AREA_STYLE_COLOUR( '', #371 );
#314 = VERTEX_POINT( '', #372 );
#315 = CIRCLE( '', #373, 7.85857404930000 );
#316 = FILL_AREA_STYLE_COLOUR( '', #374 );
#317 = VERTEX_POINT( '', #375 );
#318 = LINE( '', #376, #377 );
#319 = VERTEX_POINT( '', #378 );
#320 = LINE( '', #379, #380 );
#321 = LINE( '', #381, #382 );
#322 = FILL_AREA_STYLE_COLOUR( '', #383 );
#323 = VERTEX_POINT( '', #384 );
#324 = CIRCLE( '', #385, 7.34286866980000 );
#325 = FILL_AREA_STYLE_COLOUR( '', #386 );
#326 = VERTEX_POINT( '', #387 );
#327 = LINE( '', #388, #389 );
#328 = VERTEX_POINT( '', #390 );
#329 = LINE( '', #391, #392 );
#330 = LINE( '', #393, #394 );
#331 = FILL_AREA_STYLE_COLOUR( '', #395 );
#332 = LINE( '', #396, #397 );
#333 = LINE( '', #398, #399 );
#334 = FILL_AREA_STYLE_COLOUR( '', #400 );
#335 = LINE( '', #401, #402 );
#336 = FILL_AREA_STYLE_COLOUR( '', #403 );
#337 = FILL_AREA_STYLE_COLOUR( '', #404 );
#338 = LINE( '', #405, #406 );
#339 = FILL_AREA_STYLE_COLOUR( '', #407 );
#340 = COLOUR_RGB( '', 0.689999997600000, 0.689999997600000, 0.689999997600000 );
#341 = CARTESIAN_POINT( '', ( 0.000000000000000, 2.30940107675850, 4.00000000000000 ) );
#342 = CARTESIAN_POINT( '', ( 0.000000000000000, -2.30940107675850, 4.00000000000000 ) );
#343 = CARTESIAN_POINT( '', ( 0.000000000000000, 2.30940107675850, 4.00000000000000 ) );
#344 = VECTOR( '', #408, 1000.00000000000 );
#345 = CARTESIAN_POINT( '', ( 5.00000000000000, 2.30940107675850, 4.00000000000000 ) );
#346 = CARTESIAN_POINT( '', ( 5.00000000000000, 2.30940107675850, 4.00000000000000 ) );
#347 = VECTOR( '', #409, 1000.00000000000 );
#348 = CARTESIAN_POINT( '', ( 5.00000000000000, -2.30940107675850, 4.00000000000000 ) );
#349 = CARTESIAN_POINT( '', ( 5.00000000000000, 2.30940107675850, 4.00000000000000 ) );
#350 = VECTOR( '', #410, 1000.00000000000 );
#351 = CARTESIAN_POINT( '', ( 5.00000000000000, -2.30940107675850, 4.00000000000000 ) );
#352 = VECTOR( '', #411, 1000.00000000000 );
#353 = COLOUR_RGB( '', 0.689999997600000, 0.689999997600000, 0.689999997600000 );
#354 = CARTESIAN_POINT( '', ( 0.499753280182865, 0.000000000000000, -8.14142595067769 ) );
#355 = AXIS2_PLACEMENT_3D( '', #412, #413, #414 );
#356 = CARTESIAN_POINT( '', ( 0.000000000000000, 0.000000000000000, -7.65713133021676 ) );
#357 = AXIS2_PLACEMENT_3D( '', #415, #416, #417 );
#358 = COLOUR_RGB( '', 0.689999997600000, 0.689999997600000, 0.689999997600000 );
#359 = CARTESIAN_POINT( '', ( 0.000000000000000, -2.30940107675850, -4.00000000000000 ) );
#360 = CARTESIAN_POINT( '', ( 0.000000000000000, 2.30940107675850, -4.00000000000000 ) );
#361 = CARTESIAN_POINT( '', ( 0.000000000000000, -2.30940107675850, -4.00000000000000 ) );
#362 = VECTOR( '', #418, 1000.00000000000 );
#363 = CARTESIAN_POINT( '', ( 5.00000000000000, -2.30940107675850, -4.00000000000000 ) );
#364 = CARTESIAN_POINT( '', ( 5.00000000000000, -2.30940107675850, -4.00000000000000 ) );
#365 = VECTOR( '', #419, 1000.00000000000 );
#366 = CARTESIAN_POINT( '', ( 5.00000000000000, 2.30940107675850, -4.00000000000000 ) );
#367 = CARTESIAN_POINT( '', ( 5.00000000000000, -2.30940107675850, -4.00000000000000 ) );
#368 = VECTOR( '', #420, 1000.00000000000 );
#369 = CARTESIAN_POINT( '', ( 5.00000000000000, 2.30940107675850, -4.00000000000000 ) );
#370 = VECTOR( '', #421, 1000.00000000000 );
#371 = COLOUR_RGB( '', 0.689999997600000, 0.689999997600000, 0.689999997600000 );
#372 = CARTESIAN_POINT( '', ( 9.50024671981713, 0.000000000000000, -7.85857404932231 ) );
#373 = AXIS2_PLACEMENT_3D( '', #422, #423, #424 );
#374 = COLOUR_RGB( '', 0.689999997600000, 0.689999997600000, 0.689999997600000 );
#375 = CARTESIAN_POINT( '', ( 0.000000000000000, -4.61880215351701, 0.000000000000000 ) );
#376 = CARTESIAN_POINT( '', ( 0.000000000000000, -2.30940107675850, 4.00000000000000 ) );
#377 = VECTOR( '', #425, 1000.00000000000 );
#378 = CARTESIAN_POINT( '', ( 5.00000000000000, -4.61880215351701, 0.000000000000000 ) );
#379 = CARTESIAN_POINT( '', ( 5.00000000000000, -2.30940107675850, 4.00000000000000 ) );
#380 = VECTOR( '', #426, 1000.00000000000 );
#381 = CARTESIAN_POINT( '', ( 5.00000000000000, -4.61880215351701, 0.000000000000000 ) );
#382 = VECTOR( '', #427, 1000.00000000000 );
#383 = COLOUR_RGB( '', 0.689999997600000, 0.689999997600000, 0.689999997600000 );
#384 = CARTESIAN_POINT( '', ( 10.0000000000000, 0.000000000000000, -7.34286866978324 ) );
#385 = AXIS2_PLACEMENT_3D( '', #428, #429, #430 );
#386 = COLOUR_RGB( '', 0.689999997600000, 0.689999997600000, 0.689999997600000 );
#387 = CARTESIAN_POINT( '', ( 0.000000000000000, 4.61880215351701, 0.000000000000000 ) );
#388 = CARTESIAN_POINT( '', ( 0.000000000000000, 4.61880215351701, 0.000000000000000 ) );
#389 = VECTOR( '', #431, 1000.00000000000 );
#390 = CARTESIAN_POINT( '', ( 5.00000000000000, 4.61880215351701, 0.000000000000000 ) );
#391 = CARTESIAN_POINT( '', ( 5.00000000000000, 4.61880215351701, 0.000000000000000 ) );
#392 = VECTOR( '', #432, 1000.00000000000 );
#393 = CARTESIAN_POINT( '', ( 5.00000000000000, 4.61880215351701, 0.000000000000000 ) );
#394 = VECTOR( '', #433, 1000.00000000000 );
#395 = COLOUR_RGB( '', 0.689999997600000, 0.689999997600000, 0.689999997600000 );
#396 = CARTESIAN_POINT( '', ( 0.000000000000000, -4.61880215351701, 0.000000000000000 ) );
#397 = VECTOR( '', #434, 1000.00000000000 );
#398 = CARTESIAN_POINT( '', ( 5.00000000000000, -4.61880215351701, 0.000000000000000 ) );
#399 = VECTOR( '', #435, 1000.00000000000 );
#400 = COLOUR_RGB( '', 0.689999997600000, 0.689999997600000, 0.689999997600000 );
#401 = CARTESIAN_POINT( '', ( 5.00000000000000, 2.30940107675850, -4.00000000000000 ) );
#402 = VECTOR( '', #436, 1000.00000000000 );
#403 = COLOUR_RGB( '', 0.689999997600000, 0.689999997600000, 0.689999997600000 );
#404 = COLOUR_RGB( '', 0.689999997600000, 0.689999997600000, 0.689999997600000 );
#405 = CARTESIAN_POINT( '', ( 0.000000000000000, 2.30940107675850, -4.00000000000000 ) );
#406 = VECTOR( '', #437, 1000.00000000000 );
#407 = COLOUR_RGB( '', 0.689999997600000, 0.689999997600000, 0.689999997600000 );
#408 = DIRECTION( '', ( 0.000000000000000, -1.00000000000000, 0.000000000000000 ) );
#409 = DIRECTION( '', ( -1.00000000000000, -0.000000000000000, -0.000000000000000 ) );
#410 = DIRECTION( '', ( 0.000000000000000, -1.00000000000000, 0.000000000000000 ) );
#411 = DIRECTION( '', ( -1.00000000000000, -0.000000000000000, -0.000000000000000 ) );
#412 = CARTESIAN_POINT( '', ( 0.499753280182865, 0.000000000000000, 0.000000000000000 ) );
#413 = DIRECTION( '', ( 1.00000000000000, 0.000000000000000, -0.000000000000000 ) );
#414 = DIRECTION( '', ( -0.000000000000000, 0.000000000000000, -1.00000000000000 ) );
#415 = CARTESIAN_POINT( '', ( 0.000000000000000, 0.000000000000000, 0.000000000000000 ) );
#416 = DIRECTION( '', ( 1.00000000000000, 0.000000000000000, -0.000000000000000 ) );
#417 = DIRECTION( '', ( -0.000000000000000, 0.000000000000000, -1.00000000000000 ) );
#418 = DIRECTION( '', ( 0.000000000000000, 1.00000000000000, 0.000000000000000 ) );
#419 = DIRECTION( '', ( -1.00000000000000, -0.000000000000000, -0.000000000000000 ) );
#420 = DIRECTION( '', ( 0.000000000000000, 1.00000000000000, 0.000000000000000 ) );
#421 = DIRECTION( '', ( -1.00000000000000, -0.000000000000000, -0.000000000000000 ) );
#422 = CARTESIAN_POINT( '', ( 9.50024671981713, 0.000000000000000, 0.000000000000000 ) );
#423 = DIRECTION( '', ( 1.00000000000000, 0.000000000000000, -0.000000000000000 ) );
#424 = DIRECTION( '', ( -0.000000000000000, 0.000000000000000, -1.00000000000000 ) );
#425 = DIRECTION( '', ( 0.000000000000000, -0.500000000000000, -0.866025403784439 ) );
#426 = DIRECTION( '', ( 0.000000000000000, -0.500000000000000, -0.866025403784439 ) );
#427 = DIRECTION( '', ( -1.00000000000000, -0.000000000000000, -0.000000000000000 ) );
#428 = CARTESIAN_POINT( '', ( 10.0000000000000, 0.000000000000000, 0.000000000000000 ) );
#429 = DIRECTION( '', ( 1.00000000000000, 0.000000000000000, -0.000000000000000 ) );
#430 = DIRECTION( '', ( -0.000000000000000, 0.000000000000000, -1.00000000000000 ) );
#431 = DIRECTION( '', ( 0.000000000000000, -0.500000000000000, 0.866025403784439 ) );
#432 = DIRECTION( '', ( -1.00000000000000, -0.000000000000000, -0.000000000000000 ) );
#433 = DIRECTION( '', ( 0.000000000000000, -0.500000000000000, 0.866025403784439 ) );
#434 = DIRECTION( '', ( 0.000000000000000, 0.500000000000000, -0.866025403784439 ) );
#435 = DIRECTION( '', ( 0.000000000000000, 0.500000000000000, -0.866025403784439 ) );
#436 = DIRECTION( '', ( 0.000000000000000, 0.500000000000000, 0.866025403784439 ) );
#437 = DIRECTION( '', ( 0.000000000000000, 0.500000000000000, 0.866025403784439 ) );
ENDSEC;
END-ISO-10303-21;
