ISO-10303-21;
HEADER;
FILE_DESCRIPTION( ( 'STEP AP214' ), '1' );
FILE_NAME( '//goodhand-server/Shared Folders/GoodHand Data/Kipp CAD/K0292/K0292.166.stp', '2020-11-27T12:52:31', ( '' ), ( '' ), ' ', 'PARTsolutions', ' ' );
FILE_SCHEMA( ( 'AUTOMOTIVE_DESIGN { 1 0 10303 214 1 1 1 1 }' ) );
ENDSEC;
DATA;
#1 = MECHANICAL_DESIGN_GEOMETRIC_PRESENTATION_REPRESENTATION( ' ', ( #10, #11, #12, #13, #14, #15, #16, #17, #18, #19, #20, #21 ), #6 );
#2 = PRODUCT_DEFINITION_CONTEXT( '', #22, 'design' );
#3 = APPLICATION_PROTOCOL_DEFINITION( 'international standard', 'automotive_design', 2001, #22 );
#4 = PRODUCT_CATEGORY_RELATIONSHIP( 'NONE', 'NONE', #23, #24 );
#5 = SHAPE_DEFINITION_REPRESENTATION( #25, #26 );
#6 =  ( GEOMETRIC_REPRESENTATION_CONTEXT( 3 )GLOBAL_UNCERTAINTY_ASSIGNED_CONTEXT( ( #29 ) )GLOBAL_UNIT_ASSIGNED_CONTEXT( ( #31, #32, #33 ) )REPRESENTATION_CONTEXT( 'NONE', 'WORKSPACE' ) );
#10 = STYLED_ITEM( '', ( #35 ), #36 );
#11 = STYLED_ITEM( '', ( #37 ), #38 );
#12 = STYLED_ITEM( '', ( #39 ), #40 );
#13 = STYLED_ITEM( '', ( #41 ), #42 );
#14 = STYLED_ITEM( '', ( #43 ), #44 );
#15 = STYLED_ITEM( '', ( #45 ), #46 );
#16 = STYLED_ITEM( '', ( #47 ), #48 );
#17 = STYLED_ITEM( '', ( #49 ), #50 );
#18 = STYLED_ITEM( '', ( #51 ), #52 );
#19 = STYLED_ITEM( '', ( #53 ), #54 );
#20 = STYLED_ITEM( '', ( #55 ), #56 );
#21 = STYLED_ITEM( '', ( #57 ), #58 );
#22 = APPLICATION_CONTEXT( 'core data for automotive mechanical design processes' );
#23 = PRODUCT_CATEGORY( 'part', 'NONE' );
#24 = PRODUCT_RELATED_PRODUCT_CATEGORY( 'detail', ' ', ( #59 ) );
#25 = PRODUCT_DEFINITION_SHAPE( 'NONE', 'NONE', #60 );
#26 = ADVANCED_BREP_SHAPE_REPRESENTATION( '_K0292.166', ( #61, #62 ), #6 );
#29 = UNCERTAINTY_MEASURE_WITH_UNIT( LENGTH_MEASURE( 0.00100000000000000 ), #31, '', '' );
#31 =  ( CONVERSION_BASED_UNIT( 'MILLIMETRE', #65 )LENGTH_UNIT(  )NAMED_UNIT( #68 ) );
#32 =  ( NAMED_UNIT( #70 )PLANE_ANGLE_UNIT(  )SI_UNIT( $, .RADIAN. ) );
#33 =  ( NAMED_UNIT( #70 )SI_UNIT( $, .STERADIAN. )SOLID_ANGLE_UNIT(  ) );
#35 = PRESENTATION_STYLE_ASSIGNMENT( ( #76 ) );
#36 = ADVANCED_FACE( '', ( #77, #78 ), #79, .T. );
#37 = PRESENTATION_STYLE_ASSIGNMENT( ( #80 ) );
#38 = ADVANCED_FACE( '', ( #81, #82 ), #83, .F. );
#39 = PRESENTATION_STYLE_ASSIGNMENT( ( #84 ) );
#40 = ADVANCED_FACE( '', ( #85, #86 ), #87, .T. );
#41 = PRESENTATION_STYLE_ASSIGNMENT( ( #88 ) );
#42 = ADVANCED_FACE( '', ( #89, #90 ), #91, .F. );
#43 = PRESENTATION_STYLE_ASSIGNMENT( ( #92 ) );
#44 = ADVANCED_FACE( '', ( #93, #94 ), #95, .F. );
#45 = PRESENTATION_STYLE_ASSIGNMENT( ( #96 ) );
#46 = ADVANCED_FACE( '', ( #97 ), #98, .F. );
#47 = PRESENTATION_STYLE_ASSIGNMENT( ( #99 ) );
#48 = ADVANCED_FACE( '', ( #100, #101 ), #102, .F. );
#49 = PRESENTATION_STYLE_ASSIGNMENT( ( #103 ) );
#50 = ADVANCED_FACE( '', ( #104, #105 ), #106, .F. );
#51 = PRESENTATION_STYLE_ASSIGNMENT( ( #107 ) );
#52 = ADVANCED_FACE( '', ( #108, #109 ), #110, .T. );
#53 = PRESENTATION_STYLE_ASSIGNMENT( ( #111 ) );
#54 = ADVANCED_FACE( '', ( #112, #113 ), #114, .T. );
#55 = PRESENTATION_STYLE_ASSIGNMENT( ( #115 ) );
#56 = ADVANCED_FACE( '', ( #116 ), #117, .F. );
#57 = PRESENTATION_STYLE_ASSIGNMENT( ( #118 ) );
#58 = ADVANCED_FACE( '', ( #119, #120 ), #121, .T. );
#59 = PRODUCT( '_K0292.166', '_K0292.166', 'PART-_K0292.166-DESC', ( #122 ) );
#60 = PRODUCT_DEFINITION( 'NONE', 'NONE', #123, #2 );
#61 = MANIFOLD_SOLID_BREP( '_K0292.166', #124 );
#62 = AXIS2_PLACEMENT_3D( '', #125, #126, #127 );
#65 = LENGTH_MEASURE_WITH_UNIT( LENGTH_MEASURE( 1.00000000000000 ), #128 );
#68 = DIMENSIONAL_EXPONENTS( 1.00000000000000, 0.000000000000000, 0.000000000000000, 0.000000000000000, 0.000000000000000, 0.000000000000000, 0.000000000000000 );
#70 = DIMENSIONAL_EXPONENTS( 0.000000000000000, 0.000000000000000, 0.000000000000000, 0.000000000000000, 0.000000000000000, 0.000000000000000, 0.000000000000000 );
#76 = SURFACE_STYLE_USAGE( .BOTH., #129 );
#77 = FACE_OUTER_BOUND( '', #130, .T. );
#78 = FACE_OUTER_BOUND( '', #131, .T. );
#79 = CYLINDRICAL_SURFACE( '', #132, 15.0000000000000 );
#80 = SURFACE_STYLE_USAGE( .BOTH., #133 );
#81 = FACE_OUTER_BOUND( '', #134, .T. );
#82 = FACE_BOUND( '', #135, .T. );
#83 = PLANE( '', #136 );
#84 = SURFACE_STYLE_USAGE( .BOTH., #137 );
#85 = FACE_OUTER_BOUND( '', #138, .T. );
#86 = FACE_OUTER_BOUND( '', #139, .T. );
#87 = CYLINDRICAL_SURFACE( '', #140, 7.70000000000000 );
#88 = SURFACE_STYLE_USAGE( .BOTH., #141 );
#89 = FACE_OUTER_BOUND( '', #142, .T. );
#90 = FACE_OUTER_BOUND( '', #143, .T. );
#91 = CYLINDRICAL_SURFACE( '', #144, 8.50000000000000 );
#92 = SURFACE_STYLE_USAGE( .BOTH., #145 );
#93 = FACE_BOUND( '', #146, .T. );
#94 = FACE_OUTER_BOUND( '', #147, .T. );
#95 = PLANE( '', #148 );
#96 = SURFACE_STYLE_USAGE( .BOTH., #149 );
#97 = FACE_OUTER_BOUND( '', #150, .T. );
#98 = PLANE( '', #151 );
#99 = SURFACE_STYLE_USAGE( .BOTH., #152 );
#100 = FACE_OUTER_BOUND( '', #153, .T. );
#101 = FACE_OUTER_BOUND( '', #154, .T. );
#102 = TOROIDAL_SURFACE( '', #155, 8.00000000000000, 0.300000000000000 );
#103 = SURFACE_STYLE_USAGE( .BOTH., #156 );
#104 = FACE_BOUND( '', #157, .T. );
#105 = FACE_OUTER_BOUND( '', #158, .T. );
#106 = PLANE( '', #159 );
#107 = SURFACE_STYLE_USAGE( .BOTH., #160 );
#108 = FACE_OUTER_BOUND( '', #161, .T. );
#109 = FACE_OUTER_BOUND( '', #162, .T. );
#110 = CYLINDRICAL_SURFACE( '', #163, 8.00000000000000 );
#111 = SURFACE_STYLE_USAGE( .BOTH., #164 );
#112 = FACE_OUTER_BOUND( '', #165, .T. );
#113 = FACE_BOUND( '', #166, .T. );
#114 = CONICAL_SURFACE( '', #167, 12.5000000000000, 0.785398163400000 );
#115 = SURFACE_STYLE_USAGE( .BOTH., #168 );
#116 = FACE_OUTER_BOUND( '', #169, .T. );
#117 = PLANE( '', #170 );
#118 = SURFACE_STYLE_USAGE( .BOTH., #171 );
#119 = FACE_BOUND( '', #172, .T. );
#120 = FACE_OUTER_BOUND( '', #173, .T. );
#121 = CONICAL_SURFACE( '', #174, 8.00000000000000, 0.261799387800000 );
#122 = PRODUCT_CONTEXT( '', #22, 'mechanical' );
#123 = PRODUCT_DEFINITION_FORMATION_WITH_SPECIFIED_SOURCE( ' ', 'NONE', #59, .NOT_KNOWN. );
#124 = CLOSED_SHELL( '', ( #58, #52, #38, #40, #48, #50, #42, #44, #36, #54, #46, #56 ) );
#125 = CARTESIAN_POINT( '', ( 0.000000000000000, 0.000000000000000, 0.000000000000000 ) );
#126 = DIRECTION( '', ( 0.000000000000000, 0.000000000000000, 1.00000000000000 ) );
#127 = DIRECTION( '', ( 1.00000000000000, 0.000000000000000, 0.000000000000000 ) );
#128 =  ( LENGTH_UNIT(  )NAMED_UNIT( #68 )SI_UNIT( .MILLI., .METRE. ) );
#129 = SURFACE_SIDE_STYLE( '', ( #176 ) );
#130 = EDGE_LOOP( '', ( #177 ) );
#131 = EDGE_LOOP( '', ( #178 ) );
#132 = AXIS2_PLACEMENT_3D( '', #179, #180, #181 );
#133 = SURFACE_SIDE_STYLE( '', ( #182 ) );
#134 = EDGE_LOOP( '', ( #183 ) );
#135 = EDGE_LOOP( '', ( #184 ) );
#136 = AXIS2_PLACEMENT_3D( '', #185, #186, #187 );
#137 = SURFACE_SIDE_STYLE( '', ( #188 ) );
#138 = EDGE_LOOP( '', ( #189 ) );
#139 = EDGE_LOOP( '', ( #190 ) );
#140 = AXIS2_PLACEMENT_3D( '', #191, #192, #193 );
#141 = SURFACE_SIDE_STYLE( '', ( #194 ) );
#142 = EDGE_LOOP( '', ( #195 ) );
#143 = EDGE_LOOP( '', ( #196 ) );
#144 = AXIS2_PLACEMENT_3D( '', #197, #198, #199 );
#145 = SURFACE_SIDE_STYLE( '', ( #200 ) );
#146 = EDGE_LOOP( '', ( #201 ) );
#147 = EDGE_LOOP( '', ( #202 ) );
#148 = AXIS2_PLACEMENT_3D( '', #203, #204, #205 );
#149 = SURFACE_SIDE_STYLE( '', ( #206 ) );
#150 = EDGE_LOOP( '', ( #207 ) );
#151 = AXIS2_PLACEMENT_3D( '', #208, #209, #210 );
#152 = SURFACE_SIDE_STYLE( '', ( #211 ) );
#153 = EDGE_LOOP( '', ( #212 ) );
#154 = EDGE_LOOP( '', ( #213 ) );
#155 = AXIS2_PLACEMENT_3D( '', #214, #215, #216 );
#156 = SURFACE_SIDE_STYLE( '', ( #217 ) );
#157 = EDGE_LOOP( '', ( #218 ) );
#158 = EDGE_LOOP( '', ( #219 ) );
#159 = AXIS2_PLACEMENT_3D( '', #220, #221, #222 );
#160 = SURFACE_SIDE_STYLE( '', ( #223 ) );
#161 = EDGE_LOOP( '', ( #224 ) );
#162 = EDGE_LOOP( '', ( #225 ) );
#163 = AXIS2_PLACEMENT_3D( '', #226, #227, #228 );
#164 = SURFACE_SIDE_STYLE( '', ( #229 ) );
#165 = EDGE_LOOP( '', ( #230 ) );
#166 = EDGE_LOOP( '', ( #231 ) );
#167 = AXIS2_PLACEMENT_3D( '', #232, #233, #234 );
#168 = SURFACE_SIDE_STYLE( '', ( #235 ) );
#169 = EDGE_LOOP( '', ( #236 ) );
#170 = AXIS2_PLACEMENT_3D( '', #237, #238, #239 );
#171 = SURFACE_SIDE_STYLE( '', ( #240 ) );
#172 = EDGE_LOOP( '', ( #241 ) );
#173 = EDGE_LOOP( '', ( #242 ) );
#174 = AXIS2_PLACEMENT_3D( '', #243, #244, #245 );
#176 = SURFACE_STYLE_FILL_AREA( #246 );
#177 = ORIENTED_EDGE( '', *, *, #247, .F. );
#178 = ORIENTED_EDGE( '', *, *, #248, .T. );
#179 = CARTESIAN_POINT( '', ( 0.000000000000000, 0.000000000000000, 0.000000000000000 ) );
#180 = DIRECTION( '', ( -0.000000000000000, 1.00000000000000, 0.000000000000000 ) );
#181 = DIRECTION( '', ( 0.000000000000000, 0.000000000000000, -1.00000000000000 ) );
#182 = SURFACE_STYLE_FILL_AREA( #249 );
#183 = ORIENTED_EDGE( '', *, *, #250, .F. );
#184 = ORIENTED_EDGE( '', *, *, #251, .T. );
#185 = CARTESIAN_POINT( '', ( 7.70000000000000, 19.2000000000000, 0.000000000000000 ) );
#186 = DIRECTION( '', ( 0.000000000000000, -1.00000000000000, -0.000000000000000 ) );
#187 = DIRECTION( '', ( 0.000000000000000, 0.000000000000000, -1.00000000000000 ) );
#188 = SURFACE_STYLE_FILL_AREA( #252 );
#189 = ORIENTED_EDGE( '', *, *, #251, .F. );
#190 = ORIENTED_EDGE( '', *, *, #253, .T. );
#191 = CARTESIAN_POINT( '', ( 0.000000000000000, 0.000000000000000, 0.000000000000000 ) );
#192 = DIRECTION( '', ( -0.000000000000000, 1.00000000000000, 0.000000000000000 ) );
#193 = DIRECTION( '', ( 0.000000000000000, 0.000000000000000, -1.00000000000000 ) );
#194 = SURFACE_STYLE_FILL_AREA( #254 );
#195 = ORIENTED_EDGE( '', *, *, #255, .F. );
#196 = ORIENTED_EDGE( '', *, *, #256, .T. );
#197 = CARTESIAN_POINT( '', ( 0.000000000000000, 0.000000000000000, 0.000000000000000 ) );
#198 = DIRECTION( '', ( -0.000000000000000, 1.00000000000000, 0.000000000000000 ) );
#199 = DIRECTION( '', ( 0.000000000000000, 0.000000000000000, -1.00000000000000 ) );
#200 = SURFACE_STYLE_FILL_AREA( #257 );
#201 = ORIENTED_EDGE( '', *, *, #256, .F. );
#202 = ORIENTED_EDGE( '', *, *, #247, .T. );
#203 = CARTESIAN_POINT( '', ( 15.0000000000000, 20.0000000000000, 0.000000000000000 ) );
#204 = DIRECTION( '', ( 0.000000000000000, 1.00000000000000, 0.000000000000000 ) );
#205 = DIRECTION( '', ( 0.000000000000000, -0.000000000000000, 1.00000000000000 ) );
#206 = SURFACE_STYLE_FILL_AREA( #258 );
#207 = ORIENTED_EDGE( '', *, *, #259, .F. );
#208 = CARTESIAN_POINT( '', ( 0.000000000000000, 85.0000000000000, 0.000000000000000 ) );
#209 = DIRECTION( '', ( 0.000000000000000, -1.00000000000000, -0.000000000000000 ) );
#210 = DIRECTION( '', ( 0.000000000000000, 0.000000000000000, -1.00000000000000 ) );
#211 = SURFACE_STYLE_FILL_AREA( #260 );
#212 = ORIENTED_EDGE( '', *, *, #253, .F. );
#213 = ORIENTED_EDGE( '', *, *, #261, .T. );
#214 = CARTESIAN_POINT( '', ( 0.000000000000000, 19.7500000000000, 0.000000000000000 ) );
#215 = DIRECTION( '', ( 0.000000000000000, -1.00000000000000, -0.000000000000000 ) );
#216 = DIRECTION( '', ( 0.000000000000000, 0.000000000000000, -1.00000000000000 ) );
#217 = SURFACE_STYLE_FILL_AREA( #262 );
#218 = ORIENTED_EDGE( '', *, *, #261, .F. );
#219 = ORIENTED_EDGE( '', *, *, #255, .T. );
#220 = CARTESIAN_POINT( '', ( 8.50000000000000, 20.0500000000000, 0.000000000000000 ) );
#221 = DIRECTION( '', ( 0.000000000000000, 1.00000000000000, 0.000000000000000 ) );
#222 = DIRECTION( '', ( 0.000000000000000, -0.000000000000000, 1.00000000000000 ) );
#223 = SURFACE_STYLE_FILL_AREA( #263 );
#224 = ORIENTED_EDGE( '', *, *, #264, .F. );
#225 = ORIENTED_EDGE( '', *, *, #250, .T. );
#226 = CARTESIAN_POINT( '', ( 0.000000000000000, 0.000000000000000, 0.000000000000000 ) );
#227 = DIRECTION( '', ( -0.000000000000000, 1.00000000000000, 0.000000000000000 ) );
#228 = DIRECTION( '', ( 0.000000000000000, 0.000000000000000, -1.00000000000000 ) );
#229 = SURFACE_STYLE_FILL_AREA( #265 );
#230 = ORIENTED_EDGE( '', *, *, #248, .F. );
#231 = ORIENTED_EDGE( '', *, *, #259, .T. );
#232 = CARTESIAN_POINT( '', ( 0.000000000000000, 85.0000000000000, 0.000000000000000 ) );
#233 = DIRECTION( '', ( -0.000000000000000, -1.00000000000000, -0.000000000000000 ) );
#234 = DIRECTION( '', ( 0.000000000000000, 0.000000000000000, -1.00000000000000 ) );
#235 = SURFACE_STYLE_FILL_AREA( #266 );
#236 = ORIENTED_EDGE( '', *, *, #267, .T. );
#237 = CARTESIAN_POINT( '', ( 7.33012701892220, 0.000000000000000, 0.000000000000000 ) );
#238 = DIRECTION( '', ( 0.000000000000000, 1.00000000000000, 0.000000000000000 ) );
#239 = DIRECTION( '', ( 0.000000000000000, -0.000000000000000, 1.00000000000000 ) );
#240 = SURFACE_STYLE_FILL_AREA( #268 );
#241 = ORIENTED_EDGE( '', *, *, #267, .F. );
#242 = ORIENTED_EDGE( '', *, *, #264, .T. );
#243 = CARTESIAN_POINT( '', ( 0.000000000000000, 2.49999999999998, 0.000000000000000 ) );
#244 = DIRECTION( '', ( -0.000000000000000, 1.00000000000000, 0.000000000000000 ) );
#245 = DIRECTION( '', ( 0.000000000000000, -0.000000000000000, 1.00000000000000 ) );
#246 = FILL_AREA_STYLE( '', ( #269 ) );
#247 = EDGE_CURVE( '', #270, #270, #271, .T. );
#248 = EDGE_CURVE( '', #272, #272, #273, .T. );
#249 = FILL_AREA_STYLE( '', ( #274 ) );
#250 = EDGE_CURVE( '', #275, #275, #276, .T. );
#251 = EDGE_CURVE( '', #277, #277, #278, .T. );
#252 = FILL_AREA_STYLE( '', ( #279 ) );
#253 = EDGE_CURVE( '', #280, #280, #281, .T. );
#254 = FILL_AREA_STYLE( '', ( #282 ) );
#255 = EDGE_CURVE( '', #283, #283, #284, .T. );
#256 = EDGE_CURVE( '', #285, #285, #286, .T. );
#257 = FILL_AREA_STYLE( '', ( #287 ) );
#258 = FILL_AREA_STYLE( '', ( #288 ) );
#259 = EDGE_CURVE( '', #289, #289, #290, .T. );
#260 = FILL_AREA_STYLE( '', ( #291 ) );
#261 = EDGE_CURVE( '', #292, #292, #293, .T. );
#262 = FILL_AREA_STYLE( '', ( #294 ) );
#263 = FILL_AREA_STYLE( '', ( #295 ) );
#264 = EDGE_CURVE( '', #296, #296, #297, .T. );
#265 = FILL_AREA_STYLE( '', ( #298 ) );
#266 = FILL_AREA_STYLE( '', ( #299 ) );
#267 = EDGE_CURVE( '', #300, #300, #301, .T. );
#268 = FILL_AREA_STYLE( '', ( #302 ) );
#269 = FILL_AREA_STYLE_COLOUR( '', #303 );
#270 = VERTEX_POINT( '', #304 );
#271 = CIRCLE( '', #305, 15.0000000000000 );
#272 = VERTEX_POINT( '', #306 );
#273 = CIRCLE( '', #307, 15.0000000000000 );
#274 = FILL_AREA_STYLE_COLOUR( '', #308 );
#275 = VERTEX_POINT( '', #309 );
#276 = CIRCLE( '', #310, 8.00000000000000 );
#277 = VERTEX_POINT( '', #311 );
#278 = CIRCLE( '', #312, 7.70000000000000 );
#279 = FILL_AREA_STYLE_COLOUR( '', #313 );
#280 = VERTEX_POINT( '', #314 );
#281 = CIRCLE( '', #315, 7.70000000000000 );
#282 = FILL_AREA_STYLE_COLOUR( '', #316 );
#283 = VERTEX_POINT( '', #317 );
#284 = CIRCLE( '', #318, 8.50000000000000 );
#285 = VERTEX_POINT( '', #319 );
#286 = CIRCLE( '', #320, 8.50000000000000 );
#287 = FILL_AREA_STYLE_COLOUR( '', #321 );
#288 = FILL_AREA_STYLE_COLOUR( '', #322 );
#289 = VERTEX_POINT( '', #323 );
#290 = CIRCLE( '', #324, 12.5000000000000 );
#291 = FILL_AREA_STYLE_COLOUR( '', #325 );
#292 = VERTEX_POINT( '', #326 );
#293 = CIRCLE( '', #327, 8.00000000000000 );
#294 = FILL_AREA_STYLE_COLOUR( '', #328 );
#295 = FILL_AREA_STYLE_COLOUR( '', #329 );
#296 = VERTEX_POINT( '', #330 );
#297 = CIRCLE( '', #331, 8.00000000000000 );
#298 = FILL_AREA_STYLE_COLOUR( '', #332 );
#299 = FILL_AREA_STYLE_COLOUR( '', #333 );
#300 = VERTEX_POINT( '', #334 );
#301 = CIRCLE( '', #335, 7.33012701890000 );
#302 = FILL_AREA_STYLE_COLOUR( '', #336 );
#303 = COLOUR_RGB( '', 0.689999997600000, 0.689999997600000, 0.689999997600000 );
#304 = CARTESIAN_POINT( '', ( 0.000000000000000, 20.0000000000000, -15.0000000000000 ) );
#305 = AXIS2_PLACEMENT_3D( '', #337, #338, #339 );
#306 = CARTESIAN_POINT( '', ( 0.000000000000000, 82.5000000000000, -15.0000000000000 ) );
#307 = AXIS2_PLACEMENT_3D( '', #340, #341, #342 );
#308 = COLOUR_RGB( '', 0.689999997600000, 0.689999997600000, 0.689999997600000 );
#309 = CARTESIAN_POINT( '', ( 0.000000000000000, 19.2000000000000, -8.00000000000000 ) );
#310 = AXIS2_PLACEMENT_3D( '', #343, #344, #345 );
#311 = CARTESIAN_POINT( '', ( 0.000000000000000, 19.2000000000000, -7.70000000000000 ) );
#312 = AXIS2_PLACEMENT_3D( '', #346, #347, #348 );
#313 = COLOUR_RGB( '', 0.689999997600000, 0.689999997600000, 0.689999997600000 );
#314 = CARTESIAN_POINT( '', ( 0.000000000000000, 19.7500000000000, -7.70000000000000 ) );
#315 = AXIS2_PLACEMENT_3D( '', #349, #350, #351 );
#316 = COLOUR_RGB( '', 0.689999997600000, 0.689999997600000, 0.689999997600000 );
#317 = CARTESIAN_POINT( '', ( 0.000000000000000, 20.0500000000000, -8.50000000000000 ) );
#318 = AXIS2_PLACEMENT_3D( '', #352, #353, #354 );
#319 = CARTESIAN_POINT( '', ( 0.000000000000000, 20.0000000000000, -8.50000000000000 ) );
#320 = AXIS2_PLACEMENT_3D( '', #355, #356, #357 );
#321 = COLOUR_RGB( '', 0.689999997600000, 0.689999997600000, 0.689999997600000 );
#322 = COLOUR_RGB( '', 0.689999997600000, 0.689999997600000, 0.689999997600000 );
#323 = CARTESIAN_POINT( '', ( 0.000000000000000, 85.0000000000000, -12.5000000000000 ) );
#324 = AXIS2_PLACEMENT_3D( '', #358, #359, #360 );
#325 = COLOUR_RGB( '', 0.689999997600000, 0.689999997600000, 0.689999997600000 );
#326 = CARTESIAN_POINT( '', ( 0.000000000000000, 20.0500000000000, -8.00000000000000 ) );
#327 = AXIS2_PLACEMENT_3D( '', #361, #362, #363 );
#328 = COLOUR_RGB( '', 0.689999997600000, 0.689999997600000, 0.689999997600000 );
#329 = COLOUR_RGB( '', 0.689999997600000, 0.689999997600000, 0.689999997600000 );
#330 = CARTESIAN_POINT( '', ( 0.000000000000000, 2.49999999999998, -8.00000000000000 ) );
#331 = AXIS2_PLACEMENT_3D( '', #364, #365, #366 );
#332 = COLOUR_RGB( '', 0.689999997600000, 0.689999997600000, 0.689999997600000 );
#333 = COLOUR_RGB( '', 0.689999997600000, 0.689999997600000, 0.689999997600000 );
#334 = CARTESIAN_POINT( '', ( 0.000000000000000, 0.000000000000000, -7.33012701892220 ) );
#335 = AXIS2_PLACEMENT_3D( '', #367, #368, #369 );
#336 = COLOUR_RGB( '', 0.689999997600000, 0.689999997600000, 0.689999997600000 );
#337 = CARTESIAN_POINT( '', ( 0.000000000000000, 20.0000000000000, 0.000000000000000 ) );
#338 = DIRECTION( '', ( 0.000000000000000, -1.00000000000000, -0.000000000000000 ) );
#339 = DIRECTION( '', ( 0.000000000000000, 0.000000000000000, -1.00000000000000 ) );
#340 = CARTESIAN_POINT( '', ( 0.000000000000000, 82.5000000000000, 0.000000000000000 ) );
#341 = DIRECTION( '', ( 0.000000000000000, -1.00000000000000, -0.000000000000000 ) );
#342 = DIRECTION( '', ( 0.000000000000000, 0.000000000000000, -1.00000000000000 ) );
#343 = CARTESIAN_POINT( '', ( 0.000000000000000, 19.2000000000000, 0.000000000000000 ) );
#344 = DIRECTION( '', ( 0.000000000000000, -1.00000000000000, -0.000000000000000 ) );
#345 = DIRECTION( '', ( 0.000000000000000, 0.000000000000000, -1.00000000000000 ) );
#346 = CARTESIAN_POINT( '', ( 0.000000000000000, 19.2000000000000, 0.000000000000000 ) );
#347 = DIRECTION( '', ( 0.000000000000000, -1.00000000000000, -0.000000000000000 ) );
#348 = DIRECTION( '', ( 0.000000000000000, 0.000000000000000, -1.00000000000000 ) );
#349 = CARTESIAN_POINT( '', ( 0.000000000000000, 19.7500000000000, 0.000000000000000 ) );
#350 = DIRECTION( '', ( 0.000000000000000, -1.00000000000000, -0.000000000000000 ) );
#351 = DIRECTION( '', ( 0.000000000000000, 0.000000000000000, -1.00000000000000 ) );
#352 = CARTESIAN_POINT( '', ( 0.000000000000000, 20.0500000000000, 0.000000000000000 ) );
#353 = DIRECTION( '', ( 0.000000000000000, -1.00000000000000, -0.000000000000000 ) );
#354 = DIRECTION( '', ( 0.000000000000000, 0.000000000000000, -1.00000000000000 ) );
#355 = CARTESIAN_POINT( '', ( 0.000000000000000, 20.0000000000000, 0.000000000000000 ) );
#356 = DIRECTION( '', ( 0.000000000000000, -1.00000000000000, -0.000000000000000 ) );
#357 = DIRECTION( '', ( 0.000000000000000, 0.000000000000000, -1.00000000000000 ) );
#358 = CARTESIAN_POINT( '', ( 0.000000000000000, 85.0000000000000, 0.000000000000000 ) );
#359 = DIRECTION( '', ( 0.000000000000000, -1.00000000000000, -0.000000000000000 ) );
#360 = DIRECTION( '', ( 0.000000000000000, 0.000000000000000, -1.00000000000000 ) );
#361 = CARTESIAN_POINT( '', ( 0.000000000000000, 20.0500000000000, 0.000000000000000 ) );
#362 = DIRECTION( '', ( 0.000000000000000, -1.00000000000000, -0.000000000000000 ) );
#363 = DIRECTION( '', ( 0.000000000000000, 0.000000000000000, -1.00000000000000 ) );
#364 = CARTESIAN_POINT( '', ( 0.000000000000000, 2.49999999999998, 0.000000000000000 ) );
#365 = DIRECTION( '', ( 0.000000000000000, -1.00000000000000, -0.000000000000000 ) );
#366 = DIRECTION( '', ( 0.000000000000000, 0.000000000000000, -1.00000000000000 ) );
#367 = CARTESIAN_POINT( '', ( 0.000000000000000, 0.000000000000000, 0.000000000000000 ) );
#368 = DIRECTION( '', ( 0.000000000000000, -1.00000000000000, -0.000000000000000 ) );
#369 = DIRECTION( '', ( 0.000000000000000, 0.000000000000000, -1.00000000000000 ) );
ENDSEC;
END-ISO-10303-21;
