ISO-10303-21;
HEADER;
FILE_DESCRIPTION( ( 'STEP AP214' ), '1' );
FILE_NAME( '//goodhand-server/Shared Folders/GoodHand Data/Kipp CAD/K1154/K1154.2281430.stp', '2020-12-10T10:27:01', ( '' ), ( '' ), ' ', 'PARTsolutions', ' ' );
FILE_SCHEMA( ( 'AUTOMOTIVE_DESIGN { 1 0 10303 214 1 1 1 1 }' ) );
ENDSEC;
DATA;
#1 = MECHANICAL_DESIGN_GEOMETRIC_PRESENTATION_REPRESENTATION( ' ', ( #10, #11, #12, #13, #14, #15, #16, #17, #18, #19, #20, #21, #22, #23 ), #6 );
#2 = PRODUCT_DEFINITION_CONTEXT( '', #24, 'design' );
#3 = APPLICATION_PROTOCOL_DEFINITION( 'international standard', 'automotive_design', 2001, #24 );
#4 = PRODUCT_CATEGORY_RELATIONSHIP( 'NONE', 'NONE', #25, #26 );
#5 = SHAPE_DEFINITION_REPRESENTATION( #27, #28 );
#6 =  ( GEOMETRIC_REPRESENTATION_CONTEXT( 3 )GLOBAL_UNCERTAINTY_ASSIGNED_CONTEXT( ( #31 ) )GLOBAL_UNIT_ASSIGNED_CONTEXT( ( #33, #34, #35 ) )REPRESENTATION_CONTEXT( 'NONE', 'WORKSPACE' ) );
#10 = STYLED_ITEM( '', ( #37 ), #38 );
#11 = STYLED_ITEM( '', ( #39 ), #40 );
#12 = STYLED_ITEM( '', ( #41 ), #42 );
#13 = STYLED_ITEM( '', ( #43 ), #44 );
#14 = STYLED_ITEM( '', ( #45 ), #46 );
#15 = STYLED_ITEM( '', ( #47 ), #48 );
#16 = STYLED_ITEM( '', ( #49 ), #50 );
#17 = STYLED_ITEM( '', ( #51 ), #52 );
#18 = STYLED_ITEM( '', ( #53 ), #54 );
#19 = STYLED_ITEM( '', ( #55 ), #56 );
#20 = STYLED_ITEM( '', ( #57 ), #58 );
#21 = STYLED_ITEM( '', ( #59 ), #60 );
#22 = STYLED_ITEM( '', ( #61 ), #62 );
#23 = STYLED_ITEM( '', ( #63 ), #64 );
#24 = APPLICATION_CONTEXT( 'core data for automotive mechanical design processes' );
#25 = PRODUCT_CATEGORY( 'part', 'NONE' );
#26 = PRODUCT_RELATED_PRODUCT_CATEGORY( 'detail', ' ', ( #65 ) );
#27 = PRODUCT_DEFINITION_SHAPE( 'NONE', 'NONE', #66 );
#28 = ADVANCED_BREP_SHAPE_REPRESENTATION( '_K1154.2281430', ( #67, #68 ), #6 );
#31 = UNCERTAINTY_MEASURE_WITH_UNIT( LENGTH_MEASURE( 0.00100000000000000 ), #33, '', '' );
#33 =  ( CONVERSION_BASED_UNIT( 'MILLIMETRE', #71 )LENGTH_UNIT(  )NAMED_UNIT( #74 ) );
#34 =  ( NAMED_UNIT( #76 )PLANE_ANGLE_UNIT(  )SI_UNIT( $, .RADIAN. ) );
#35 =  ( NAMED_UNIT( #76 )SI_UNIT( $, .STERADIAN. )SOLID_ANGLE_UNIT(  ) );
#37 = PRESENTATION_STYLE_ASSIGNMENT( ( #82 ) );
#38 = ADVANCED_FACE( '', ( #83, #84 ), #85, .T. );
#39 = PRESENTATION_STYLE_ASSIGNMENT( ( #86 ) );
#40 = ADVANCED_FACE( '', ( #87, #88 ), #89, .T. );
#41 = PRESENTATION_STYLE_ASSIGNMENT( ( #90 ) );
#42 = ADVANCED_FACE( '', ( #91, #92 ), #93, .T. );
#43 = PRESENTATION_STYLE_ASSIGNMENT( ( #94 ) );
#44 = ADVANCED_FACE( '', ( #95, #96, #97, #98, #99 ), #100, .F. );
#45 = PRESENTATION_STYLE_ASSIGNMENT( ( #101 ) );
#46 = ADVANCED_FACE( '', ( #102, #103 ), #104, .T. );
#47 = PRESENTATION_STYLE_ASSIGNMENT( ( #105 ) );
#48 = ADVANCED_FACE( '', ( #106, #107 ), #108, .F. );
#49 = PRESENTATION_STYLE_ASSIGNMENT( ( #109 ) );
#50 = ADVANCED_FACE( '', ( #110, #111 ), #112, .F. );
#51 = PRESENTATION_STYLE_ASSIGNMENT( ( #113 ) );
#52 = ADVANCED_FACE( '', ( #114, #115 ), #116, .F. );
#53 = PRESENTATION_STYLE_ASSIGNMENT( ( #117 ) );
#54 = ADVANCED_FACE( '', ( #118 ), #119, .T. );
#55 = PRESENTATION_STYLE_ASSIGNMENT( ( #120 ) );
#56 = ADVANCED_FACE( '', ( #121, #122 ), #123, .F. );
#57 = PRESENTATION_STYLE_ASSIGNMENT( ( #124 ) );
#58 = ADVANCED_FACE( '', ( #125, #126, #127, #128, #129 ), #130, .F. );
#59 = PRESENTATION_STYLE_ASSIGNMENT( ( #131 ) );
#60 = ADVANCED_FACE( '', ( #132, #133 ), #134, .F. );
#61 = PRESENTATION_STYLE_ASSIGNMENT( ( #135 ) );
#62 = ADVANCED_FACE( '', ( #136 ), #137, .F. );
#63 = PRESENTATION_STYLE_ASSIGNMENT( ( #138 ) );
#64 = ADVANCED_FACE( '', ( #139, #140 ), #141, .F. );
#65 = PRODUCT( '_K1154.2281430', '_K1154.2281430', 'PART-_K1154.2281430-DESC', ( #142 ) );
#66 = PRODUCT_DEFINITION( 'NONE', 'NONE', #143, #2 );
#67 = MANIFOLD_SOLID_BREP( '_K1154.2281430', #144 );
#68 = AXIS2_PLACEMENT_3D( '', #145, #146, #147 );
#71 = LENGTH_MEASURE_WITH_UNIT( LENGTH_MEASURE( 1.00000000000000 ), #148 );
#74 = DIMENSIONAL_EXPONENTS( 1.00000000000000, 0.000000000000000, 0.000000000000000, 0.000000000000000, 0.000000000000000, 0.000000000000000, 0.000000000000000 );
#76 = DIMENSIONAL_EXPONENTS( 0.000000000000000, 0.000000000000000, 0.000000000000000, 0.000000000000000, 0.000000000000000, 0.000000000000000, 0.000000000000000 );
#82 = SURFACE_STYLE_USAGE( .BOTH., #149 );
#83 = FACE_OUTER_BOUND( '', #150, .T. );
#84 = FACE_OUTER_BOUND( '', #151, .T. );
#85 = CYLINDRICAL_SURFACE( '', #152, 20.0000000000000 );
#86 = SURFACE_STYLE_USAGE( .BOTH., #153 );
#87 = FACE_OUTER_BOUND( '', #154, .T. );
#88 = FACE_BOUND( '', #155, .T. );
#89 = CONICAL_SURFACE( '', #156, 11.0578571429000, 1.09601625320000 );
#90 = SURFACE_STYLE_USAGE( .BOTH., #157 );
#91 = FACE_OUTER_BOUND( '', #158, .T. );
#92 = FACE_OUTER_BOUND( '', #159, .T. );
#93 = CYLINDRICAL_SURFACE( '', #160, 14.0000000000000 );
#94 = SURFACE_STYLE_USAGE( .BOTH., #161 );
#95 = FACE_OUTER_BOUND( '', #162, .T. );
#96 = FACE_BOUND( '', #163, .T. );
#97 = FACE_BOUND( '', #164, .T. );
#98 = FACE_BOUND( '', #165, .T. );
#99 = FACE_BOUND( '', #166, .T. );
#100 = PLANE( '', #167 );
#101 = SURFACE_STYLE_USAGE( .BOTH., #168 );
#102 = FACE_OUTER_BOUND( '', #169, .T. );
#103 = FACE_OUTER_BOUND( '', #170, .T. );
#104 = TOROIDAL_SURFACE( '', #171, 10.8750000000000, 0.400000000000000 );
#105 = SURFACE_STYLE_USAGE( .BOTH., #172 );
#106 = FACE_OUTER_BOUND( '', #173, .T. );
#107 = FACE_OUTER_BOUND( '', #174, .T. );
#108 = CYLINDRICAL_SURFACE( '', #175, 1.00000000000000 );
#109 = SURFACE_STYLE_USAGE( .BOTH., #176 );
#110 = FACE_OUTER_BOUND( '', #177, .T. );
#111 = FACE_OUTER_BOUND( '', #178, .T. );
#112 = CYLINDRICAL_SURFACE( '', #179, 1.00000000000000 );
#113 = SURFACE_STYLE_USAGE( .BOTH., #180 );
#114 = FACE_OUTER_BOUND( '', #181, .T. );
#115 = FACE_BOUND( '', #182, .T. );
#116 = CONICAL_SURFACE( '', #183, 11.7500000000000, 1.29249666780000 );
#117 = SURFACE_STYLE_USAGE( .BOTH., #184 );
#118 = FACE_OUTER_BOUND( '', #185, .T. );
#119 = PLANE( '', #186 );
#120 = SURFACE_STYLE_USAGE( .BOTH., #187 );
#121 = FACE_OUTER_BOUND( '', #188, .T. );
#122 = FACE_OUTER_BOUND( '', #189, .T. );
#123 = CYLINDRICAL_SURFACE( '', #190, 10.0000000000000 );
#124 = SURFACE_STYLE_USAGE( .BOTH., #191 );
#125 = FACE_BOUND( '', #192, .T. );
#126 = FACE_OUTER_BOUND( '', #193, .T. );
#127 = FACE_BOUND( '', #194, .T. );
#128 = FACE_BOUND( '', #195, .T. );
#129 = FACE_BOUND( '', #196, .T. );
#130 = PLANE( '', #197 );
#131 = SURFACE_STYLE_USAGE( .BOTH., #198 );
#132 = FACE_OUTER_BOUND( '', #199, .T. );
#133 = FACE_OUTER_BOUND( '', #200, .T. );
#134 = CYLINDRICAL_SURFACE( '', #201, 1.00000000000000 );
#135 = SURFACE_STYLE_USAGE( .BOTH., #202 );
#136 = FACE_OUTER_BOUND( '', #203, .T. );
#137 = PLANE( '', #204 );
#138 = SURFACE_STYLE_USAGE( .BOTH., #205 );
#139 = FACE_OUTER_BOUND( '', #206, .T. );
#140 = FACE_BOUND( '', #207, .T. );
#141 = CONICAL_SURFACE( '', #208, 10.0000000000000, 1.09601625320000 );
#142 = PRODUCT_CONTEXT( '', #24, 'mechanical' );
#143 = PRODUCT_DEFINITION_FORMATION_WITH_SPECIFIED_SOURCE( ' ', 'NONE', #65, .NOT_KNOWN. );
#144 = CLOSED_SHELL( '', ( #58, #50, #60, #62, #42, #44, #38, #48, #46, #54, #56, #64, #40, #52 ) );
#145 = CARTESIAN_POINT( '', ( 0.000000000000000, 0.000000000000000, 0.000000000000000 ) );
#146 = DIRECTION( '', ( 0.000000000000000, 0.000000000000000, 1.00000000000000 ) );
#147 = DIRECTION( '', ( 1.00000000000000, 0.000000000000000, 0.000000000000000 ) );
#148 =  ( LENGTH_UNIT(  )NAMED_UNIT( #74 )SI_UNIT( .MILLI., .METRE. ) );
#149 = SURFACE_SIDE_STYLE( '', ( #210 ) );
#150 = EDGE_LOOP( '', ( #211 ) );
#151 = EDGE_LOOP( '', ( #212 ) );
#152 = AXIS2_PLACEMENT_3D( '', #213, #214, #215 );
#153 = SURFACE_SIDE_STYLE( '', ( #216 ) );
#154 = EDGE_LOOP( '', ( #217 ) );
#155 = EDGE_LOOP( '', ( #218 ) );
#156 = AXIS2_PLACEMENT_3D( '', #219, #220, #221 );
#157 = SURFACE_SIDE_STYLE( '', ( #222 ) );
#158 = EDGE_LOOP( '', ( #223 ) );
#159 = EDGE_LOOP( '', ( #224 ) );
#160 = AXIS2_PLACEMENT_3D( '', #225, #226, #227 );
#161 = SURFACE_SIDE_STYLE( '', ( #228 ) );
#162 = EDGE_LOOP( '', ( #229 ) );
#163 = EDGE_LOOP( '', ( #230 ) );
#164 = EDGE_LOOP( '', ( #231 ) );
#165 = EDGE_LOOP( '', ( #232 ) );
#166 = EDGE_LOOP( '', ( #233 ) );
#167 = AXIS2_PLACEMENT_3D( '', #234, #235, #236 );
#168 = SURFACE_SIDE_STYLE( '', ( #237 ) );
#169 = EDGE_LOOP( '', ( #238 ) );
#170 = EDGE_LOOP( '', ( #239 ) );
#171 = AXIS2_PLACEMENT_3D( '', #240, #241, #242 );
#172 = SURFACE_SIDE_STYLE( '', ( #243 ) );
#173 = EDGE_LOOP( '', ( #244 ) );
#174 = EDGE_LOOP( '', ( #245 ) );
#175 = AXIS2_PLACEMENT_3D( '', #246, #247, #248 );
#176 = SURFACE_SIDE_STYLE( '', ( #249 ) );
#177 = EDGE_LOOP( '', ( #250 ) );
#178 = EDGE_LOOP( '', ( #251 ) );
#179 = AXIS2_PLACEMENT_3D( '', #252, #253, #254 );
#180 = SURFACE_SIDE_STYLE( '', ( #255 ) );
#181 = EDGE_LOOP( '', ( #256 ) );
#182 = EDGE_LOOP( '', ( #257 ) );
#183 = AXIS2_PLACEMENT_3D( '', #258, #259, #260 );
#184 = SURFACE_SIDE_STYLE( '', ( #261 ) );
#185 = EDGE_LOOP( '', ( #262 ) );
#186 = AXIS2_PLACEMENT_3D( '', #263, #264, #265 );
#187 = SURFACE_SIDE_STYLE( '', ( #266 ) );
#188 = EDGE_LOOP( '', ( #267 ) );
#189 = EDGE_LOOP( '', ( #268 ) );
#190 = AXIS2_PLACEMENT_3D( '', #269, #270, #271 );
#191 = SURFACE_SIDE_STYLE( '', ( #272 ) );
#192 = EDGE_LOOP( '', ( #273 ) );
#193 = EDGE_LOOP( '', ( #274 ) );
#194 = EDGE_LOOP( '', ( #275 ) );
#195 = EDGE_LOOP( '', ( #276 ) );
#196 = EDGE_LOOP( '', ( #277 ) );
#197 = AXIS2_PLACEMENT_3D( '', #278, #279, #280 );
#198 = SURFACE_SIDE_STYLE( '', ( #281 ) );
#199 = EDGE_LOOP( '', ( #282 ) );
#200 = EDGE_LOOP( '', ( #283 ) );
#201 = AXIS2_PLACEMENT_3D( '', #284, #285, #286 );
#202 = SURFACE_SIDE_STYLE( '', ( #287 ) );
#203 = EDGE_LOOP( '', ( #288 ) );
#204 = AXIS2_PLACEMENT_3D( '', #289, #290, #291 );
#205 = SURFACE_SIDE_STYLE( '', ( #292 ) );
#206 = EDGE_LOOP( '', ( #293 ) );
#207 = EDGE_LOOP( '', ( #294 ) );
#208 = AXIS2_PLACEMENT_3D( '', #295, #296, #297 );
#210 = SURFACE_STYLE_FILL_AREA( #298 );
#211 = ORIENTED_EDGE( '', *, *, #299, .F. );
#212 = ORIENTED_EDGE( '', *, *, #300, .T. );
#213 = CARTESIAN_POINT( '', ( 0.000000000000000, 0.000000000000000, 0.000000000000000 ) );
#214 = DIRECTION( '', ( -0.000000000000000, 1.00000000000000, 0.000000000000000 ) );
#215 = DIRECTION( '', ( 0.000000000000000, 0.000000000000000, -1.00000000000000 ) );
#216 = SURFACE_STYLE_FILL_AREA( #301 );
#217 = ORIENTED_EDGE( '', *, *, #302, .T. );
#218 = ORIENTED_EDGE( '', *, *, #303, .F. );
#219 = CARTESIAN_POINT( '', ( 0.000000000000000, 0.0442426876280364, 0.000000000000000 ) );
#220 = DIRECTION( '', ( -0.000000000000000, 1.00000000000000, 0.000000000000000 ) );
#221 = DIRECTION( '', ( 0.000000000000000, -0.000000000000000, 1.00000000000000 ) );
#222 = SURFACE_STYLE_FILL_AREA( #304 );
#223 = ORIENTED_EDGE( '', *, *, #305, .F. );
#224 = ORIENTED_EDGE( '', *, *, #306, .T. );
#225 = CARTESIAN_POINT( '', ( 0.000000000000000, 0.000000000000000, 0.000000000000000 ) );
#226 = DIRECTION( '', ( -0.000000000000000, 1.00000000000000, 0.000000000000000 ) );
#227 = DIRECTION( '', ( 0.000000000000000, 0.000000000000000, -1.00000000000000 ) );
#228 = SURFACE_STYLE_FILL_AREA( #307 );
#229 = ORIENTED_EDGE( '', *, *, #300, .F. );
#230 = ORIENTED_EDGE( '', *, *, #308, .F. );
#231 = ORIENTED_EDGE( '', *, *, #309, .F. );
#232 = ORIENTED_EDGE( '', *, *, #310, .F. );
#233 = ORIENTED_EDGE( '', *, *, #305, .T. );
#234 = CARTESIAN_POINT( '', ( 14.0000000000000, 4.00000000000000, 0.000000000000000 ) );
#235 = DIRECTION( '', ( 0.000000000000000, -1.00000000000000, -0.000000000000000 ) );
#236 = DIRECTION( '', ( 0.000000000000000, 0.000000000000000, -1.00000000000000 ) );
#237 = SURFACE_STYLE_FILL_AREA( #311 );
#238 = ORIENTED_EDGE( '', *, *, #303, .T. );
#239 = ORIENTED_EDGE( '', *, *, #312, .F. );
#240 = CARTESIAN_POINT( '', ( 0.000000000000000, 0.400000000000003, 0.000000000000000 ) );
#241 = DIRECTION( '', ( 0.000000000000000, -1.00000000000000, -0.000000000000000 ) );
#242 = DIRECTION( '', ( 0.000000000000000, 0.000000000000000, -1.00000000000000 ) );
#243 = SURFACE_STYLE_FILL_AREA( #313 );
#244 = ORIENTED_EDGE( '', *, *, #308, .T. );
#245 = ORIENTED_EDGE( '', *, *, #314, .F. );
#246 = CARTESIAN_POINT( '', ( 8.50000000000000, 4.00000000000000, -14.7224318643355 ) );
#247 = DIRECTION( '', ( -0.000000000000000, 1.00000000000000, -0.000000000000000 ) );
#248 = DIRECTION( '', ( 0.866025403784439, 0.000000000000000, 0.500000000000000 ) );
#249 = SURFACE_STYLE_FILL_AREA( #315 );
#250 = ORIENTED_EDGE( '', *, *, #310, .T. );
#251 = ORIENTED_EDGE( '', *, *, #316, .F. );
#252 = CARTESIAN_POINT( '', ( -17.0000000000000, 4.00000000000000, 0.000000000000000 ) );
#253 = DIRECTION( '', ( -0.000000000000000, 1.00000000000000, 0.000000000000000 ) );
#254 = DIRECTION( '', ( 0.000000000000000, 0.000000000000000, -1.00000000000000 ) );
#255 = SURFACE_STYLE_FILL_AREA( #317 );
#256 = ORIENTED_EDGE( '', *, *, #318, .T. );
#257 = ORIENTED_EDGE( '', *, *, #302, .F. );
#258 = CARTESIAN_POINT( '', ( 0.000000000000000, 0.399999999999998, 0.000000000000000 ) );
#259 = DIRECTION( '', ( -0.000000000000000, -1.00000000000000, -0.000000000000000 ) );
#260 = DIRECTION( '', ( 0.000000000000000, 0.000000000000000, -1.00000000000000 ) );
#261 = SURFACE_STYLE_FILL_AREA( #319 );
#262 = ORIENTED_EDGE( '', *, *, #320, .T. );
#263 = CARTESIAN_POINT( '', ( 0.000000000000000, 1.50000000000000, 0.000000000000000 ) );
#264 = DIRECTION( '', ( 0.000000000000000, -1.00000000000000, -0.000000000000000 ) );
#265 = DIRECTION( '', ( 0.000000000000000, 0.000000000000000, -1.00000000000000 ) );
#266 = SURFACE_STYLE_FILL_AREA( #321 );
#267 = ORIENTED_EDGE( '', *, *, #322, .T. );
#268 = ORIENTED_EDGE( '', *, *, #320, .F. );
#269 = CARTESIAN_POINT( '', ( 0.000000000000000, -2.00000000000000, 0.000000000000000 ) );
#270 = DIRECTION( '', ( -0.000000000000000, 1.00000000000000, 0.000000000000000 ) );
#271 = DIRECTION( '', ( 0.000000000000000, 0.000000000000000, -1.00000000000000 ) );
#272 = SURFACE_STYLE_FILL_AREA( #323 );
#273 = ORIENTED_EDGE( '', *, *, #318, .F. );
#274 = ORIENTED_EDGE( '', *, *, #299, .T. );
#275 = ORIENTED_EDGE( '', *, *, #314, .T. );
#276 = ORIENTED_EDGE( '', *, *, #324, .T. );
#277 = ORIENTED_EDGE( '', *, *, #316, .T. );
#278 = CARTESIAN_POINT( '', ( 20.0000000000000, 0.000000000000000, 0.000000000000000 ) );
#279 = DIRECTION( '', ( 0.000000000000000, 1.00000000000000, 0.000000000000000 ) );
#280 = DIRECTION( '', ( 0.000000000000000, -0.000000000000000, 1.00000000000000 ) );
#281 = SURFACE_STYLE_FILL_AREA( #325 );
#282 = ORIENTED_EDGE( '', *, *, #309, .T. );
#283 = ORIENTED_EDGE( '', *, *, #324, .F. );
#284 = CARTESIAN_POINT( '', ( 8.50000000000000, 4.00000000000000, 14.7224318643355 ) );
#285 = DIRECTION( '', ( -0.000000000000000, 1.00000000000000, -0.000000000000000 ) );
#286 = DIRECTION( '', ( -0.866025403784439, 0.000000000000000, 0.500000000000000 ) );
#287 = SURFACE_STYLE_FILL_AREA( #326 );
#288 = ORIENTED_EDGE( '', *, *, #306, .F. );
#289 = CARTESIAN_POINT( '', ( 0.000000000000000, 14.0000000000000, 0.000000000000000 ) );
#290 = DIRECTION( '', ( 0.000000000000000, -1.00000000000000, -0.000000000000000 ) );
#291 = DIRECTION( '', ( 0.000000000000000, 0.000000000000000, -1.00000000000000 ) );
#292 = SURFACE_STYLE_FILL_AREA( #327 );
#293 = ORIENTED_EDGE( '', *, *, #312, .T. );
#294 = ORIENTED_EDGE( '', *, *, #322, .F. );
#295 = CARTESIAN_POINT( '', ( 0.000000000000000, 0.400000000000000, 0.000000000000000 ) );
#296 = DIRECTION( '', ( -0.000000000000000, -1.00000000000000, -0.000000000000000 ) );
#297 = DIRECTION( '', ( 0.000000000000000, 0.000000000000000, -1.00000000000000 ) );
#298 = FILL_AREA_STYLE( '', ( #328 ) );
#299 = EDGE_CURVE( '', #329, #329, #330, .T. );
#300 = EDGE_CURVE( '', #331, #331, #332, .T. );
#301 = FILL_AREA_STYLE( '', ( #333 ) );
#302 = EDGE_CURVE( '', #334, #334, #335, .T. );
#303 = EDGE_CURVE( '', #336, #336, #337, .T. );
#304 = FILL_AREA_STYLE( '', ( #338 ) );
#305 = EDGE_CURVE( '', #339, #339, #340, .T. );
#306 = EDGE_CURVE( '', #341, #341, #342, .T. );
#307 = FILL_AREA_STYLE( '', ( #343 ) );
#308 = EDGE_CURVE( '', #344, #344, #345, .T. );
#309 = EDGE_CURVE( '', #346, #346, #347, .T. );
#310 = EDGE_CURVE( '', #348, #348, #349, .T. );
#311 = FILL_AREA_STYLE( '', ( #350 ) );
#312 = EDGE_CURVE( '', #351, #351, #352, .T. );
#313 = FILL_AREA_STYLE( '', ( #353 ) );
#314 = EDGE_CURVE( '', #354, #354, #355, .T. );
#315 = FILL_AREA_STYLE( '', ( #356 ) );
#316 = EDGE_CURVE( '', #357, #357, #358, .T. );
#317 = FILL_AREA_STYLE( '', ( #359 ) );
#318 = EDGE_CURVE( '', #360, #360, #361, .T. );
#319 = FILL_AREA_STYLE( '', ( #362 ) );
#320 = EDGE_CURVE( '', #363, #363, #364, .T. );
#321 = FILL_AREA_STYLE( '', ( #365 ) );
#322 = EDGE_CURVE( '', #366, #366, #367, .T. );
#323 = FILL_AREA_STYLE( '', ( #368 ) );
#324 = EDGE_CURVE( '', #369, #369, #370, .T. );
#325 = FILL_AREA_STYLE( '', ( #371 ) );
#326 = FILL_AREA_STYLE( '', ( #372 ) );
#327 = FILL_AREA_STYLE( '', ( #373 ) );
#328 = FILL_AREA_STYLE_COLOUR( '', #374 );
#329 = VERTEX_POINT( '', #375 );
#330 = CIRCLE( '', #376, 20.0000000000000 );
#331 = VERTEX_POINT( '', #377 );
#332 = CIRCLE( '', #378, 20.0000000000000 );
#333 = FILL_AREA_STYLE_COLOUR( '', #379 );
#334 = VERTEX_POINT( '', #380 );
#335 = CIRCLE( '', #381, 11.7500000000000 );
#336 = VERTEX_POINT( '', #382 );
#337 = CIRCLE( '', #383, 11.0578571429000 );
#338 = FILL_AREA_STYLE_COLOUR( '', #384 );
#339 = VERTEX_POINT( '', #385 );
#340 = CIRCLE( '', #386, 14.0000000000000 );
#341 = VERTEX_POINT( '', #387 );
#342 = CIRCLE( '', #388, 14.0000000000000 );
#343 = FILL_AREA_STYLE_COLOUR( '', #389 );
#344 = VERTEX_POINT( '', #390 );
#345 = CIRCLE( '', #391, 1.00000000000000 );
#346 = VERTEX_POINT( '', #392 );
#347 = CIRCLE( '', #393, 1.00000000000000 );
#348 = VERTEX_POINT( '', #394 );
#349 = CIRCLE( '', #395, 1.00000000000000 );
#350 = FILL_AREA_STYLE_COLOUR( '', #396 );
#351 = VERTEX_POINT( '', #397 );
#352 = CIRCLE( '', #398, 10.6921428571000 );
#353 = FILL_AREA_STYLE_COLOUR( '', #399 );
#354 = VERTEX_POINT( '', #400 );
#355 = CIRCLE( '', #401, 1.00000000000000 );
#356 = FILL_AREA_STYLE_COLOUR( '', #402 );
#357 = VERTEX_POINT( '', #403 );
#358 = CIRCLE( '', #404, 1.00000000000000 );
#359 = FILL_AREA_STYLE_COLOUR( '', #405 );
#360 = VERTEX_POINT( '', #406 );
#361 = CIRCLE( '', #407, 13.1500000000000 );
#362 = FILL_AREA_STYLE_COLOUR( '', #408 );
#363 = VERTEX_POINT( '', #409 );
#364 = CIRCLE( '', #410, 10.0000000000000 );
#365 = FILL_AREA_STYLE_COLOUR( '', #411 );
#366 = VERTEX_POINT( '', #412 );
#367 = CIRCLE( '', #413, 10.0000000000000 );
#368 = FILL_AREA_STYLE_COLOUR( '', #414 );
#369 = VERTEX_POINT( '', #415 );
#370 = CIRCLE( '', #416, 1.00000000000000 );
#371 = FILL_AREA_STYLE_COLOUR( '', #417 );
#372 = FILL_AREA_STYLE_COLOUR( '', #418 );
#373 = FILL_AREA_STYLE_COLOUR( '', #419 );
#374 = COLOUR_RGB( '', 0.689999997600000, 0.689999997600000, 0.689999997600000 );
#375 = CARTESIAN_POINT( '', ( 0.000000000000000, 0.000000000000000, -20.0000000000000 ) );
#376 = AXIS2_PLACEMENT_3D( '', #420, #421, #422 );
#377 = CARTESIAN_POINT( '', ( 0.000000000000000, 4.00000000000000, -20.0000000000000 ) );
#378 = AXIS2_PLACEMENT_3D( '', #423, #424, #425 );
#379 = COLOUR_RGB( '', 0.689999997600000, 0.689999997600000, 0.689999997600000 );
#380 = CARTESIAN_POINT( '', ( 0.000000000000000, 0.399999999999998, -11.7500000000000 ) );
#381 = AXIS2_PLACEMENT_3D( '', #426, #427, #428 );
#382 = CARTESIAN_POINT( '', ( 0.000000000000000, 0.0442426876280364, -11.0578571428571 ) );
#383 = AXIS2_PLACEMENT_3D( '', #429, #430, #431 );
#384 = COLOUR_RGB( '', 0.689999997600000, 0.689999997600000, 0.689999997600000 );
#385 = CARTESIAN_POINT( '', ( 0.000000000000000, 4.00000000000000, -14.0000000000000 ) );
#386 = AXIS2_PLACEMENT_3D( '', #432, #433, #434 );
#387 = CARTESIAN_POINT( '', ( 0.000000000000000, 14.0000000000000, -14.0000000000000 ) );
#388 = AXIS2_PLACEMENT_3D( '', #435, #436, #437 );
#389 = COLOUR_RGB( '', 0.689999997600000, 0.689999997600000, 0.689999997600000 );
#390 = CARTESIAN_POINT( '', ( 8.00000000000000, 4.00000000000000, -13.8564064605510 ) );
#391 = AXIS2_PLACEMENT_3D( '', #438, #439, #440 );
#392 = CARTESIAN_POINT( '', ( 8.00000000000000, 4.00000000000000, 13.8564064605510 ) );
#393 = AXIS2_PLACEMENT_3D( '', #441, #442, #443 );
#394 = CARTESIAN_POINT( '', ( -16.0000000000000, 4.00000000000000, 0.000000000000000 ) );
#395 = AXIS2_PLACEMENT_3D( '', #444, #445, #446 );
#396 = COLOUR_RGB( '', 0.689999997600000, 0.689999997600000, 0.689999997600000 );
#397 = CARTESIAN_POINT( '', ( 0.000000000000000, 0.0442426876280360, -10.6921428571429 ) );
#398 = AXIS2_PLACEMENT_3D( '', #447, #448, #449 );
#399 = COLOUR_RGB( '', 0.689999997600000, 0.689999997600000, 0.689999997600000 );
#400 = CARTESIAN_POINT( '', ( 8.00000000000000, 0.000000000000000, -13.8564064605510 ) );
#401 = AXIS2_PLACEMENT_3D( '', #450, #451, #452 );
#402 = COLOUR_RGB( '', 0.689999997600000, 0.689999997600000, 0.689999997600000 );
#403 = CARTESIAN_POINT( '', ( -16.0000000000000, 0.000000000000000, 0.000000000000000 ) );
#404 = AXIS2_PLACEMENT_3D( '', #453, #454, #455 );
#405 = COLOUR_RGB( '', 0.689999997600000, 0.689999997600000, 0.689999997600000 );
#406 = CARTESIAN_POINT( '', ( 0.000000000000000, -1.30104260698261E-15, -13.1500000000000 ) );
#407 = AXIS2_PLACEMENT_3D( '', #456, #457, #458 );
#408 = COLOUR_RGB( '', 0.689999997600000, 0.689999997600000, 0.689999997600000 );
#409 = CARTESIAN_POINT( '', ( 0.000000000000000, 1.50000000000000, -10.0000000000000 ) );
#410 = AXIS2_PLACEMENT_3D( '', #459, #460, #461 );
#411 = COLOUR_RGB( '', 0.689999997600000, 0.689999997600000, 0.689999997600000 );
#412 = CARTESIAN_POINT( '', ( 0.000000000000000, 0.400000000000000, -10.0000000000000 ) );
#413 = AXIS2_PLACEMENT_3D( '', #462, #463, #464 );
#414 = COLOUR_RGB( '', 0.689999997600000, 0.689999997600000, 0.689999997600000 );
#415 = CARTESIAN_POINT( '', ( 8.00000000000000, 0.000000000000000, 13.8564064605510 ) );
#416 = AXIS2_PLACEMENT_3D( '', #465, #466, #467 );
#417 = COLOUR_RGB( '', 0.689999997600000, 0.689999997600000, 0.689999997600000 );
#418 = COLOUR_RGB( '', 0.689999997600000, 0.689999997600000, 0.689999997600000 );
#419 = COLOUR_RGB( '', 0.689999997600000, 0.689999997600000, 0.689999997600000 );
#420 = CARTESIAN_POINT( '', ( 0.000000000000000, 0.000000000000000, 0.000000000000000 ) );
#421 = DIRECTION( '', ( 0.000000000000000, -1.00000000000000, -0.000000000000000 ) );
#422 = DIRECTION( '', ( 0.000000000000000, 0.000000000000000, -1.00000000000000 ) );
#423 = CARTESIAN_POINT( '', ( 0.000000000000000, 4.00000000000000, 0.000000000000000 ) );
#424 = DIRECTION( '', ( 0.000000000000000, -1.00000000000000, -0.000000000000000 ) );
#425 = DIRECTION( '', ( 0.000000000000000, 0.000000000000000, -1.00000000000000 ) );
#426 = CARTESIAN_POINT( '', ( 0.000000000000000, 0.399999999999998, 0.000000000000000 ) );
#427 = DIRECTION( '', ( 0.000000000000000, -1.00000000000000, -0.000000000000000 ) );
#428 = DIRECTION( '', ( 0.000000000000000, 0.000000000000000, -1.00000000000000 ) );
#429 = CARTESIAN_POINT( '', ( 0.000000000000000, 0.0442426876280364, 0.000000000000000 ) );
#430 = DIRECTION( '', ( 0.000000000000000, -1.00000000000000, -0.000000000000000 ) );
#431 = DIRECTION( '', ( 0.000000000000000, 0.000000000000000, -1.00000000000000 ) );
#432 = CARTESIAN_POINT( '', ( 0.000000000000000, 4.00000000000000, 0.000000000000000 ) );
#433 = DIRECTION( '', ( 0.000000000000000, -1.00000000000000, -0.000000000000000 ) );
#434 = DIRECTION( '', ( 0.000000000000000, 0.000000000000000, -1.00000000000000 ) );
#435 = CARTESIAN_POINT( '', ( 0.000000000000000, 14.0000000000000, 0.000000000000000 ) );
#436 = DIRECTION( '', ( 0.000000000000000, -1.00000000000000, -0.000000000000000 ) );
#437 = DIRECTION( '', ( 0.000000000000000, 0.000000000000000, -1.00000000000000 ) );
#438 = CARTESIAN_POINT( '', ( 8.50000000000000, 4.00000000000000, -14.7224318643355 ) );
#439 = DIRECTION( '', ( 0.000000000000000, 1.00000000000000, 0.000000000000000 ) );
#440 = DIRECTION( '', ( -0.500000000000000, 0.000000000000000, 0.866025403784439 ) );
#441 = CARTESIAN_POINT( '', ( 8.50000000000000, 4.00000000000000, 14.7224318643355 ) );
#442 = DIRECTION( '', ( 0.000000000000000, 1.00000000000000, 0.000000000000000 ) );
#443 = DIRECTION( '', ( -0.500000000000000, 0.000000000000000, -0.866025403784439 ) );
#444 = CARTESIAN_POINT( '', ( -17.0000000000000, 4.00000000000000, 0.000000000000000 ) );
#445 = DIRECTION( '', ( -0.000000000000000, 1.00000000000000, 0.000000000000000 ) );
#446 = DIRECTION( '', ( 1.00000000000000, 0.000000000000000, 0.000000000000000 ) );
#447 = CARTESIAN_POINT( '', ( 0.000000000000000, 0.0442426876280360, 0.000000000000000 ) );
#448 = DIRECTION( '', ( 0.000000000000000, -1.00000000000000, -0.000000000000000 ) );
#449 = DIRECTION( '', ( 0.000000000000000, 0.000000000000000, -1.00000000000000 ) );
#450 = CARTESIAN_POINT( '', ( 8.50000000000000, 0.000000000000000, -14.7224318643355 ) );
#451 = DIRECTION( '', ( 0.000000000000000, 1.00000000000000, 0.000000000000000 ) );
#452 = DIRECTION( '', ( -0.500000000000000, 0.000000000000000, 0.866025403784439 ) );
#453 = CARTESIAN_POINT( '', ( -17.0000000000000, 0.000000000000000, 0.000000000000000 ) );
#454 = DIRECTION( '', ( -0.000000000000000, 1.00000000000000, 0.000000000000000 ) );
#455 = DIRECTION( '', ( 1.00000000000000, 0.000000000000000, 0.000000000000000 ) );
#456 = CARTESIAN_POINT( '', ( 0.000000000000000, -1.30104260698261E-15, 0.000000000000000 ) );
#457 = DIRECTION( '', ( 0.000000000000000, -1.00000000000000, -0.000000000000000 ) );
#458 = DIRECTION( '', ( 0.000000000000000, 0.000000000000000, -1.00000000000000 ) );
#459 = CARTESIAN_POINT( '', ( 0.000000000000000, 1.50000000000000, 0.000000000000000 ) );
#460 = DIRECTION( '', ( 0.000000000000000, -1.00000000000000, -0.000000000000000 ) );
#461 = DIRECTION( '', ( 0.000000000000000, 0.000000000000000, -1.00000000000000 ) );
#462 = CARTESIAN_POINT( '', ( 0.000000000000000, 0.400000000000000, 0.000000000000000 ) );
#463 = DIRECTION( '', ( 0.000000000000000, -1.00000000000000, -0.000000000000000 ) );
#464 = DIRECTION( '', ( 0.000000000000000, 0.000000000000000, -1.00000000000000 ) );
#465 = CARTESIAN_POINT( '', ( 8.50000000000000, 0.000000000000000, 14.7224318643355 ) );
#466 = DIRECTION( '', ( 0.000000000000000, 1.00000000000000, 0.000000000000000 ) );
#467 = DIRECTION( '', ( -0.500000000000000, 0.000000000000000, -0.866025403784439 ) );
ENDSEC;
END-ISO-10303-21;
