ISO-10303-21;
HEADER;
FILE_DESCRIPTION( ( 'STEP AP214' ), '1' );
FILE_NAME( '//goodhand-server/Shared Folders/GoodHand Data/Kipp CAD/K0757/K0757.110010X0250.stp', '2020-12-10T08:49:51', ( '' ), ( '' ), ' ', 'PARTsolutions', ' ' );
FILE_SCHEMA( ( 'AUTOMOTIVE_DESIGN { 1 0 10303 214 1 1 1 1 }' ) );
ENDSEC;
DATA;
#1 = MECHANICAL_DESIGN_GEOMETRIC_PRESENTATION_REPRESENTATION( ' ', ( #10, #11, #12, #13, #14, #15, #16, #17 ), #6 );
#2 = PRODUCT_DEFINITION_CONTEXT( '', #18, 'design' );
#3 = APPLICATION_PROTOCOL_DEFINITION( 'international standard', 'automotive_design', 2001, #18 );
#4 = PRODUCT_CATEGORY_RELATIONSHIP( 'NONE', 'NONE', #19, #20 );
#5 = SHAPE_DEFINITION_REPRESENTATION( #21, #22 );
#6 =  ( GEOMETRIC_REPRESENTATION_CONTEXT( 3 )GLOBAL_UNCERTAINTY_ASSIGNED_CONTEXT( ( #25 ) )GLOBAL_UNIT_ASSIGNED_CONTEXT( ( #27, #28, #29 ) )REPRESENTATION_CONTEXT( 'NONE', 'WORKSPACE' ) );
#10 = STYLED_ITEM( '', ( #31 ), #32 );
#11 = STYLED_ITEM( '', ( #33 ), #34 );
#12 = STYLED_ITEM( '', ( #35 ), #36 );
#13 = STYLED_ITEM( '', ( #37 ), #38 );
#14 = STYLED_ITEM( '', ( #39 ), #40 );
#15 = STYLED_ITEM( '', ( #41 ), #42 );
#16 = STYLED_ITEM( '', ( #43 ), #44 );
#17 = STYLED_ITEM( '', ( #45 ), #46 );
#18 = APPLICATION_CONTEXT( 'core data for automotive mechanical design processes' );
#19 = PRODUCT_CATEGORY( 'part', 'NONE' );
#20 = PRODUCT_RELATED_PRODUCT_CATEGORY( 'detail', ' ', ( #47 ) );
#21 = PRODUCT_DEFINITION_SHAPE( 'NONE', 'NONE', #48 );
#22 = ADVANCED_BREP_SHAPE_REPRESENTATION( '_K0757.110010X0250', ( #49, #50 ), #6 );
#25 = UNCERTAINTY_MEASURE_WITH_UNIT( LENGTH_MEASURE( 0.00100000000000000 ), #27, '', '' );
#27 =  ( CONVERSION_BASED_UNIT( 'MILLIMETRE', #53 )LENGTH_UNIT(  )NAMED_UNIT( #56 ) );
#28 =  ( NAMED_UNIT( #58 )PLANE_ANGLE_UNIT(  )SI_UNIT( $, .RADIAN. ) );
#29 =  ( NAMED_UNIT( #58 )SI_UNIT( $, .STERADIAN. )SOLID_ANGLE_UNIT(  ) );
#31 = PRESENTATION_STYLE_ASSIGNMENT( ( #64 ) );
#32 = ADVANCED_FACE( '', ( #65 ), #66, .F. );
#33 = PRESENTATION_STYLE_ASSIGNMENT( ( #67 ) );
#34 = ADVANCED_FACE( '', ( #68, #69 ), #70, .F. );
#35 = PRESENTATION_STYLE_ASSIGNMENT( ( #71 ) );
#36 = ADVANCED_FACE( '', ( #72, #73, #74 ), #75, .T. );
#37 = PRESENTATION_STYLE_ASSIGNMENT( ( #76 ) );
#38 = ADVANCED_FACE( '', ( #77, #78 ), #79, .F. );
#39 = PRESENTATION_STYLE_ASSIGNMENT( ( #80 ) );
#40 = ADVANCED_FACE( '', ( #81 ), #82, .F. );
#41 = PRESENTATION_STYLE_ASSIGNMENT( ( #83 ) );
#42 = ADVANCED_FACE( '', ( #84 ), #85, .F. );
#43 = PRESENTATION_STYLE_ASSIGNMENT( ( #86 ) );
#44 = ADVANCED_FACE( '', ( #87, #88, #89 ), #90, .F. );
#45 = PRESENTATION_STYLE_ASSIGNMENT( ( #91 ) );
#46 = ADVANCED_FACE( '', ( #92 ), #93, .F. );
#47 = PRODUCT( '_K0757.110010X0250', '_K0757.110010X0250', 'PART-_K0757.110010X0250-DESC', ( #94 ) );
#48 = PRODUCT_DEFINITION( 'NONE', 'NONE', #95, #2 );
#49 = MANIFOLD_SOLID_BREP( '_K0757.110010X0250', #96 );
#50 = AXIS2_PLACEMENT_3D( '', #97, #98, #99 );
#53 = LENGTH_MEASURE_WITH_UNIT( LENGTH_MEASURE( 1.00000000000000 ), #100 );
#56 = DIMENSIONAL_EXPONENTS( 1.00000000000000, 0.000000000000000, 0.000000000000000, 0.000000000000000, 0.000000000000000, 0.000000000000000, 0.000000000000000 );
#58 = DIMENSIONAL_EXPONENTS( 0.000000000000000, 0.000000000000000, 0.000000000000000, 0.000000000000000, 0.000000000000000, 0.000000000000000, 0.000000000000000 );
#64 = SURFACE_STYLE_USAGE( .BOTH., #101 );
#65 = FACE_OUTER_BOUND( '', #102, .T. );
#66 = PLANE( '', #103 );
#67 = SURFACE_STYLE_USAGE( .BOTH., #104 );
#68 = FACE_BOUND( '', #105, .T. );
#69 = FACE_OUTER_BOUND( '', #106, .T. );
#70 = CONICAL_SURFACE( '', #107, 4.05000000000000, 0.785398163400000 );
#71 = SURFACE_STYLE_USAGE( .BOTH., #108 );
#72 = FACE_BOUND( '', #109, .T. );
#73 = FACE_BOUND( '', #110, .T. );
#74 = FACE_OUTER_BOUND( '', #111, .T. );
#75 = PLANE( '', #112 );
#76 = SURFACE_STYLE_USAGE( .BOTH., #113 );
#77 = FACE_BOUND( '', #114, .T. );
#78 = FACE_OUTER_BOUND( '', #115, .T. );
#79 = CONICAL_SURFACE( '', #116, 4.05000000000000, 0.785398163400000 );
#80 = SURFACE_STYLE_USAGE( .BOTH., #117 );
#81 = FACE_OUTER_BOUND( '', #118, .T. );
#82 = PLANE( '', #119 );
#83 = SURFACE_STYLE_USAGE( .BOTH., #120 );
#84 = FACE_OUTER_BOUND( '', #121, .T. );
#85 = PLANE( '', #122 );
#86 = SURFACE_STYLE_USAGE( .BOTH., #123 );
#87 = FACE_BOUND( '', #124, .T. );
#88 = FACE_BOUND( '', #125, .T. );
#89 = FACE_OUTER_BOUND( '', #126, .T. );
#90 = PLANE( '', #127 );
#91 = SURFACE_STYLE_USAGE( .BOTH., #128 );
#92 = FACE_OUTER_BOUND( '', #129, .T. );
#93 = PLANE( '', #130 );
#94 = PRODUCT_CONTEXT( '', #18, 'mechanical' );
#95 = PRODUCT_DEFINITION_FORMATION_WITH_SPECIFIED_SOURCE( ' ', 'NONE', #47, .NOT_KNOWN. );
#96 = CLOSED_SHELL( '', ( #44, #38, #36, #42, #40, #32, #46, #34 ) );
#97 = CARTESIAN_POINT( '', ( 0.000000000000000, 0.000000000000000, 0.000000000000000 ) );
#98 = DIRECTION( '', ( 0.000000000000000, 0.000000000000000, 1.00000000000000 ) );
#99 = DIRECTION( '', ( 1.00000000000000, 0.000000000000000, 0.000000000000000 ) );
#100 =  ( LENGTH_UNIT(  )NAMED_UNIT( #56 )SI_UNIT( .MILLI., .METRE. ) );
#101 = SURFACE_SIDE_STYLE( '', ( #132 ) );
#102 = EDGE_LOOP( '', ( #133, #134, #135, #136 ) );
#103 = AXIS2_PLACEMENT_3D( '', #137, #138, #139 );
#104 = SURFACE_SIDE_STYLE( '', ( #140 ) );
#105 = EDGE_LOOP( '', ( #141 ) );
#106 = EDGE_LOOP( '', ( #142 ) );
#107 = AXIS2_PLACEMENT_3D( '', #143, #144, #145 );
#108 = SURFACE_SIDE_STYLE( '', ( #146 ) );
#109 = EDGE_LOOP( '', ( #147 ) );
#110 = EDGE_LOOP( '', ( #148 ) );
#111 = EDGE_LOOP( '', ( #149, #150, #151, #152 ) );
#112 = AXIS2_PLACEMENT_3D( '', #153, #154, #155 );
#113 = SURFACE_SIDE_STYLE( '', ( #156 ) );
#114 = EDGE_LOOP( '', ( #157 ) );
#115 = EDGE_LOOP( '', ( #158 ) );
#116 = AXIS2_PLACEMENT_3D( '', #159, #160, #161 );
#117 = SURFACE_SIDE_STYLE( '', ( #162 ) );
#118 = EDGE_LOOP( '', ( #163, #164, #165, #166 ) );
#119 = AXIS2_PLACEMENT_3D( '', #167, #168, #169 );
#120 = SURFACE_SIDE_STYLE( '', ( #170 ) );
#121 = EDGE_LOOP( '', ( #171, #172, #173, #174 ) );
#122 = AXIS2_PLACEMENT_3D( '', #175, #176, #177 );
#123 = SURFACE_SIDE_STYLE( '', ( #178 ) );
#124 = EDGE_LOOP( '', ( #179 ) );
#125 = EDGE_LOOP( '', ( #180 ) );
#126 = EDGE_LOOP( '', ( #181, #182, #183, #184 ) );
#127 = AXIS2_PLACEMENT_3D( '', #185, #186, #187 );
#128 = SURFACE_SIDE_STYLE( '', ( #188 ) );
#129 = EDGE_LOOP( '', ( #189, #190, #191, #192 ) );
#130 = AXIS2_PLACEMENT_3D( '', #193, #194, #195 );
#132 = SURFACE_STYLE_FILL_AREA( #196 );
#133 = ORIENTED_EDGE( '', *, *, #197, .T. );
#134 = ORIENTED_EDGE( '', *, *, #198, .F. );
#135 = ORIENTED_EDGE( '', *, *, #199, .F. );
#136 = ORIENTED_EDGE( '', *, *, #200, .T. );
#137 = CARTESIAN_POINT( '', ( -15.0000000000000, 0.000000000000000, 2.00000000000000 ) );
#138 = DIRECTION( '', ( 0.000000000000000, 1.00000000000000, 0.000000000000000 ) );
#139 = DIRECTION( '', ( 0.000000000000000, -0.000000000000000, 1.00000000000000 ) );
#140 = SURFACE_STYLE_FILL_AREA( #201 );
#141 = ORIENTED_EDGE( '', *, *, #202, .T. );
#142 = ORIENTED_EDGE( '', *, *, #203, .F. );
#143 = CARTESIAN_POINT( '', ( -7.49999999999998, 240.000000000000, 2.00000000000000 ) );
#144 = DIRECTION( '', ( 0.000000000000000, -0.000000000000000, 1.00000000000000 ) );
#145 = DIRECTION( '', ( 1.00000000000000, 0.000000000000000, -0.000000000000000 ) );
#146 = SURFACE_STYLE_FILL_AREA( #204 );
#147 = ORIENTED_EDGE( '', *, *, #203, .T. );
#148 = ORIENTED_EDGE( '', *, *, #205, .T. );
#149 = ORIENTED_EDGE( '', *, *, #206, .T. );
#150 = ORIENTED_EDGE( '', *, *, #199, .T. );
#151 = ORIENTED_EDGE( '', *, *, #207, .T. );
#152 = ORIENTED_EDGE( '', *, *, #208, .T. );
#153 = CARTESIAN_POINT( '', ( 0.000000000000000, 0.000000000000000, 2.00000000000000 ) );
#154 = DIRECTION( '', ( -0.000000000000000, 0.000000000000000, 1.00000000000000 ) );
#155 = DIRECTION( '', ( 1.00000000000000, 0.000000000000000, 0.000000000000000 ) );
#156 = SURFACE_STYLE_FILL_AREA( #209 );
#157 = ORIENTED_EDGE( '', *, *, #210, .T. );
#158 = ORIENTED_EDGE( '', *, *, #205, .F. );
#159 = CARTESIAN_POINT( '', ( -7.50000000000000, 10.0000000000000, 2.00000000000000 ) );
#160 = DIRECTION( '', ( 0.000000000000000, -0.000000000000000, 1.00000000000000 ) );
#161 = DIRECTION( '', ( 1.00000000000000, 0.000000000000000, -0.000000000000000 ) );
#162 = SURFACE_STYLE_FILL_AREA( #211 );
#163 = ORIENTED_EDGE( '', *, *, #212, .T. );
#164 = ORIENTED_EDGE( '', *, *, #200, .F. );
#165 = ORIENTED_EDGE( '', *, *, #206, .F. );
#166 = ORIENTED_EDGE( '', *, *, #213, .T. );
#167 = CARTESIAN_POINT( '', ( -15.0000000000000, 260.000000000000, 2.00000000000000 ) );
#168 = DIRECTION( '', ( 1.00000000000000, -6.00481203222741E-17, 0.000000000000000 ) );
#169 = DIRECTION( '', ( 6.00481203222741E-17, 1.00000000000000, 0.000000000000000 ) );
#170 = SURFACE_STYLE_FILL_AREA( #214 );
#171 = ORIENTED_EDGE( '', *, *, #215, .T. );
#172 = ORIENTED_EDGE( '', *, *, #213, .F. );
#173 = ORIENTED_EDGE( '', *, *, #208, .F. );
#174 = ORIENTED_EDGE( '', *, *, #216, .T. );
#175 = CARTESIAN_POINT( '', ( 1.59204083889156E-14, 260.000000000000, 2.00000000000000 ) );
#176 = DIRECTION( '', ( 0.000000000000000, -1.00000000000000, 0.000000000000000 ) );
#177 = DIRECTION( '', ( 0.000000000000000, 0.000000000000000, -1.00000000000000 ) );
#178 = SURFACE_STYLE_FILL_AREA( #217 );
#179 = ORIENTED_EDGE( '', *, *, #202, .F. );
#180 = ORIENTED_EDGE( '', *, *, #210, .F. );
#181 = ORIENTED_EDGE( '', *, *, #212, .F. );
#182 = ORIENTED_EDGE( '', *, *, #215, .F. );
#183 = ORIENTED_EDGE( '', *, *, #218, .F. );
#184 = ORIENTED_EDGE( '', *, *, #197, .F. );
#185 = CARTESIAN_POINT( '', ( -0.000000000000000, 0.000000000000000, 0.000000000000000 ) );
#186 = DIRECTION( '', ( -0.000000000000000, 0.000000000000000, 1.00000000000000 ) );
#187 = DIRECTION( '', ( 1.00000000000000, 0.000000000000000, 0.000000000000000 ) );
#188 = SURFACE_STYLE_FILL_AREA( #219 );
#189 = ORIENTED_EDGE( '', *, *, #218, .T. );
#190 = ORIENTED_EDGE( '', *, *, #216, .F. );
#191 = ORIENTED_EDGE( '', *, *, #207, .F. );
#192 = ORIENTED_EDGE( '', *, *, #198, .T. );
#193 = CARTESIAN_POINT( '', ( 0.000000000000000, 0.000000000000000, 2.00000000000000 ) );
#194 = DIRECTION( '', ( -1.00000000000000, 6.12323399573676E-17, 0.000000000000000 ) );
#195 = DIRECTION( '', ( -6.12323399573676E-17, -1.00000000000000, 0.000000000000000 ) );
#196 = FILL_AREA_STYLE( '', ( #220 ) );
#197 = EDGE_CURVE( '', #221, #222, #223, .T. );
#198 = EDGE_CURVE( '', #224, #222, #225, .T. );
#199 = EDGE_CURVE( '', #226, #224, #227, .T. );
#200 = EDGE_CURVE( '', #226, #221, #228, .T. );
#201 = FILL_AREA_STYLE( '', ( #229 ) );
#202 = EDGE_CURVE( '', #230, #230, #231, .T. );
#203 = EDGE_CURVE( '', #232, #232, #233, .T. );
#204 = FILL_AREA_STYLE( '', ( #234 ) );
#205 = EDGE_CURVE( '', #235, #235, #236, .T. );
#206 = EDGE_CURVE( '', #237, #226, #238, .T. );
#207 = EDGE_CURVE( '', #224, #239, #240, .T. );
#208 = EDGE_CURVE( '', #239, #237, #241, .T. );
#209 = FILL_AREA_STYLE( '', ( #242 ) );
#210 = EDGE_CURVE( '', #243, #243, #244, .T. );
#211 = FILL_AREA_STYLE( '', ( #245 ) );
#212 = EDGE_CURVE( '', #246, #221, #247, .T. );
#213 = EDGE_CURVE( '', #237, #246, #248, .T. );
#214 = FILL_AREA_STYLE( '', ( #249 ) );
#215 = EDGE_CURVE( '', #250, #246, #251, .T. );
#216 = EDGE_CURVE( '', #239, #250, #252, .T. );
#217 = FILL_AREA_STYLE( '', ( #253 ) );
#218 = EDGE_CURVE( '', #222, #250, #254, .T. );
#219 = FILL_AREA_STYLE( '', ( #255 ) );
#220 = FILL_AREA_STYLE_COLOUR( '', #256 );
#221 = VERTEX_POINT( '', #257 );
#222 = VERTEX_POINT( '', #258 );
#223 = LINE( '', #259, #260 );
#224 = VERTEX_POINT( '', #261 );
#225 = LINE( '', #262, #263 );
#226 = VERTEX_POINT( '', #264 );
#227 = LINE( '', #265, #266 );
#228 = LINE( '', #267, #268 );
#229 = FILL_AREA_STYLE_COLOUR( '', #269 );
#230 = VERTEX_POINT( '', #270 );
#231 = CIRCLE( '', #271, 2.05000000000000 );
#232 = VERTEX_POINT( '', #272 );
#233 = CIRCLE( '', #273, 4.05000000000000 );
#234 = FILL_AREA_STYLE_COLOUR( '', #274 );
#235 = VERTEX_POINT( '', #275 );
#236 = CIRCLE( '', #276, 4.05000000000000 );
#237 = VERTEX_POINT( '', #277 );
#238 = LINE( '', #278, #279 );
#239 = VERTEX_POINT( '', #280 );
#240 = LINE( '', #281, #282 );
#241 = LINE( '', #283, #284 );
#242 = FILL_AREA_STYLE_COLOUR( '', #285 );
#243 = VERTEX_POINT( '', #286 );
#244 = CIRCLE( '', #287, 2.05000000000000 );
#245 = FILL_AREA_STYLE_COLOUR( '', #288 );
#246 = VERTEX_POINT( '', #289 );
#247 = LINE( '', #290, #291 );
#248 = LINE( '', #292, #293 );
#249 = FILL_AREA_STYLE_COLOUR( '', #294 );
#250 = VERTEX_POINT( '', #295 );
#251 = LINE( '', #296, #297 );
#252 = LINE( '', #298, #299 );
#253 = FILL_AREA_STYLE_COLOUR( '', #300 );
#254 = LINE( '', #301, #302 );
#255 = FILL_AREA_STYLE_COLOUR( '', #303 );
#256 = COLOUR_RGB( '', 0.689999997600000, 0.689999997600000, 0.689999997600000 );
#257 = CARTESIAN_POINT( '', ( -15.0000000000000, 0.000000000000000, 0.000000000000000 ) );
#258 = CARTESIAN_POINT( '', ( 0.000000000000000, 0.000000000000000, 0.000000000000000 ) );
#259 = CARTESIAN_POINT( '', ( -15.0000000000000, 0.000000000000000, 0.000000000000000 ) );
#260 = VECTOR( '', #304, 1000.00000000000 );
#261 = CARTESIAN_POINT( '', ( 0.000000000000000, 0.000000000000000, 2.00000000000000 ) );
#262 = CARTESIAN_POINT( '', ( 0.000000000000000, 0.000000000000000, 2.00000000000000 ) );
#263 = VECTOR( '', #305, 1000.00000000000 );
#264 = CARTESIAN_POINT( '', ( -15.0000000000000, 0.000000000000000, 2.00000000000000 ) );
#265 = CARTESIAN_POINT( '', ( -15.0000000000000, 0.000000000000000, 2.00000000000000 ) );
#266 = VECTOR( '', #306, 1000.00000000000 );
#267 = CARTESIAN_POINT( '', ( -15.0000000000000, 0.000000000000000, 2.00000000000000 ) );
#268 = VECTOR( '', #307, 1000.00000000000 );
#269 = COLOUR_RGB( '', 0.689999997600000, 0.689999997600000, 0.689999997600000 );
#270 = CARTESIAN_POINT( '', ( -9.54999999999999, 240.000000000000, 0.000000000000000 ) );
#271 = AXIS2_PLACEMENT_3D( '', #308, #309, #310 );
#272 = CARTESIAN_POINT( '', ( -11.5500000000000, 240.000000000000, 2.00000000000000 ) );
#273 = AXIS2_PLACEMENT_3D( '', #311, #312, #313 );
#274 = COLOUR_RGB( '', 0.689999997600000, 0.689999997600000, 0.689999997600000 );
#275 = CARTESIAN_POINT( '', ( -11.5500000000000, 10.0000000000000, 2.00000000000000 ) );
#276 = AXIS2_PLACEMENT_3D( '', #314, #315, #316 );
#277 = CARTESIAN_POINT( '', ( -15.0000000000000, 260.000000000000, 2.00000000000000 ) );
#278 = CARTESIAN_POINT( '', ( -15.0000000000000, 260.000000000000, 2.00000000000000 ) );
#279 = VECTOR( '', #317, 1000.00000000000 );
#280 = CARTESIAN_POINT( '', ( 1.59204083889156E-14, 260.000000000000, 2.00000000000000 ) );
#281 = CARTESIAN_POINT( '', ( 0.000000000000000, 0.000000000000000, 2.00000000000000 ) );
#282 = VECTOR( '', #318, 1000.00000000000 );
#283 = CARTESIAN_POINT( '', ( 1.59204083889156E-14, 260.000000000000, 2.00000000000000 ) );
#284 = VECTOR( '', #319, 1000.00000000000 );
#285 = COLOUR_RGB( '', 0.689999997600000, 0.689999997600000, 0.689999997600000 );
#286 = CARTESIAN_POINT( '', ( -9.55000000000000, 10.0000000000000, 0.000000000000000 ) );
#287 = AXIS2_PLACEMENT_3D( '', #320, #321, #322 );
#288 = COLOUR_RGB( '', 0.689999997600000, 0.689999997600000, 0.689999997600000 );
#289 = CARTESIAN_POINT( '', ( -15.0000000000000, 260.000000000000, 0.000000000000000 ) );
#290 = CARTESIAN_POINT( '', ( -15.0000000000000, 260.000000000000, 0.000000000000000 ) );
#291 = VECTOR( '', #323, 1000.00000000000 );
#292 = CARTESIAN_POINT( '', ( -15.0000000000000, 260.000000000000, 2.00000000000000 ) );
#293 = VECTOR( '', #324, 1000.00000000000 );
#294 = COLOUR_RGB( '', 0.689999997600000, 0.689999997600000, 0.689999997600000 );
#295 = CARTESIAN_POINT( '', ( 1.59204083889156E-14, 260.000000000000, 0.000000000000000 ) );
#296 = CARTESIAN_POINT( '', ( 1.59204083889156E-14, 260.000000000000, 0.000000000000000 ) );
#297 = VECTOR( '', #325, 1000.00000000000 );
#298 = CARTESIAN_POINT( '', ( 1.59204083889156E-14, 260.000000000000, 2.00000000000000 ) );
#299 = VECTOR( '', #326, 1000.00000000000 );
#300 = COLOUR_RGB( '', 0.689999997600000, 0.689999997600000, 0.689999997600000 );
#301 = CARTESIAN_POINT( '', ( 0.000000000000000, 0.000000000000000, 0.000000000000000 ) );
#302 = VECTOR( '', #327, 1000.00000000000 );
#303 = COLOUR_RGB( '', 0.689999997600000, 0.689999997600000, 0.689999997600000 );
#304 = DIRECTION( '', ( 1.00000000000000, 0.000000000000000, 0.000000000000000 ) );
#305 = DIRECTION( '', ( -0.000000000000000, -0.000000000000000, -1.00000000000000 ) );
#306 = DIRECTION( '', ( 1.00000000000000, 0.000000000000000, 0.000000000000000 ) );
#307 = DIRECTION( '', ( -0.000000000000000, -0.000000000000000, -1.00000000000000 ) );
#308 = CARTESIAN_POINT( '', ( -7.49999999999998, 240.000000000000, 0.000000000000000 ) );
#309 = DIRECTION( '', ( -0.000000000000000, 0.000000000000000, -1.00000000000000 ) );
#310 = DIRECTION( '', ( -1.00000000000000, 0.000000000000000, 0.000000000000000 ) );
#311 = CARTESIAN_POINT( '', ( -7.49999999999998, 240.000000000000, 2.00000000000000 ) );
#312 = DIRECTION( '', ( -0.000000000000000, 0.000000000000000, -1.00000000000000 ) );
#313 = DIRECTION( '', ( -1.00000000000000, 0.000000000000000, 0.000000000000000 ) );
#314 = CARTESIAN_POINT( '', ( -7.50000000000000, 10.0000000000000, 2.00000000000000 ) );
#315 = DIRECTION( '', ( -0.000000000000000, 0.000000000000000, -1.00000000000000 ) );
#316 = DIRECTION( '', ( -1.00000000000000, 0.000000000000000, 0.000000000000000 ) );
#317 = DIRECTION( '', ( -6.00481203222741E-17, -1.00000000000000, 0.000000000000000 ) );
#318 = DIRECTION( '', ( 6.12323399573676E-17, 1.00000000000000, 0.000000000000000 ) );
#319 = DIRECTION( '', ( -1.00000000000000, 0.000000000000000, 0.000000000000000 ) );
#320 = CARTESIAN_POINT( '', ( -7.50000000000000, 10.0000000000000, 0.000000000000000 ) );
#321 = DIRECTION( '', ( -0.000000000000000, 0.000000000000000, -1.00000000000000 ) );
#322 = DIRECTION( '', ( -1.00000000000000, 0.000000000000000, 0.000000000000000 ) );
#323 = DIRECTION( '', ( -6.00481203222741E-17, -1.00000000000000, 0.000000000000000 ) );
#324 = DIRECTION( '', ( -0.000000000000000, -0.000000000000000, -1.00000000000000 ) );
#325 = DIRECTION( '', ( -1.00000000000000, 0.000000000000000, 0.000000000000000 ) );
#326 = DIRECTION( '', ( -0.000000000000000, -0.000000000000000, -1.00000000000000 ) );
#327 = DIRECTION( '', ( 6.12323399573676E-17, 1.00000000000000, 0.000000000000000 ) );
ENDSEC;
END-ISO-10303-21;
