ISO-10303-21;
HEADER;
FILE_DESCRIPTION( ( 'STEP AP214' ), '1' );
FILE_NAME( '//goodhand-server/Shared Folders/GoodHand Data/Kipp CAD/K0391/K0391.06X35.stp', '2020-12-07T10:16:37', ( '' ), ( '' ), ' ', 'PARTsolutions', ' ' );
FILE_SCHEMA( ( 'AUTOMOTIVE_DESIGN { 1 0 10303 214 1 1 1 1 }' ) );
ENDSEC;
DATA;
#1 = MECHANICAL_DESIGN_GEOMETRIC_PRESENTATION_REPRESENTATION( ' ', ( #10, #11, #12, #13, #14, #15, #16, #17, #18, #19, #20, #21, #22 ), #6 );
#2 = PRODUCT_DEFINITION_CONTEXT( '', #23, 'design' );
#3 = APPLICATION_PROTOCOL_DEFINITION( 'international standard', 'automotive_design', 2001, #23 );
#4 = PRODUCT_CATEGORY_RELATIONSHIP( 'NONE', 'NONE', #24, #25 );
#5 = SHAPE_DEFINITION_REPRESENTATION( #26, #27 );
#6 =  ( GEOMETRIC_REPRESENTATION_CONTEXT( 3 )GLOBAL_UNCERTAINTY_ASSIGNED_CONTEXT( ( #30 ) )GLOBAL_UNIT_ASSIGNED_CONTEXT( ( #32, #33, #34 ) )REPRESENTATION_CONTEXT( 'NONE', 'WORKSPACE' ) );
#10 = STYLED_ITEM( '', ( #36 ), #37 );
#11 = STYLED_ITEM( '', ( #38 ), #39 );
#12 = STYLED_ITEM( '', ( #40 ), #41 );
#13 = STYLED_ITEM( '', ( #42 ), #43 );
#14 = STYLED_ITEM( '', ( #44 ), #45 );
#15 = STYLED_ITEM( '', ( #46 ), #47 );
#16 = STYLED_ITEM( '', ( #48 ), #49 );
#17 = STYLED_ITEM( '', ( #50 ), #51 );
#18 = STYLED_ITEM( '', ( #52 ), #53 );
#19 = STYLED_ITEM( '', ( #54 ), #55 );
#20 = STYLED_ITEM( '', ( #56 ), #57 );
#21 = STYLED_ITEM( '', ( #58 ), #59 );
#22 = STYLED_ITEM( '', ( #60 ), #61 );
#23 = APPLICATION_CONTEXT( 'core data for automotive mechanical design processes' );
#24 = PRODUCT_CATEGORY( 'part', 'NONE' );
#25 = PRODUCT_RELATED_PRODUCT_CATEGORY( 'detail', ' ', ( #62 ) );
#26 = PRODUCT_DEFINITION_SHAPE( 'NONE', 'NONE', #63 );
#27 = ADVANCED_BREP_SHAPE_REPRESENTATION( '_K0391.06X35', ( #64, #65 ), #6 );
#30 = UNCERTAINTY_MEASURE_WITH_UNIT( LENGTH_MEASURE( 0.00100000000000000 ), #32, '', '' );
#32 =  ( CONVERSION_BASED_UNIT( 'MILLIMETRE', #68 )LENGTH_UNIT(  )NAMED_UNIT( #71 ) );
#33 =  ( NAMED_UNIT( #73 )PLANE_ANGLE_UNIT(  )SI_UNIT( $, .RADIAN. ) );
#34 =  ( NAMED_UNIT( #73 )SI_UNIT( $, .STERADIAN. )SOLID_ANGLE_UNIT(  ) );
#36 = PRESENTATION_STYLE_ASSIGNMENT( ( #79 ) );
#37 = ADVANCED_FACE( '', ( #80, #81 ), #82, .T. );
#38 = PRESENTATION_STYLE_ASSIGNMENT( ( #83 ) );
#39 = ADVANCED_FACE( '', ( #84, #85 ), #86, .T. );
#40 = PRESENTATION_STYLE_ASSIGNMENT( ( #87 ) );
#41 = ADVANCED_FACE( '', ( #88, #89 ), #90, .T. );
#42 = PRESENTATION_STYLE_ASSIGNMENT( ( #91 ) );
#43 = ADVANCED_FACE( '', ( #92, #93 ), #94, .F. );
#44 = PRESENTATION_STYLE_ASSIGNMENT( ( #95 ) );
#45 = ADVANCED_FACE( '', ( #96 ), #97, .T. );
#46 = PRESENTATION_STYLE_ASSIGNMENT( ( #98 ) );
#47 = ADVANCED_FACE( '', ( #99, #100 ), #101, .T. );
#48 = PRESENTATION_STYLE_ASSIGNMENT( ( #102 ) );
#49 = ADVANCED_FACE( '', ( #103, #104 ), #105, .T. );
#50 = PRESENTATION_STYLE_ASSIGNMENT( ( #106 ) );
#51 = ADVANCED_FACE( '', ( #107 ), #108, .F. );
#52 = PRESENTATION_STYLE_ASSIGNMENT( ( #109 ) );
#53 = ADVANCED_FACE( '', ( #110 ), #111, .T. );
#54 = PRESENTATION_STYLE_ASSIGNMENT( ( #112 ) );
#55 = ADVANCED_FACE( '', ( #113 ), #114, .T. );
#56 = PRESENTATION_STYLE_ASSIGNMENT( ( #115 ) );
#57 = ADVANCED_FACE( '', ( #116 ), #117, .T. );
#58 = PRESENTATION_STYLE_ASSIGNMENT( ( #118 ) );
#59 = ADVANCED_FACE( '', ( #119 ), #120, .T. );
#60 = PRESENTATION_STYLE_ASSIGNMENT( ( #121 ) );
#61 = ADVANCED_FACE( '', ( #122 ), #123, .T. );
#62 = PRODUCT( '_K0391.06X35', '_K0391.06X35', 'PART-_K0391.06X35-DESC', ( #124 ) );
#63 = PRODUCT_DEFINITION( 'NONE', 'NONE', #125, #2 );
#64 = MANIFOLD_SOLID_BREP( '_K0391.06X35', #126 );
#65 = AXIS2_PLACEMENT_3D( '', #127, #128, #129 );
#68 = LENGTH_MEASURE_WITH_UNIT( LENGTH_MEASURE( 1.00000000000000 ), #130 );
#71 = DIMENSIONAL_EXPONENTS( 1.00000000000000, 0.000000000000000, 0.000000000000000, 0.000000000000000, 0.000000000000000, 0.000000000000000, 0.000000000000000 );
#73 = DIMENSIONAL_EXPONENTS( 0.000000000000000, 0.000000000000000, 0.000000000000000, 0.000000000000000, 0.000000000000000, 0.000000000000000, 0.000000000000000 );
#79 = SURFACE_STYLE_USAGE( .BOTH., #131 );
#80 = FACE_BOUND( '', #132, .T. );
#81 = FACE_OUTER_BOUND( '', #133, .T. );
#82 = SPHERICAL_SURFACE( '', #134, 2.25000000000000 );
#83 = SURFACE_STYLE_USAGE( .BOTH., #135 );
#84 = FACE_BOUND( '', #136, .T. );
#85 = FACE_OUTER_BOUND( '', #137, .T. );
#86 = CONICAL_SURFACE( '', #138, 3.00000000000000, 0.805803494100000 );
#87 = SURFACE_STYLE_USAGE( .BOTH., #139 );
#88 = FACE_OUTER_BOUND( '', #140, .T. );
#89 = FACE_OUTER_BOUND( '', #141, .T. );
#90 = CYLINDRICAL_SURFACE( '', #142, 3.00000000000000 );
#91 = SURFACE_STYLE_USAGE( .BOTH., #143 );
#92 = FACE_OUTER_BOUND( '', #144, .T. );
#93 = FACE_BOUND( '', #145, .T. );
#94 = PLANE( '', #146 );
#95 = SURFACE_STYLE_USAGE( .BOTH., #147 );
#96 = FACE_OUTER_BOUND( '', #148, .T. );
#97 = PLANE( '', #149 );
#98 = SURFACE_STYLE_USAGE( .BOTH., #150 );
#99 = FACE_OUTER_BOUND( '', #151, .T. );
#100 = FACE_BOUND( '', #152, .T. );
#101 = CONICAL_SURFACE( '', #153, 2.38650000000000, 0.785398163400000 );
#102 = SURFACE_STYLE_USAGE( .BOTH., #154 );
#103 = FACE_OUTER_BOUND( '', #155, .T. );
#104 = FACE_OUTER_BOUND( '', #156, .T. );
#105 = CYLINDRICAL_SURFACE( '', #157, 1.75000000000000 );
#106 = SURFACE_STYLE_USAGE( .BOTH., #158 );
#107 = FACE_OUTER_BOUND( '', #159, .T. );
#108 = PLANE( '', #160 );
#109 = SURFACE_STYLE_USAGE( .BOTH., #161 );
#110 = FACE_OUTER_BOUND( '', #162, .T. );
#111 = PLANE( '', #163 );
#112 = SURFACE_STYLE_USAGE( .BOTH., #164 );
#113 = FACE_OUTER_BOUND( '', #165, .T. );
#114 = PLANE( '', #166 );
#115 = SURFACE_STYLE_USAGE( .BOTH., #167 );
#116 = FACE_OUTER_BOUND( '', #168, .T. );
#117 = PLANE( '', #169 );
#118 = SURFACE_STYLE_USAGE( .BOTH., #170 );
#119 = FACE_OUTER_BOUND( '', #171, .T. );
#120 = PLANE( '', #172 );
#121 = SURFACE_STYLE_USAGE( .BOTH., #173 );
#122 = FACE_OUTER_BOUND( '', #174, .T. );
#123 = PLANE( '', #175 );
#124 = PRODUCT_CONTEXT( '', #23, 'mechanical' );
#125 = PRODUCT_DEFINITION_FORMATION_WITH_SPECIFIED_SOURCE( ' ', 'NONE', #62, .NOT_KNOWN. );
#126 = CLOSED_SHELL( '', ( #47, #43, #55, #53, #45, #37, #49, #39, #41, #61, #59, #57, #51 ) );
#127 = CARTESIAN_POINT( '', ( 0.000000000000000, 0.000000000000000, 0.000000000000000 ) );
#128 = DIRECTION( '', ( 0.000000000000000, 0.000000000000000, 1.00000000000000 ) );
#129 = DIRECTION( '', ( 1.00000000000000, 0.000000000000000, 0.000000000000000 ) );
#130 =  ( LENGTH_UNIT(  )NAMED_UNIT( #71 )SI_UNIT( .MILLI., .METRE. ) );
#131 = SURFACE_SIDE_STYLE( '', ( #177 ) );
#132 = VERTEX_LOOP( '', #178 );
#133 = EDGE_LOOP( '', ( #179 ) );
#134 = AXIS2_PLACEMENT_3D( '', #180, #181, #182 );
#135 = SURFACE_SIDE_STYLE( '', ( #183 ) );
#136 = EDGE_LOOP( '', ( #184 ) );
#137 = EDGE_LOOP( '', ( #185 ) );
#138 = AXIS2_PLACEMENT_3D( '', #186, #187, #188 );
#139 = SURFACE_SIDE_STYLE( '', ( #189 ) );
#140 = EDGE_LOOP( '', ( #190 ) );
#141 = EDGE_LOOP( '', ( #191 ) );
#142 = AXIS2_PLACEMENT_3D( '', #192, #193, #194 );
#143 = SURFACE_SIDE_STYLE( '', ( #195 ) );
#144 = EDGE_LOOP( '', ( #196 ) );
#145 = EDGE_LOOP( '', ( #197, #198, #199, #200, #201, #202 ) );
#146 = AXIS2_PLACEMENT_3D( '', #203, #204, #205 );
#147 = SURFACE_SIDE_STYLE( '', ( #206 ) );
#148 = EDGE_LOOP( '', ( #207, #208, #209, #210 ) );
#149 = AXIS2_PLACEMENT_3D( '', #211, #212, #213 );
#150 = SURFACE_SIDE_STYLE( '', ( #214 ) );
#151 = EDGE_LOOP( '', ( #215 ) );
#152 = EDGE_LOOP( '', ( #216 ) );
#153 = AXIS2_PLACEMENT_3D( '', #217, #218, #219 );
#154 = SURFACE_SIDE_STYLE( '', ( #220 ) );
#155 = EDGE_LOOP( '', ( #221 ) );
#156 = EDGE_LOOP( '', ( #222 ) );
#157 = AXIS2_PLACEMENT_3D( '', #223, #224, #225 );
#158 = SURFACE_SIDE_STYLE( '', ( #226 ) );
#159 = EDGE_LOOP( '', ( #227, #228, #229, #230, #231, #232 ) );
#160 = AXIS2_PLACEMENT_3D( '', #233, #234, #235 );
#161 = SURFACE_SIDE_STYLE( '', ( #236 ) );
#162 = EDGE_LOOP( '', ( #237, #238, #239, #240 ) );
#163 = AXIS2_PLACEMENT_3D( '', #241, #242, #243 );
#164 = SURFACE_SIDE_STYLE( '', ( #244 ) );
#165 = EDGE_LOOP( '', ( #245, #246, #247, #248 ) );
#166 = AXIS2_PLACEMENT_3D( '', #249, #250, #251 );
#167 = SURFACE_SIDE_STYLE( '', ( #252 ) );
#168 = EDGE_LOOP( '', ( #253, #254, #255, #256 ) );
#169 = AXIS2_PLACEMENT_3D( '', #257, #258, #259 );
#170 = SURFACE_SIDE_STYLE( '', ( #260 ) );
#171 = EDGE_LOOP( '', ( #261, #262, #263, #264 ) );
#172 = AXIS2_PLACEMENT_3D( '', #265, #266, #267 );
#173 = SURFACE_SIDE_STYLE( '', ( #268 ) );
#174 = EDGE_LOOP( '', ( #269, #270, #271, #272 ) );
#175 = AXIS2_PLACEMENT_3D( '', #273, #274, #275 );
#177 = SURFACE_STYLE_FILL_AREA( #276 );
#178 = VERTEX_POINT( '', #277 );
#179 = ORIENTED_EDGE( '', *, *, #278, .T. );
#180 = CARTESIAN_POINT( '', ( 32.7500000000000, -4.33680868994202E-15, 0.000000000000000 ) );
#181 = DIRECTION( '', ( 1.00000000000000, 0.000000000000000, 0.000000000000000 ) );
#182 = DIRECTION( '', ( 0.000000000000000, 1.00000000000000, 0.000000000000000 ) );
#183 = SURFACE_STYLE_FILL_AREA( #279 );
#184 = ORIENTED_EDGE( '', *, *, #280, .F. );
#185 = ORIENTED_EDGE( '', *, *, #281, .T. );
#186 = CARTESIAN_POINT( '', ( 29.5000000000000, 0.000000000000000, 0.000000000000000 ) );
#187 = DIRECTION( '', ( -1.00000000000000, 0.000000000000000, -0.000000000000000 ) );
#188 = DIRECTION( '', ( 0.000000000000000, 0.000000000000000, 1.00000000000000 ) );
#189 = SURFACE_STYLE_FILL_AREA( #282 );
#190 = ORIENTED_EDGE( '', *, *, #281, .F. );
#191 = ORIENTED_EDGE( '', *, *, #283, .T. );
#192 = CARTESIAN_POINT( '', ( 35.0000000000000, 0.000000000000000, 0.000000000000000 ) );
#193 = DIRECTION( '', ( -1.00000000000000, -0.000000000000000, 0.000000000000000 ) );
#194 = DIRECTION( '', ( -0.000000000000000, 0.000000000000000, -1.00000000000000 ) );
#195 = SURFACE_STYLE_FILL_AREA( #284 );
#196 = ORIENTED_EDGE( '', *, *, #285, .F. );
#197 = ORIENTED_EDGE( '', *, *, #286, .T. );
#198 = ORIENTED_EDGE( '', *, *, #287, .T. );
#199 = ORIENTED_EDGE( '', *, *, #288, .T. );
#200 = ORIENTED_EDGE( '', *, *, #289, .T. );
#201 = ORIENTED_EDGE( '', *, *, #290, .T. );
#202 = ORIENTED_EDGE( '', *, *, #291, .T. );
#203 = CARTESIAN_POINT( '', ( 0.000000000000000, 0.000000000000000, 0.000000000000000 ) );
#204 = DIRECTION( '', ( 1.00000000000000, 0.000000000000000, -0.000000000000000 ) );
#205 = DIRECTION( '', ( -0.000000000000000, 0.000000000000000, -1.00000000000000 ) );
#206 = SURFACE_STYLE_FILL_AREA( #292 );
#207 = ORIENTED_EDGE( '', *, *, #286, .F. );
#208 = ORIENTED_EDGE( '', *, *, #293, .F. );
#209 = ORIENTED_EDGE( '', *, *, #294, .T. );
#210 = ORIENTED_EDGE( '', *, *, #295, .T. );
#211 = CARTESIAN_POINT( '', ( 3.00000000000000, 0.866025403784439, 1.50000000000000 ) );
#212 = DIRECTION( '', ( 0.000000000000000, 0.000000000000000, -1.00000000000000 ) );
#213 = DIRECTION( '', ( -1.00000000000000, 0.000000000000000, 0.000000000000000 ) );
#214 = SURFACE_STYLE_FILL_AREA( #296 );
#215 = ORIENTED_EDGE( '', *, *, #283, .F. );
#216 = ORIENTED_EDGE( '', *, *, #285, .T. );
#217 = CARTESIAN_POINT( '', ( 0.000000000000000, 0.000000000000000, 0.000000000000000 ) );
#218 = DIRECTION( '', ( 1.00000000000000, -0.000000000000000, -0.000000000000000 ) );
#219 = DIRECTION( '', ( -0.000000000000000, 0.000000000000000, -1.00000000000000 ) );
#220 = SURFACE_STYLE_FILL_AREA( #297 );
#221 = ORIENTED_EDGE( '', *, *, #278, .F. );
#222 = ORIENTED_EDGE( '', *, *, #280, .T. );
#223 = CARTESIAN_POINT( '', ( 35.0000000000000, 0.000000000000000, 0.000000000000000 ) );
#224 = DIRECTION( '', ( -1.00000000000000, -0.000000000000000, 0.000000000000000 ) );
#225 = DIRECTION( '', ( -0.000000000000000, 0.000000000000000, -1.00000000000000 ) );
#226 = SURFACE_STYLE_FILL_AREA( #298 );
#227 = ORIENTED_EDGE( '', *, *, #294, .F. );
#228 = ORIENTED_EDGE( '', *, *, #299, .F. );
#229 = ORIENTED_EDGE( '', *, *, #300, .F. );
#230 = ORIENTED_EDGE( '', *, *, #301, .F. );
#231 = ORIENTED_EDGE( '', *, *, #302, .F. );
#232 = ORIENTED_EDGE( '', *, *, #303, .F. );
#233 = CARTESIAN_POINT( '', ( 3.00000000000000, 0.000000000000000, 0.000000000000000 ) );
#234 = DIRECTION( '', ( 1.00000000000000, 0.000000000000000, 0.000000000000000 ) );
#235 = DIRECTION( '', ( 0.000000000000000, 0.000000000000000, -1.00000000000000 ) );
#236 = SURFACE_STYLE_FILL_AREA( #304 );
#237 = ORIENTED_EDGE( '', *, *, #288, .F. );
#238 = ORIENTED_EDGE( '', *, *, #305, .F. );
#239 = ORIENTED_EDGE( '', *, *, #302, .T. );
#240 = ORIENTED_EDGE( '', *, *, #306, .T. );
#241 = CARTESIAN_POINT( '', ( 3.00000000000000, -1.73205080756888, 0.000000000000000 ) );
#242 = DIRECTION( '', ( -0.000000000000000, 0.866025403784439, 0.500000000000000 ) );
#243 = DIRECTION( '', ( 0.000000000000000, -0.500000000000000, 0.866025403784439 ) );
#244 = SURFACE_STYLE_FILL_AREA( #307 );
#245 = ORIENTED_EDGE( '', *, *, #287, .F. );
#246 = ORIENTED_EDGE( '', *, *, #295, .F. );
#247 = ORIENTED_EDGE( '', *, *, #303, .T. );
#248 = ORIENTED_EDGE( '', *, *, #305, .T. );
#249 = CARTESIAN_POINT( '', ( 3.00000000000000, -0.866025403784439, 1.50000000000000 ) );
#250 = DIRECTION( '', ( 0.000000000000000, 0.866025403784439, -0.500000000000000 ) );
#251 = DIRECTION( '', ( 0.000000000000000, 0.500000000000000, 0.866025403784439 ) );
#252 = SURFACE_STYLE_FILL_AREA( #308 );
#253 = ORIENTED_EDGE( '', *, *, #291, .F. );
#254 = ORIENTED_EDGE( '', *, *, #309, .F. );
#255 = ORIENTED_EDGE( '', *, *, #299, .T. );
#256 = ORIENTED_EDGE( '', *, *, #293, .T. );
#257 = CARTESIAN_POINT( '', ( 3.00000000000000, 1.73205080756888, 0.000000000000000 ) );
#258 = DIRECTION( '', ( 0.000000000000000, -0.866025403784439, -0.500000000000000 ) );
#259 = DIRECTION( '', ( 0.000000000000000, 0.500000000000000, -0.866025403784439 ) );
#260 = SURFACE_STYLE_FILL_AREA( #310 );
#261 = ORIENTED_EDGE( '', *, *, #290, .F. );
#262 = ORIENTED_EDGE( '', *, *, #311, .F. );
#263 = ORIENTED_EDGE( '', *, *, #300, .T. );
#264 = ORIENTED_EDGE( '', *, *, #309, .T. );
#265 = CARTESIAN_POINT( '', ( 3.00000000000000, 0.866025403784439, -1.50000000000000 ) );
#266 = DIRECTION( '', ( 0.000000000000000, -0.866025403784439, 0.500000000000000 ) );
#267 = DIRECTION( '', ( 0.000000000000000, -0.500000000000000, -0.866025403784439 ) );
#268 = SURFACE_STYLE_FILL_AREA( #312 );
#269 = ORIENTED_EDGE( '', *, *, #289, .F. );
#270 = ORIENTED_EDGE( '', *, *, #306, .F. );
#271 = ORIENTED_EDGE( '', *, *, #301, .T. );
#272 = ORIENTED_EDGE( '', *, *, #311, .T. );
#273 = CARTESIAN_POINT( '', ( 3.00000000000000, -0.866025403784439, -1.50000000000000 ) );
#274 = DIRECTION( '', ( 0.000000000000000, 0.000000000000000, 1.00000000000000 ) );
#275 = DIRECTION( '', ( 1.00000000000000, 0.000000000000000, -0.000000000000000 ) );
#276 = FILL_AREA_STYLE( '', ( #313 ) );
#277 = CARTESIAN_POINT( '', ( 35.0000000000000, -4.19903592503794E-15, 0.000000000000000 ) );
#278 = EDGE_CURVE( '', #314, #314, #315, .T. );
#279 = FILL_AREA_STYLE( '', ( #316 ) );
#280 = EDGE_CURVE( '', #317, #317, #318, .T. );
#281 = EDGE_CURVE( '', #319, #319, #320, .T. );
#282 = FILL_AREA_STYLE( '', ( #321 ) );
#283 = EDGE_CURVE( '', #322, #322, #323, .T. );
#284 = FILL_AREA_STYLE( '', ( #324 ) );
#285 = EDGE_CURVE( '', #325, #325, #326, .T. );
#286 = EDGE_CURVE( '', #327, #328, #329, .T. );
#287 = EDGE_CURVE( '', #328, #330, #331, .T. );
#288 = EDGE_CURVE( '', #330, #332, #333, .T. );
#289 = EDGE_CURVE( '', #332, #334, #335, .T. );
#290 = EDGE_CURVE( '', #334, #336, #337, .T. );
#291 = EDGE_CURVE( '', #336, #327, #338, .T. );
#292 = FILL_AREA_STYLE( '', ( #339 ) );
#293 = EDGE_CURVE( '', #340, #327, #341, .T. );
#294 = EDGE_CURVE( '', #340, #342, #343, .T. );
#295 = EDGE_CURVE( '', #342, #328, #344, .T. );
#296 = FILL_AREA_STYLE( '', ( #345 ) );
#297 = FILL_AREA_STYLE( '', ( #346 ) );
#298 = FILL_AREA_STYLE( '', ( #347 ) );
#299 = EDGE_CURVE( '', #348, #340, #349, .T. );
#300 = EDGE_CURVE( '', #350, #348, #351, .T. );
#301 = EDGE_CURVE( '', #352, #350, #353, .T. );
#302 = EDGE_CURVE( '', #354, #352, #355, .T. );
#303 = EDGE_CURVE( '', #342, #354, #356, .T. );
#304 = FILL_AREA_STYLE( '', ( #357 ) );
#305 = EDGE_CURVE( '', #354, #330, #358, .T. );
#306 = EDGE_CURVE( '', #352, #332, #359, .T. );
#307 = FILL_AREA_STYLE( '', ( #360 ) );
#308 = FILL_AREA_STYLE( '', ( #361 ) );
#309 = EDGE_CURVE( '', #348, #336, #362, .T. );
#310 = FILL_AREA_STYLE( '', ( #363 ) );
#311 = EDGE_CURVE( '', #350, #334, #364, .T. );
#312 = FILL_AREA_STYLE( '', ( #365 ) );
#313 = FILL_AREA_STYLE_COLOUR( '', #366 );
#314 = VERTEX_POINT( '', #367 );
#315 = CIRCLE( '', #368, 1.75000000000000 );
#316 = FILL_AREA_STYLE_COLOUR( '', #369 );
#317 = VERTEX_POINT( '', #370 );
#318 = CIRCLE( '', #371, 1.75000000000000 );
#319 = VERTEX_POINT( '', #372 );
#320 = CIRCLE( '', #373, 3.00000000000000 );
#321 = FILL_AREA_STYLE_COLOUR( '', #374 );
#322 = VERTEX_POINT( '', #375 );
#323 = CIRCLE( '', #376, 3.00000000000000 );
#324 = FILL_AREA_STYLE_COLOUR( '', #377 );
#325 = VERTEX_POINT( '', #378 );
#326 = CIRCLE( '', #379, 2.38650000000000 );
#327 = VERTEX_POINT( '', #380 );
#328 = VERTEX_POINT( '', #381 );
#329 = LINE( '', #382, #383 );
#330 = VERTEX_POINT( '', #384 );
#331 = LINE( '', #385, #386 );
#332 = VERTEX_POINT( '', #387 );
#333 = LINE( '', #388, #389 );
#334 = VERTEX_POINT( '', #390 );
#335 = LINE( '', #391, #392 );
#336 = VERTEX_POINT( '', #393 );
#337 = LINE( '', #394, #395 );
#338 = LINE( '', #396, #397 );
#339 = FILL_AREA_STYLE_COLOUR( '', #398 );
#340 = VERTEX_POINT( '', #399 );
#341 = LINE( '', #400, #401 );
#342 = VERTEX_POINT( '', #402 );
#343 = LINE( '', #403, #404 );
#344 = LINE( '', #405, #406 );
#345 = FILL_AREA_STYLE_COLOUR( '', #407 );
#346 = FILL_AREA_STYLE_COLOUR( '', #408 );
#347 = FILL_AREA_STYLE_COLOUR( '', #409 );
#348 = VERTEX_POINT( '', #410 );
#349 = LINE( '', #411, #412 );
#350 = VERTEX_POINT( '', #413 );
#351 = LINE( '', #414, #415 );
#352 = VERTEX_POINT( '', #416 );
#353 = LINE( '', #417, #418 );
#354 = VERTEX_POINT( '', #419 );
#355 = LINE( '', #420, #421 );
#356 = LINE( '', #422, #423 );
#357 = FILL_AREA_STYLE_COLOUR( '', #424 );
#358 = LINE( '', #425, #426 );
#359 = LINE( '', #427, #428 );
#360 = FILL_AREA_STYLE_COLOUR( '', #429 );
#361 = FILL_AREA_STYLE_COLOUR( '', #430 );
#362 = LINE( '', #431, #432 );
#363 = FILL_AREA_STYLE_COLOUR( '', #433 );
#364 = LINE( '', #434, #435 );
#365 = FILL_AREA_STYLE_COLOUR( '', #436 );
#366 = COLOUR_RGB( '', 0.689999997600000, 0.689999997600000, 0.689999997600000 );
#367 = CARTESIAN_POINT( '', ( 31.3357864376269, 0.000000000000000, -1.75000000000000 ) );
#368 = AXIS2_PLACEMENT_3D( '', #437, #438, #439 );
#369 = COLOUR_RGB( '', 0.689999997600000, 0.689999997600000, 0.689999997600000 );
#370 = CARTESIAN_POINT( '', ( 30.7000000000000, 0.000000000000000, -1.75000000000000 ) );
#371 = AXIS2_PLACEMENT_3D( '', #440, #441, #442 );
#372 = CARTESIAN_POINT( '', ( 29.5000000000000, 0.000000000000000, -3.00000000000000 ) );
#373 = AXIS2_PLACEMENT_3D( '', #443, #444, #445 );
#374 = COLOUR_RGB( '', 0.689999997600000, 0.689999997600000, 0.689999997600000 );
#375 = CARTESIAN_POINT( '', ( 0.613500000000003, 0.000000000000000, -3.00000000000000 ) );
#376 = AXIS2_PLACEMENT_3D( '', #446, #447, #448 );
#377 = COLOUR_RGB( '', 0.689999997600000, 0.689999997600000, 0.689999997600000 );
#378 = CARTESIAN_POINT( '', ( 0.000000000000000, 0.000000000000000, -2.38650000000000 ) );
#379 = AXIS2_PLACEMENT_3D( '', #449, #450, #451 );
#380 = CARTESIAN_POINT( '', ( 0.000000000000000, 0.866025403784439, 1.50000000000000 ) );
#381 = CARTESIAN_POINT( '', ( 0.000000000000000, -0.866025403784439, 1.50000000000000 ) );
#382 = CARTESIAN_POINT( '', ( 0.000000000000000, 0.866025403784439, 1.50000000000000 ) );
#383 = VECTOR( '', #452, 1000.00000000000 );
#384 = CARTESIAN_POINT( '', ( 0.000000000000000, -1.73205080756888, 0.000000000000000 ) );
#385 = CARTESIAN_POINT( '', ( 0.000000000000000, -0.866025403784439, 1.50000000000000 ) );
#386 = VECTOR( '', #453, 1000.00000000000 );
#387 = CARTESIAN_POINT( '', ( 0.000000000000000, -0.866025403784439, -1.50000000000000 ) );
#388 = CARTESIAN_POINT( '', ( 0.000000000000000, -1.73205080756888, 0.000000000000000 ) );
#389 = VECTOR( '', #454, 1000.00000000000 );
#390 = CARTESIAN_POINT( '', ( 0.000000000000000, 0.866025403784438, -1.50000000000000 ) );
#391 = CARTESIAN_POINT( '', ( 0.000000000000000, -0.866025403784439, -1.50000000000000 ) );
#392 = VECTOR( '', #455, 1000.00000000000 );
#393 = CARTESIAN_POINT( '', ( 0.000000000000000, 1.73205080756888, 0.000000000000000 ) );
#394 = CARTESIAN_POINT( '', ( 0.000000000000000, 0.866025403784439, -1.50000000000000 ) );
#395 = VECTOR( '', #456, 1000.00000000000 );
#396 = CARTESIAN_POINT( '', ( 0.000000000000000, 1.73205080756888, 0.000000000000000 ) );
#397 = VECTOR( '', #457, 1000.00000000000 );
#398 = COLOUR_RGB( '', 0.689999997600000, 0.689999997600000, 0.689999997600000 );
#399 = CARTESIAN_POINT( '', ( 3.00000000000000, 0.866025403784439, 1.50000000000000 ) );
#400 = CARTESIAN_POINT( '', ( 3.00000000000000, 0.866025403784439, 1.50000000000000 ) );
#401 = VECTOR( '', #458, 1000.00000000000 );
#402 = CARTESIAN_POINT( '', ( 3.00000000000000, -0.866025403784439, 1.50000000000000 ) );
#403 = CARTESIAN_POINT( '', ( 3.00000000000000, 0.866025403784439, 1.50000000000000 ) );
#404 = VECTOR( '', #459, 1000.00000000000 );
#405 = CARTESIAN_POINT( '', ( 3.00000000000000, -0.866025403784439, 1.50000000000000 ) );
#406 = VECTOR( '', #460, 1000.00000000000 );
#407 = COLOUR_RGB( '', 0.689999997600000, 0.689999997600000, 0.689999997600000 );
#408 = COLOUR_RGB( '', 0.689999997600000, 0.689999997600000, 0.689999997600000 );
#409 = COLOUR_RGB( '', 0.689999997600000, 0.689999997600000, 0.689999997600000 );
#410 = CARTESIAN_POINT( '', ( 3.00000000000000, 1.73205080756888, 0.000000000000000 ) );
#411 = CARTESIAN_POINT( '', ( 3.00000000000000, 1.73205080756888, 0.000000000000000 ) );
#412 = VECTOR( '', #461, 1000.00000000000 );
#413 = CARTESIAN_POINT( '', ( 3.00000000000000, 0.866025403784438, -1.50000000000000 ) );
#414 = CARTESIAN_POINT( '', ( 3.00000000000000, 0.866025403784439, -1.50000000000000 ) );
#415 = VECTOR( '', #462, 1000.00000000000 );
#416 = CARTESIAN_POINT( '', ( 3.00000000000000, -0.866025403784439, -1.50000000000000 ) );
#417 = CARTESIAN_POINT( '', ( 3.00000000000000, -0.866025403784439, -1.50000000000000 ) );
#418 = VECTOR( '', #463, 1000.00000000000 );
#419 = CARTESIAN_POINT( '', ( 3.00000000000000, -1.73205080756888, 0.000000000000000 ) );
#420 = CARTESIAN_POINT( '', ( 3.00000000000000, -1.73205080756888, 0.000000000000000 ) );
#421 = VECTOR( '', #464, 1000.00000000000 );
#422 = CARTESIAN_POINT( '', ( 3.00000000000000, -0.866025403784439, 1.50000000000000 ) );
#423 = VECTOR( '', #465, 1000.00000000000 );
#424 = COLOUR_RGB( '', 0.689999997600000, 0.689999997600000, 0.689999997600000 );
#425 = CARTESIAN_POINT( '', ( 3.00000000000000, -1.73205080756888, 0.000000000000000 ) );
#426 = VECTOR( '', #466, 1000.00000000000 );
#427 = CARTESIAN_POINT( '', ( 3.00000000000000, -0.866025403784439, -1.50000000000000 ) );
#428 = VECTOR( '', #467, 1000.00000000000 );
#429 = COLOUR_RGB( '', 0.689999997600000, 0.689999997600000, 0.689999997600000 );
#430 = COLOUR_RGB( '', 0.689999997600000, 0.689999997600000, 0.689999997600000 );
#431 = CARTESIAN_POINT( '', ( 3.00000000000000, 1.73205080756888, 0.000000000000000 ) );
#432 = VECTOR( '', #468, 1000.00000000000 );
#433 = COLOUR_RGB( '', 0.689999997600000, 0.689999997600000, 0.689999997600000 );
#434 = CARTESIAN_POINT( '', ( 3.00000000000000, 0.866025403784438, -1.50000000000000 ) );
#435 = VECTOR( '', #469, 1000.00000000000 );
#436 = COLOUR_RGB( '', 0.689999997600000, 0.689999997600000, 0.689999997600000 );
#437 = CARTESIAN_POINT( '', ( 31.3357864376269, 0.000000000000000, 0.000000000000000 ) );
#438 = DIRECTION( '', ( 1.00000000000000, 0.000000000000000, -0.000000000000000 ) );
#439 = DIRECTION( '', ( -0.000000000000000, 0.000000000000000, -1.00000000000000 ) );
#440 = CARTESIAN_POINT( '', ( 30.7000000000000, 0.000000000000000, 0.000000000000000 ) );
#441 = DIRECTION( '', ( 1.00000000000000, 0.000000000000000, -0.000000000000000 ) );
#442 = DIRECTION( '', ( -0.000000000000000, 0.000000000000000, -1.00000000000000 ) );
#443 = CARTESIAN_POINT( '', ( 29.5000000000000, 0.000000000000000, 0.000000000000000 ) );
#444 = DIRECTION( '', ( 1.00000000000000, 0.000000000000000, -0.000000000000000 ) );
#445 = DIRECTION( '', ( -0.000000000000000, 0.000000000000000, -1.00000000000000 ) );
#446 = CARTESIAN_POINT( '', ( 0.613500000000003, 0.000000000000000, 0.000000000000000 ) );
#447 = DIRECTION( '', ( 1.00000000000000, 0.000000000000000, -0.000000000000000 ) );
#448 = DIRECTION( '', ( -0.000000000000000, 0.000000000000000, -1.00000000000000 ) );
#449 = CARTESIAN_POINT( '', ( 0.000000000000000, 0.000000000000000, 0.000000000000000 ) );
#450 = DIRECTION( '', ( 1.00000000000000, 0.000000000000000, -0.000000000000000 ) );
#451 = DIRECTION( '', ( -0.000000000000000, 0.000000000000000, -1.00000000000000 ) );
#452 = DIRECTION( '', ( 0.000000000000000, -1.00000000000000, 0.000000000000000 ) );
#453 = DIRECTION( '', ( 0.000000000000000, -0.500000000000000, -0.866025403784439 ) );
#454 = DIRECTION( '', ( 0.000000000000000, 0.500000000000000, -0.866025403784439 ) );
#455 = DIRECTION( '', ( 0.000000000000000, 1.00000000000000, 0.000000000000000 ) );
#456 = DIRECTION( '', ( 0.000000000000000, 0.500000000000000, 0.866025403784439 ) );
#457 = DIRECTION( '', ( 0.000000000000000, -0.500000000000000, 0.866025403784439 ) );
#458 = DIRECTION( '', ( -1.00000000000000, -0.000000000000000, -0.000000000000000 ) );
#459 = DIRECTION( '', ( 0.000000000000000, -1.00000000000000, 0.000000000000000 ) );
#460 = DIRECTION( '', ( -1.00000000000000, -0.000000000000000, -0.000000000000000 ) );
#461 = DIRECTION( '', ( 0.000000000000000, -0.500000000000000, 0.866025403784439 ) );
#462 = DIRECTION( '', ( 0.000000000000000, 0.500000000000000, 0.866025403784439 ) );
#463 = DIRECTION( '', ( 0.000000000000000, 1.00000000000000, 0.000000000000000 ) );
#464 = DIRECTION( '', ( 0.000000000000000, 0.500000000000000, -0.866025403784439 ) );
#465 = DIRECTION( '', ( 0.000000000000000, -0.500000000000000, -0.866025403784439 ) );
#466 = DIRECTION( '', ( -1.00000000000000, -0.000000000000000, -0.000000000000000 ) );
#467 = DIRECTION( '', ( -1.00000000000000, -0.000000000000000, -0.000000000000000 ) );
#468 = DIRECTION( '', ( -1.00000000000000, -0.000000000000000, -0.000000000000000 ) );
#469 = DIRECTION( '', ( -1.00000000000000, -0.000000000000000, -0.000000000000000 ) );
ENDSEC;
END-ISO-10303-21;
