ISO-10303-21;
HEADER;
FILE_DESCRIPTION( ( 'STEP AP214' ), '1' );
FILE_NAME( '//goodhand-server/Shared Folders/GoodHand Data/Kipp CAD/K0163/K0163.1250X26.stp', '2020-11-26T10:29:57', ( '' ), ( '' ), ' ', 'PARTsolutions', ' ' );
FILE_SCHEMA( ( 'AUTOMOTIVE_DESIGN { 1 0 10303 214 1 1 1 1 }' ) );
ENDSEC;
DATA;
#1 = MECHANICAL_DESIGN_GEOMETRIC_PRESENTATION_REPRESENTATION( ' ', ( #10, #11, #12, #13, #14, #15, #16, #17, #18, #19, #20, #21, #22, #23, #24 ), #6 );
#2 = PRODUCT_DEFINITION_CONTEXT( '', #25, 'design' );
#3 = APPLICATION_PROTOCOL_DEFINITION( 'international standard', 'automotive_design', 2001, #25 );
#4 = PRODUCT_CATEGORY_RELATIONSHIP( 'NONE', 'NONE', #26, #27 );
#5 = SHAPE_DEFINITION_REPRESENTATION( #28, #29 );
#6 =  ( GEOMETRIC_REPRESENTATION_CONTEXT( 3 )GLOBAL_UNCERTAINTY_ASSIGNED_CONTEXT( ( #32 ) )GLOBAL_UNIT_ASSIGNED_CONTEXT( ( #34, #35, #36 ) )REPRESENTATION_CONTEXT( 'NONE', 'WORKSPACE' ) );
#10 = STYLED_ITEM( '', ( #38 ), #39 );
#11 = STYLED_ITEM( '', ( #40 ), #41 );
#12 = STYLED_ITEM( '', ( #42 ), #43 );
#13 = STYLED_ITEM( '', ( #44 ), #45 );
#14 = STYLED_ITEM( '', ( #46 ), #47 );
#15 = STYLED_ITEM( '', ( #48 ), #49 );
#16 = STYLED_ITEM( '', ( #50 ), #51 );
#17 = STYLED_ITEM( '', ( #52 ), #53 );
#18 = STYLED_ITEM( '', ( #54 ), #55 );
#19 = STYLED_ITEM( '', ( #56 ), #57 );
#20 = STYLED_ITEM( '', ( #58 ), #59 );
#21 = STYLED_ITEM( '', ( #60 ), #61 );
#22 = STYLED_ITEM( '', ( #62 ), #63 );
#23 = STYLED_ITEM( '', ( #64 ), #65 );
#24 = STYLED_ITEM( '', ( #66 ), #67 );
#25 = APPLICATION_CONTEXT( 'core data for automotive mechanical design processes' );
#26 = PRODUCT_CATEGORY( 'part', 'NONE' );
#27 = PRODUCT_RELATED_PRODUCT_CATEGORY( 'detail', ' ', ( #68 ) );
#28 = PRODUCT_DEFINITION_SHAPE( 'NONE', 'NONE', #69 );
#29 = ADVANCED_BREP_SHAPE_REPRESENTATION( '_K0163.1250X26', ( #70, #71 ), #6 );
#32 = UNCERTAINTY_MEASURE_WITH_UNIT( LENGTH_MEASURE( 0.00100000000000000 ), #34, '', '' );
#34 =  ( CONVERSION_BASED_UNIT( 'MILLIMETRE', #74 )LENGTH_UNIT(  )NAMED_UNIT( #77 ) );
#35 =  ( NAMED_UNIT( #79 )PLANE_ANGLE_UNIT(  )SI_UNIT( $, .RADIAN. ) );
#36 =  ( NAMED_UNIT( #79 )SI_UNIT( $, .STERADIAN. )SOLID_ANGLE_UNIT(  ) );
#38 = PRESENTATION_STYLE_ASSIGNMENT( ( #85 ) );
#39 = ADVANCED_FACE( '', ( #86, #87 ), #88, .F. );
#40 = PRESENTATION_STYLE_ASSIGNMENT( ( #89 ) );
#41 = ADVANCED_FACE( '', ( #90 ), #91, .T. );
#42 = PRESENTATION_STYLE_ASSIGNMENT( ( #92 ) );
#43 = ADVANCED_FACE( '', ( #93 ), #94, .T. );
#44 = PRESENTATION_STYLE_ASSIGNMENT( ( #95 ) );
#45 = ADVANCED_FACE( '', ( #96, #97 ), #98, .T. );
#46 = PRESENTATION_STYLE_ASSIGNMENT( ( #99 ) );
#47 = ADVANCED_FACE( '', ( #100, #101 ), #102, .F. );
#48 = PRESENTATION_STYLE_ASSIGNMENT( ( #103 ) );
#49 = ADVANCED_FACE( '', ( #104, #105 ), #106, .F. );
#50 = PRESENTATION_STYLE_ASSIGNMENT( ( #107 ) );
#51 = ADVANCED_FACE( '', ( #108 ), #109, .F. );
#52 = PRESENTATION_STYLE_ASSIGNMENT( ( #110 ) );
#53 = ADVANCED_FACE( '', ( #111, #112 ), #113, .F. );
#54 = PRESENTATION_STYLE_ASSIGNMENT( ( #114 ) );
#55 = ADVANCED_FACE( '', ( #115, #116 ), #117, .F. );
#56 = PRESENTATION_STYLE_ASSIGNMENT( ( #118 ) );
#57 = ADVANCED_FACE( '', ( #119, #120 ), #121, .F. );
#58 = PRESENTATION_STYLE_ASSIGNMENT( ( #122 ) );
#59 = ADVANCED_FACE( '', ( #123, #124, #125 ), #126, .T. );
#60 = PRESENTATION_STYLE_ASSIGNMENT( ( #127 ) );
#61 = ADVANCED_FACE( '', ( #128, #129 ), #130, .T. );
#62 = PRESENTATION_STYLE_ASSIGNMENT( ( #131 ) );
#63 = ADVANCED_FACE( '', ( #132, #133 ), #134, .T. );
#64 = PRESENTATION_STYLE_ASSIGNMENT( ( #135 ) );
#65 = ADVANCED_FACE( '', ( #136 ), #137, .T. );
#66 = PRESENTATION_STYLE_ASSIGNMENT( ( #138 ) );
#67 = ADVANCED_FACE( '', ( #139, #140 ), #141, .T. );
#68 = PRODUCT( '_K0163.1250X26', '_K0163.1250X26', 'PART-_K0163.1250X26-DESC', ( #142 ) );
#69 = PRODUCT_DEFINITION( 'NONE', 'NONE', #143, #2 );
#70 = MANIFOLD_SOLID_BREP( '_K0163.1250X26', #144 );
#71 = AXIS2_PLACEMENT_3D( '', #145, #146, #147 );
#74 = LENGTH_MEASURE_WITH_UNIT( LENGTH_MEASURE( 1.00000000000000 ), #148 );
#77 = DIMENSIONAL_EXPONENTS( 1.00000000000000, 0.000000000000000, 0.000000000000000, 0.000000000000000, 0.000000000000000, 0.000000000000000, 0.000000000000000 );
#79 = DIMENSIONAL_EXPONENTS( 0.000000000000000, 0.000000000000000, 0.000000000000000, 0.000000000000000, 0.000000000000000, 0.000000000000000, 0.000000000000000 );
#85 = SURFACE_STYLE_USAGE( .BOTH., #149 );
#86 = FACE_BOUND( '', #150, .T. );
#87 = FACE_OUTER_BOUND( '', #151, .T. );
#88 = CONICAL_SURFACE( '', #152, 107.000000000000, 0.817645045800000 );
#89 = SURFACE_STYLE_USAGE( .BOTH., #153 );
#90 = FACE_OUTER_BOUND( '', #154, .T. );
#91 = PLANE( '', #155 );
#92 = SURFACE_STYLE_USAGE( .BOTH., #156 );
#93 = FACE_OUTER_BOUND( '', #157, .T. );
#94 = PLANE( '', #158 );
#95 = SURFACE_STYLE_USAGE( .BOTH., #159 );
#96 = FACE_OUTER_BOUND( '', #160, .T. );
#97 = FACE_OUTER_BOUND( '', #161, .T. );
#98 = CYLINDRICAL_SURFACE( '', #162, 24.5000000000000 );
#99 = SURFACE_STYLE_USAGE( .BOTH., #163 );
#100 = FACE_BOUND( '', #164, .T. );
#101 = FACE_OUTER_BOUND( '', #165, .T. );
#102 = CONICAL_SURFACE( '', #166, 110.000000000000, 0.793433081600000 );
#103 = SURFACE_STYLE_USAGE( .BOTH., #167 );
#104 = FACE_OUTER_BOUND( '', #168, .T. );
#105 = FACE_BOUND( '', #169, .T. );
#106 = CONICAL_SURFACE( '', #170, 24.5000000000000, 1.24101381660000 );
#107 = SURFACE_STYLE_USAGE( .BOTH., #171 );
#108 = FACE_OUTER_BOUND( '', #172, .T. );
#109 = CYLINDRICAL_SURFACE( '', #173, 13.0000000000000 );
#110 = SURFACE_STYLE_USAGE( .BOTH., #174 );
#111 = FACE_OUTER_BOUND( '', #175, .T. );
#112 = FACE_BOUND( '', #176, .T. );
#113 = CONICAL_SURFACE( '', #177, 109.000000000000, 0.465690736400000 );
#114 = SURFACE_STYLE_USAGE( .BOTH., #178 );
#115 = FACE_BOUND( '', #179, .T. );
#116 = FACE_OUTER_BOUND( '', #180, .T. );
#117 = PLANE( '', #181 );
#118 = SURFACE_STYLE_USAGE( .BOTH., #182 );
#119 = FACE_OUTER_BOUND( '', #183, .T. );
#120 = FACE_BOUND( '', #184, .T. );
#121 = PLANE( '', #185 );
#122 = SURFACE_STYLE_USAGE( .BOTH., #186 );
#123 = FACE_BOUND( '', #187, .T. );
#124 = FACE_OUTER_BOUND( '', #188, .T. );
#125 = FACE_OUTER_BOUND( '', #189, .T. );
#126 = TOROIDAL_SURFACE( '', #190, 111.150000000000, 13.8500000000000 );
#127 = SURFACE_STYLE_USAGE( .BOTH., #191 );
#128 = FACE_OUTER_BOUND( '', #192, .T. );
#129 = FACE_OUTER_BOUND( '', #193, .T. );
#130 = TOROIDAL_SURFACE( '', #194, 114.922162064400, 20.0000000000000 );
#131 = SURFACE_STYLE_USAGE( .BOTH., #195 );
#132 = FACE_BOUND( '', #196, .T. );
#133 = FACE_OUTER_BOUND( '', #197, .T. );
#134 = CONICAL_SURFACE( '', #198, 99.0000000000000, 1.25550250270000 );
#135 = SURFACE_STYLE_USAGE( .BOTH., #199 );
#136 = FACE_OUTER_BOUND( '', #200, .T. );
#137 = PLANE( '', #201 );
#138 = SURFACE_STYLE_USAGE( .BOTH., #202 );
#139 = FACE_OUTER_BOUND( '', #203, .T. );
#140 = FACE_OUTER_BOUND( '', #204, .T. );
#141 = CYLINDRICAL_SURFACE( '', #205, 24.5000000000000 );
#142 = PRODUCT_CONTEXT( '', #25, 'mechanical' );
#143 = PRODUCT_DEFINITION_FORMATION_WITH_SPECIFIED_SOURCE( ' ', 'NONE', #68, .NOT_KNOWN. );
#144 = CLOSED_SHELL( '', ( #57, #65, #41, #51, #43, #55, #45, #63, #39, #47, #59, #53, #61, #49, #67 ) );
#145 = CARTESIAN_POINT( '', ( 0.000000000000000, 0.000000000000000, 0.000000000000000 ) );
#146 = DIRECTION( '', ( 0.000000000000000, 0.000000000000000, 1.00000000000000 ) );
#147 = DIRECTION( '', ( 1.00000000000000, 0.000000000000000, 0.000000000000000 ) );
#148 =  ( LENGTH_UNIT(  )NAMED_UNIT( #77 )SI_UNIT( .MILLI., .METRE. ) );
#149 = SURFACE_SIDE_STYLE( '', ( #207 ) );
#150 = EDGE_LOOP( '', ( #208 ) );
#151 = EDGE_LOOP( '', ( #209 ) );
#152 = AXIS2_PLACEMENT_3D( '', #210, #211, #212 );
#153 = SURFACE_SIDE_STYLE( '', ( #213 ) );
#154 = EDGE_LOOP( '', ( #214, #215, #216, #217 ) );
#155 = AXIS2_PLACEMENT_3D( '', #218, #219, #220 );
#156 = SURFACE_SIDE_STYLE( '', ( #221 ) );
#157 = EDGE_LOOP( '', ( #222, #223, #224, #225 ) );
#158 = AXIS2_PLACEMENT_3D( '', #226, #227, #228 );
#159 = SURFACE_SIDE_STYLE( '', ( #229 ) );
#160 = EDGE_LOOP( '', ( #230 ) );
#161 = EDGE_LOOP( '', ( #231 ) );
#162 = AXIS2_PLACEMENT_3D( '', #232, #233, #234 );
#163 = SURFACE_SIDE_STYLE( '', ( #235 ) );
#164 = EDGE_LOOP( '', ( #236 ) );
#165 = EDGE_LOOP( '', ( #237 ) );
#166 = AXIS2_PLACEMENT_3D( '', #238, #239, #240 );
#167 = SURFACE_SIDE_STYLE( '', ( #241 ) );
#168 = EDGE_LOOP( '', ( #242 ) );
#169 = EDGE_LOOP( '', ( #243 ) );
#170 = AXIS2_PLACEMENT_3D( '', #244, #245, #246 );
#171 = SURFACE_SIDE_STYLE( '', ( #247 ) );
#172 = EDGE_LOOP( '', ( #248, #249, #250, #251 ) );
#173 = AXIS2_PLACEMENT_3D( '', #252, #253, #254 );
#174 = SURFACE_SIDE_STYLE( '', ( #255 ) );
#175 = EDGE_LOOP( '', ( #256 ) );
#176 = EDGE_LOOP( '', ( #257 ) );
#177 = AXIS2_PLACEMENT_3D( '', #258, #259, #260 );
#178 = SURFACE_SIDE_STYLE( '', ( #261 ) );
#179 = EDGE_LOOP( '', ( #262, #263, #264, #265 ) );
#180 = EDGE_LOOP( '', ( #266 ) );
#181 = AXIS2_PLACEMENT_3D( '', #267, #268, #269 );
#182 = SURFACE_SIDE_STYLE( '', ( #270 ) );
#183 = EDGE_LOOP( '', ( #271 ) );
#184 = EDGE_LOOP( '', ( #272, #273, #274, #275 ) );
#185 = AXIS2_PLACEMENT_3D( '', #276, #277, #278 );
#186 = SURFACE_SIDE_STYLE( '', ( #279 ) );
#187 = VERTEX_LOOP( '', #280 );
#188 = EDGE_LOOP( '', ( #281 ) );
#189 = EDGE_LOOP( '', ( #282 ) );
#190 = AXIS2_PLACEMENT_3D( '', #283, #284, #285 );
#191 = SURFACE_SIDE_STYLE( '', ( #286 ) );
#192 = EDGE_LOOP( '', ( #287 ) );
#193 = EDGE_LOOP( '', ( #288 ) );
#194 = AXIS2_PLACEMENT_3D( '', #289, #290, #291 );
#195 = SURFACE_SIDE_STYLE( '', ( #292 ) );
#196 = EDGE_LOOP( '', ( #293 ) );
#197 = EDGE_LOOP( '', ( #294 ) );
#198 = AXIS2_PLACEMENT_3D( '', #295, #296, #297 );
#199 = SURFACE_SIDE_STYLE( '', ( #298 ) );
#200 = EDGE_LOOP( '', ( #299, #300, #301, #302 ) );
#201 = AXIS2_PLACEMENT_3D( '', #303, #304, #305 );
#202 = SURFACE_SIDE_STYLE( '', ( #306 ) );
#203 = EDGE_LOOP( '', ( #307 ) );
#204 = EDGE_LOOP( '', ( #308 ) );
#205 = AXIS2_PLACEMENT_3D( '', #309, #310, #311 );
#207 = SURFACE_STYLE_FILL_AREA( #312 );
#208 = ORIENTED_EDGE( '', *, *, #313, .F. );
#209 = ORIENTED_EDGE( '', *, *, #314, .T. );
#210 = CARTESIAN_POINT( '', ( 36.3000000000000, 0.000000000000000, 0.000000000000000 ) );
#211 = DIRECTION( '', ( -1.00000000000000, -0.000000000000000, -0.000000000000000 ) );
#212 = DIRECTION( '', ( 0.000000000000000, 0.000000000000000, 1.00000000000000 ) );
#213 = SURFACE_STYLE_FILL_AREA( #315 );
#214 = ORIENTED_EDGE( '', *, *, #316, .T. );
#215 = ORIENTED_EDGE( '', *, *, #317, .T. );
#216 = ORIENTED_EDGE( '', *, *, #318, .F. );
#217 = ORIENTED_EDGE( '', *, *, #319, .F. );
#218 = CARTESIAN_POINT( '', ( 42.0000000000000, 12.3693168768530, -4.00000000000000 ) );
#219 = DIRECTION( '', ( 0.000000000000000, 0.000000000000000, 1.00000000000000 ) );
#220 = DIRECTION( '', ( 1.00000000000000, 0.000000000000000, -0.000000000000000 ) );
#221 = SURFACE_STYLE_FILL_AREA( #320 );
#222 = ORIENTED_EDGE( '', *, *, #321, .T. );
#223 = ORIENTED_EDGE( '', *, *, #322, .T. );
#224 = ORIENTED_EDGE( '', *, *, #323, .F. );
#225 = ORIENTED_EDGE( '', *, *, #324, .F. );
#226 = CARTESIAN_POINT( '', ( 42.0000000000000, 16.3000000000000, 4.00000000000001 ) );
#227 = DIRECTION( '', ( 0.000000000000000, 1.76531500670849E-15, -1.00000000000000 ) );
#228 = DIRECTION( '', ( 0.000000000000000, 1.00000000000000, 1.76531500670849E-15 ) );
#229 = SURFACE_STYLE_FILL_AREA( #325 );
#230 = ORIENTED_EDGE( '', *, *, #326, .F. );
#231 = ORIENTED_EDGE( '', *, *, #327, .T. );
#232 = CARTESIAN_POINT( '', ( 0.000000000000000, 0.000000000000000, 0.000000000000000 ) );
#233 = DIRECTION( '', ( 1.00000000000000, -0.000000000000000, -0.000000000000000 ) );
#234 = DIRECTION( '', ( 0.000000000000000, 0.000000000000000, 1.00000000000000 ) );
#235 = SURFACE_STYLE_FILL_AREA( #328 );
#236 = ORIENTED_EDGE( '', *, *, #314, .F. );
#237 = ORIENTED_EDGE( '', *, *, #329, .T. );
#238 = CARTESIAN_POINT( '', ( 33.3478262581578, 0.000000000000000, 0.000000000000000 ) );
#239 = DIRECTION( '', ( -1.00000000000000, -0.000000000000000, -0.000000000000000 ) );
#240 = DIRECTION( '', ( 0.000000000000000, 0.000000000000000, 1.00000000000000 ) );
#241 = SURFACE_STYLE_FILL_AREA( #330 );
#242 = ORIENTED_EDGE( '', *, *, #331, .F. );
#243 = ORIENTED_EDGE( '', *, *, #332, .T. );
#244 = CARTESIAN_POINT( '', ( 25.5000000000000, 0.000000000000000, 0.000000000000000 ) );
#245 = DIRECTION( '', ( 1.00000000000000, -0.000000000000000, 0.000000000000000 ) );
#246 = DIRECTION( '', ( 0.000000000000000, 0.000000000000000, -1.00000000000000 ) );
#247 = SURFACE_STYLE_FILL_AREA( #333 );
#248 = ORIENTED_EDGE( '', *, *, #334, .T. );
#249 = ORIENTED_EDGE( '', *, *, #319, .T. );
#250 = ORIENTED_EDGE( '', *, *, #335, .T. );
#251 = ORIENTED_EDGE( '', *, *, #322, .F. );
#252 = CARTESIAN_POINT( '', ( 42.0000000000000, -1.02999206386123E-15, 4.33680868994202E-16 ) );
#253 = DIRECTION( '', ( 1.00000000000000, -0.000000000000000, -0.000000000000000 ) );
#254 = DIRECTION( '', ( 0.000000000000000, 0.000000000000000, 1.00000000000000 ) );
#255 = SURFACE_STYLE_FILL_AREA( #336 );
#256 = ORIENTED_EDGE( '', *, *, #337, .F. );
#257 = ORIENTED_EDGE( '', *, *, #338, .T. );
#258 = CARTESIAN_POINT( '', ( 58.0000000000000, 0.000000000000000, 0.000000000000000 ) );
#259 = DIRECTION( '', ( 1.00000000000000, -0.000000000000000, 0.000000000000000 ) );
#260 = DIRECTION( '', ( 0.000000000000000, 0.000000000000000, -1.00000000000000 ) );
#261 = SURFACE_STYLE_FILL_AREA( #339 );
#262 = ORIENTED_EDGE( '', *, *, #323, .T. );
#263 = ORIENTED_EDGE( '', *, *, #335, .F. );
#264 = ORIENTED_EDGE( '', *, *, #318, .T. );
#265 = ORIENTED_EDGE( '', *, *, #340, .T. );
#266 = ORIENTED_EDGE( '', *, *, #326, .T. );
#267 = CARTESIAN_POINT( '', ( 0.000000000000000, -24.5000000000000, 0.000000000000000 ) );
#268 = DIRECTION( '', ( 1.00000000000000, 0.000000000000000, 0.000000000000000 ) );
#269 = DIRECTION( '', ( 0.000000000000000, 0.000000000000000, -1.00000000000000 ) );
#270 = SURFACE_STYLE_FILL_AREA( #341 );
#271 = ORIENTED_EDGE( '', *, *, #342, .F. );
#272 = ORIENTED_EDGE( '', *, *, #321, .F. );
#273 = ORIENTED_EDGE( '', *, *, #343, .F. );
#274 = ORIENTED_EDGE( '', *, *, #316, .F. );
#275 = ORIENTED_EDGE( '', *, *, #334, .F. );
#276 = CARTESIAN_POINT( '', ( 28.0000000000000, 0.000000000000000, 0.000000000000000 ) );
#277 = DIRECTION( '', ( -1.00000000000000, 0.000000000000000, 0.000000000000000 ) );
#278 = DIRECTION( '', ( 0.000000000000000, 0.000000000000000, 1.00000000000000 ) );
#279 = SURFACE_STYLE_FILL_AREA( #344 );
#280 = VERTEX_POINT( '', #345 );
#281 = ORIENTED_EDGE( '', *, *, #337, .T. );
#282 = ORIENTED_EDGE( '', *, *, #329, .F. );
#283 = CARTESIAN_POINT( '', ( 47.1500000000000, 0.000000000000000, 0.000000000000000 ) );
#284 = DIRECTION( '', ( -1.00000000000000, 0.000000000000000, 0.000000000000000 ) );
#285 = DIRECTION( '', ( 0.000000000000000, 0.000000000000000, 1.00000000000000 ) );
#286 = SURFACE_STYLE_FILL_AREA( #346 );
#287 = ORIENTED_EDGE( '', *, *, #331, .T. );
#288 = ORIENTED_EDGE( '', *, *, #338, .F. );
#289 = CARTESIAN_POINT( '', ( 38.8969113365678, 0.000000000000000, 0.000000000000000 ) );
#290 = DIRECTION( '', ( -1.00000000000000, 0.000000000000000, 0.000000000000000 ) );
#291 = DIRECTION( '', ( 0.000000000000000, 0.000000000000000, 1.00000000000000 ) );
#292 = SURFACE_STYLE_FILL_AREA( #347 );
#293 = ORIENTED_EDGE( '', *, *, #327, .F. );
#294 = ORIENTED_EDGE( '', *, *, #313, .T. );
#295 = CARTESIAN_POINT( '', ( 43.8000000000000, 0.000000000000000, 0.000000000000000 ) );
#296 = DIRECTION( '', ( 1.00000000000000, -0.000000000000000, 0.000000000000000 ) );
#297 = DIRECTION( '', ( 0.000000000000000, 0.000000000000000, -1.00000000000000 ) );
#298 = SURFACE_STYLE_FILL_AREA( #348 );
#299 = ORIENTED_EDGE( '', *, *, #343, .T. );
#300 = ORIENTED_EDGE( '', *, *, #324, .T. );
#301 = ORIENTED_EDGE( '', *, *, #340, .F. );
#302 = ORIENTED_EDGE( '', *, *, #317, .F. );
#303 = CARTESIAN_POINT( '', ( 42.0000000000000, 16.3000000000000, -4.00000000000000 ) );
#304 = DIRECTION( '', ( 0.000000000000000, -1.00000000000000, 0.000000000000000 ) );
#305 = DIRECTION( '', ( 0.000000000000000, 0.000000000000000, -1.00000000000000 ) );
#306 = SURFACE_STYLE_FILL_AREA( #349 );
#307 = ORIENTED_EDGE( '', *, *, #332, .F. );
#308 = ORIENTED_EDGE( '', *, *, #342, .T. );
#309 = CARTESIAN_POINT( '', ( 0.000000000000000, 0.000000000000000, 0.000000000000000 ) );
#310 = DIRECTION( '', ( 1.00000000000000, -0.000000000000000, -0.000000000000000 ) );
#311 = DIRECTION( '', ( 0.000000000000000, 0.000000000000000, 1.00000000000000 ) );
#312 = FILL_AREA_STYLE( '', ( #350 ) );
#313 = EDGE_CURVE( '', #351, #351, #352, .T. );
#314 = EDGE_CURVE( '', #353, #353, #354, .T. );
#315 = FILL_AREA_STYLE( '', ( #355 ) );
#316 = EDGE_CURVE( '', #356, #357, #358, .T. );
#317 = EDGE_CURVE( '', #357, #359, #360, .T. );
#318 = EDGE_CURVE( '', #361, #359, #362, .T. );
#319 = EDGE_CURVE( '', #356, #361, #363, .T. );
#320 = FILL_AREA_STYLE( '', ( #364 ) );
#321 = EDGE_CURVE( '', #365, #366, #367, .T. );
#322 = EDGE_CURVE( '', #366, #368, #369, .T. );
#323 = EDGE_CURVE( '', #370, #368, #371, .T. );
#324 = EDGE_CURVE( '', #365, #370, #372, .T. );
#325 = FILL_AREA_STYLE( '', ( #373 ) );
#326 = EDGE_CURVE( '', #374, #374, #375, .T. );
#327 = EDGE_CURVE( '', #376, #376, #377, .T. );
#328 = FILL_AREA_STYLE( '', ( #378 ) );
#329 = EDGE_CURVE( '', #379, #379, #380, .T. );
#330 = FILL_AREA_STYLE( '', ( #381 ) );
#331 = EDGE_CURVE( '', #382, #382, #383, .T. );
#332 = EDGE_CURVE( '', #384, #384, #385, .T. );
#333 = FILL_AREA_STYLE( '', ( #386 ) );
#334 = EDGE_CURVE( '', #366, #356, #387, .F. );
#335 = EDGE_CURVE( '', #361, #368, #388, .F. );
#336 = FILL_AREA_STYLE( '', ( #389 ) );
#337 = EDGE_CURVE( '', #390, #390, #391, .T. );
#338 = EDGE_CURVE( '', #392, #392, #393, .T. );
#339 = FILL_AREA_STYLE( '', ( #394 ) );
#340 = EDGE_CURVE( '', #359, #370, #395, .T. );
#341 = FILL_AREA_STYLE( '', ( #396 ) );
#342 = EDGE_CURVE( '', #397, #397, #398, .T. );
#343 = EDGE_CURVE( '', #357, #365, #399, .T. );
#344 = FILL_AREA_STYLE( '', ( #400 ) );
#345 = CARTESIAN_POINT( '', ( 47.1500000000000, 0.000000000000000, 125.000000000000 ) );
#346 = FILL_AREA_STYLE( '', ( #401 ) );
#347 = FILL_AREA_STYLE( '', ( #402 ) );
#348 = FILL_AREA_STYLE( '', ( #403 ) );
#349 = FILL_AREA_STYLE( '', ( #404 ) );
#350 = FILL_AREA_STYLE_COLOUR( '', #405 );
#351 = VERTEX_POINT( '', #406 );
#352 = CIRCLE( '', #407, 99.0000000000000 );
#353 = VERTEX_POINT( '', #408 );
#354 = CIRCLE( '', #409, 107.000000000000 );
#355 = FILL_AREA_STYLE_COLOUR( '', #410 );
#356 = VERTEX_POINT( '', #411 );
#357 = VERTEX_POINT( '', #412 );
#358 = LINE( '', #413, #414 );
#359 = VERTEX_POINT( '', #415 );
#360 = LINE( '', #416, #417 );
#361 = VERTEX_POINT( '', #418 );
#362 = LINE( '', #419, #420 );
#363 = LINE( '', #421, #422 );
#364 = FILL_AREA_STYLE_COLOUR( '', #423 );
#365 = VERTEX_POINT( '', #424 );
#366 = VERTEX_POINT( '', #425 );
#367 = LINE( '', #426, #427 );
#368 = VERTEX_POINT( '', #428 );
#369 = LINE( '', #429, #430 );
#370 = VERTEX_POINT( '', #431 );
#371 = LINE( '', #432, #433 );
#372 = LINE( '', #434, #435 );
#373 = FILL_AREA_STYLE_COLOUR( '', #436 );
#374 = VERTEX_POINT( '', #437 );
#375 = CIRCLE( '', #438, 24.5000000000000 );
#376 = VERTEX_POINT( '', #439 );
#377 = CIRCLE( '', #440, 24.5000000000000 );
#378 = FILL_AREA_STYLE_COLOUR( '', #441 );
#379 = VERTEX_POINT( '', #442 );
#380 = CIRCLE( '', #443, 110.000000000000 );
#381 = FILL_AREA_STYLE_COLOUR( '', #444 );
#382 = VERTEX_POINT( '', #445 );
#383 = CIRCLE( '', #446, 99.0000000000000 );
#384 = VERTEX_POINT( '', #447 );
#385 = CIRCLE( '', #448, 24.5000000000000 );
#386 = FILL_AREA_STYLE_COLOUR( '', #449 );
#387 = CIRCLE( '', #450, 13.0000000000000 );
#388 = CIRCLE( '', #451, 13.0000000000000 );
#389 = FILL_AREA_STYLE_COLOUR( '', #452 );
#390 = VERTEX_POINT( '', #453 );
#391 = CIRCLE( '', #454, 110.500000000000 );
#392 = VERTEX_POINT( '', #455 );
#393 = CIRCLE( '', #456, 109.000000000000 );
#394 = FILL_AREA_STYLE_COLOUR( '', #457 );
#395 = LINE( '', #458, #459 );
#396 = FILL_AREA_STYLE_COLOUR( '', #460 );
#397 = VERTEX_POINT( '', #461 );
#398 = CIRCLE( '', #462, 24.5000000000000 );
#399 = LINE( '', #463, #464 );
#400 = FILL_AREA_STYLE_COLOUR( '', #465 );
#401 = FILL_AREA_STYLE_COLOUR( '', #466 );
#402 = FILL_AREA_STYLE_COLOUR( '', #467 );
#403 = FILL_AREA_STYLE_COLOUR( '', #468 );
#404 = FILL_AREA_STYLE_COLOUR( '', #469 );
#405 = COLOUR_RGB( '', 0.689999997600000, 0.689999997600000, 0.689999997600000 );
#406 = CARTESIAN_POINT( '', ( 43.8000000000000, 0.000000000000000, 99.0000000000000 ) );
#407 = AXIS2_PLACEMENT_3D( '', #470, #471, #472 );
#408 = CARTESIAN_POINT( '', ( 36.3000000000000, 0.000000000000000, 107.000000000000 ) );
#409 = AXIS2_PLACEMENT_3D( '', #473, #474, #475 );
#410 = COLOUR_RGB( '', 0.689999997600000, 0.689999997600000, 0.689999997600000 );
#411 = CARTESIAN_POINT( '', ( 28.0000000000000, 12.3693168768530, -4.00000000000000 ) );
#412 = CARTESIAN_POINT( '', ( 28.0000000000000, 16.3000000000000, -4.00000000000000 ) );
#413 = CARTESIAN_POINT( '', ( 28.0000000000000, 0.000000000000000, -4.00000000000000 ) );
#414 = VECTOR( '', #476, 1000.00000000000 );
#415 = CARTESIAN_POINT( '', ( 0.000000000000000, 16.3000000000000, -4.00000000000000 ) );
#416 = CARTESIAN_POINT( '', ( 42.0000000000000, 16.3000000000000, -4.00000000000000 ) );
#417 = VECTOR( '', #477, 1000.00000000000 );
#418 = CARTESIAN_POINT( '', ( 0.000000000000000, 12.3693168768530, -4.00000000000000 ) );
#419 = CARTESIAN_POINT( '', ( 0.000000000000000, 12.3693168768530, -4.00000000000000 ) );
#420 = VECTOR( '', #478, 1000.00000000000 );
#421 = CARTESIAN_POINT( '', ( 42.0000000000000, 12.3693168768530, -4.00000000000000 ) );
#422 = VECTOR( '', #479, 1000.00000000000 );
#423 = COLOUR_RGB( '', 0.689999997600000, 0.689999997600000, 0.689999997600000 );
#424 = CARTESIAN_POINT( '', ( 28.0000000000000, 16.3000000000000, 4.00000000000001 ) );
#425 = CARTESIAN_POINT( '', ( 28.0000000000000, 12.3693168768530, 4.00000000000001 ) );
#426 = CARTESIAN_POINT( '', ( 28.0000000000000, -7.06126002683392E-15, 3.99999999999998 ) );
#427 = VECTOR( '', #480, 1000.00000000000 );
#428 = CARTESIAN_POINT( '', ( 0.000000000000000, 12.3693168768530, 4.00000000000001 ) );
#429 = CARTESIAN_POINT( '', ( 42.0000000000000, 12.3693168768530, 4.00000000000001 ) );
#430 = VECTOR( '', #481, 1000.00000000000 );
#431 = CARTESIAN_POINT( '', ( 0.000000000000000, 16.3000000000000, 4.00000000000001 ) );
#432 = CARTESIAN_POINT( '', ( 0.000000000000000, 16.3000000000000, 4.00000000000001 ) );
#433 = VECTOR( '', #482, 1000.00000000000 );
#434 = CARTESIAN_POINT( '', ( 42.0000000000000, 16.3000000000000, 4.00000000000001 ) );
#435 = VECTOR( '', #483, 1000.00000000000 );
#436 = COLOUR_RGB( '', 0.689999997600000, 0.689999997600000, 0.689999997600000 );
#437 = CARTESIAN_POINT( '', ( 0.000000000000000, 0.000000000000000, 24.5000000000000 ) );
#438 = AXIS2_PLACEMENT_3D( '', #484, #485, #486 );
#439 = CARTESIAN_POINT( '', ( 19.5000000000000, 0.000000000000000, 24.5000000000000 ) );
#440 = AXIS2_PLACEMENT_3D( '', #487, #488, #489 );
#441 = COLOUR_RGB( '', 0.689999997600000, 0.689999997600000, 0.689999997600000 );
#442 = CARTESIAN_POINT( '', ( 33.3478262581578, 0.000000000000000, 110.000000000000 ) );
#443 = AXIS2_PLACEMENT_3D( '', #490, #491, #492 );
#444 = COLOUR_RGB( '', 0.689999997600000, 0.689999997600000, 0.689999997600000 );
#445 = CARTESIAN_POINT( '', ( 51.0000000000000, 0.000000000000000, 99.0000000000000 ) );
#446 = AXIS2_PLACEMENT_3D( '', #493, #494, #495 );
#447 = CARTESIAN_POINT( '', ( 25.5000000000000, 0.000000000000000, 24.5000000000000 ) );
#448 = AXIS2_PLACEMENT_3D( '', #496, #497, #498 );
#449 = COLOUR_RGB( '', 0.689999997600000, 0.689999997600000, 0.689999997600000 );
#450 = AXIS2_PLACEMENT_3D( '', #499, #500, #501 );
#451 = AXIS2_PLACEMENT_3D( '', #502, #503, #504 );
#452 = COLOUR_RGB( '', 0.689999997600000, 0.689999997600000, 0.689999997600000 );
#453 = CARTESIAN_POINT( '', ( 60.9847388844170, 0.000000000000000, 110.500000000000 ) );
#454 = AXIS2_PLACEMENT_3D( '', #505, #506, #507 );
#455 = CARTESIAN_POINT( '', ( 58.0000000000000, 0.000000000000000, 109.000000000000 ) );
#456 = AXIS2_PLACEMENT_3D( '', #508, #509, #510 );
#457 = COLOUR_RGB( '', 0.689999997600000, 0.689999997600000, 0.689999997600000 );
#458 = CARTESIAN_POINT( '', ( 0.000000000000000, 16.3000000000000, -4.00000000000000 ) );
#459 = VECTOR( '', #511, 1000.00000000000 );
#460 = COLOUR_RGB( '', 0.689999997600000, 0.689999997600000, 0.689999997600000 );
#461 = CARTESIAN_POINT( '', ( 28.0000000000000, 0.000000000000000, 24.5000000000000 ) );
#462 = AXIS2_PLACEMENT_3D( '', #512, #513, #514 );
#463 = CARTESIAN_POINT( '', ( 28.0000000000000, 16.3000000000000, 0.000000000000000 ) );
#464 = VECTOR( '', #515, 1000.00000000000 );
#465 = COLOUR_RGB( '', 0.689999997600000, 0.689999997600000, 0.689999997600000 );
#466 = COLOUR_RGB( '', 0.689999997600000, 0.689999997600000, 0.689999997600000 );
#467 = COLOUR_RGB( '', 0.689999997600000, 0.689999997600000, 0.689999997600000 );
#468 = COLOUR_RGB( '', 0.689999997600000, 0.689999997600000, 0.689999997600000 );
#469 = COLOUR_RGB( '', 0.689999997600000, 0.689999997600000, 0.689999997600000 );
#470 = CARTESIAN_POINT( '', ( 43.8000000000000, 0.000000000000000, 0.000000000000000 ) );
#471 = DIRECTION( '', ( -1.00000000000000, 0.000000000000000, 0.000000000000000 ) );
#472 = DIRECTION( '', ( 0.000000000000000, 0.000000000000000, 1.00000000000000 ) );
#473 = CARTESIAN_POINT( '', ( 36.3000000000000, 0.000000000000000, 0.000000000000000 ) );
#474 = DIRECTION( '', ( -1.00000000000000, 0.000000000000000, 0.000000000000000 ) );
#475 = DIRECTION( '', ( 0.000000000000000, 0.000000000000000, 1.00000000000000 ) );
#476 = DIRECTION( '', ( 0.000000000000000, 1.00000000000000, 0.000000000000000 ) );
#477 = DIRECTION( '', ( -1.00000000000000, -0.000000000000000, -0.000000000000000 ) );
#478 = DIRECTION( '', ( 0.000000000000000, 1.00000000000000, 0.000000000000000 ) );
#479 = DIRECTION( '', ( -1.00000000000000, -0.000000000000000, -0.000000000000000 ) );
#480 = DIRECTION( '', ( 0.000000000000000, -1.00000000000000, -1.76531500670849E-15 ) );
#481 = DIRECTION( '', ( -1.00000000000000, -0.000000000000000, -0.000000000000000 ) );
#482 = DIRECTION( '', ( 0.000000000000000, -1.00000000000000, -1.76531500670849E-15 ) );
#483 = DIRECTION( '', ( -1.00000000000000, -0.000000000000000, -0.000000000000000 ) );
#484 = CARTESIAN_POINT( '', ( 0.000000000000000, 0.000000000000000, 0.000000000000000 ) );
#485 = DIRECTION( '', ( -1.00000000000000, 0.000000000000000, 0.000000000000000 ) );
#486 = DIRECTION( '', ( 0.000000000000000, 0.000000000000000, 1.00000000000000 ) );
#487 = CARTESIAN_POINT( '', ( 19.5000000000000, 0.000000000000000, 0.000000000000000 ) );
#488 = DIRECTION( '', ( -1.00000000000000, 0.000000000000000, 0.000000000000000 ) );
#489 = DIRECTION( '', ( 0.000000000000000, 0.000000000000000, 1.00000000000000 ) );
#490 = CARTESIAN_POINT( '', ( 33.3478262581578, 0.000000000000000, 0.000000000000000 ) );
#491 = DIRECTION( '', ( -1.00000000000000, 0.000000000000000, 0.000000000000000 ) );
#492 = DIRECTION( '', ( 0.000000000000000, 0.000000000000000, 1.00000000000000 ) );
#493 = CARTESIAN_POINT( '', ( 51.0000000000000, 0.000000000000000, 0.000000000000000 ) );
#494 = DIRECTION( '', ( -1.00000000000000, 0.000000000000000, 0.000000000000000 ) );
#495 = DIRECTION( '', ( 0.000000000000000, 0.000000000000000, 1.00000000000000 ) );
#496 = CARTESIAN_POINT( '', ( 25.5000000000000, 0.000000000000000, 0.000000000000000 ) );
#497 = DIRECTION( '', ( -1.00000000000000, 0.000000000000000, 0.000000000000000 ) );
#498 = DIRECTION( '', ( 0.000000000000000, 0.000000000000000, 1.00000000000000 ) );
#499 = CARTESIAN_POINT( '', ( 28.0000000000000, -1.02999206386123E-15, 4.33680868994202E-16 ) );
#500 = DIRECTION( '', ( -1.00000000000000, 0.000000000000000, 0.000000000000000 ) );
#501 = DIRECTION( '', ( 0.000000000000000, 0.000000000000000, 1.00000000000000 ) );
#502 = CARTESIAN_POINT( '', ( 0.000000000000000, -1.02999206386123E-15, 4.33680868994202E-16 ) );
#503 = DIRECTION( '', ( 1.00000000000000, 0.000000000000000, 0.000000000000000 ) );
#504 = DIRECTION( '', ( 0.000000000000000, 0.000000000000000, -1.00000000000000 ) );
#505 = CARTESIAN_POINT( '', ( 60.9847388844170, 0.000000000000000, 0.000000000000000 ) );
#506 = DIRECTION( '', ( -1.00000000000000, 0.000000000000000, 0.000000000000000 ) );
#507 = DIRECTION( '', ( 0.000000000000000, 0.000000000000000, 1.00000000000000 ) );
#508 = CARTESIAN_POINT( '', ( 58.0000000000000, 0.000000000000000, 0.000000000000000 ) );
#509 = DIRECTION( '', ( -1.00000000000000, 0.000000000000000, 0.000000000000000 ) );
#510 = DIRECTION( '', ( 0.000000000000000, 0.000000000000000, 1.00000000000000 ) );
#511 = DIRECTION( '', ( 0.000000000000000, 0.000000000000000, 1.00000000000000 ) );
#512 = CARTESIAN_POINT( '', ( 28.0000000000000, 0.000000000000000, 0.000000000000000 ) );
#513 = DIRECTION( '', ( -1.00000000000000, 0.000000000000000, 0.000000000000000 ) );
#514 = DIRECTION( '', ( 0.000000000000000, 0.000000000000000, 1.00000000000000 ) );
#515 = DIRECTION( '', ( 0.000000000000000, 0.000000000000000, 1.00000000000000 ) );
ENDSEC;
END-ISO-10303-21;
