ISO-10303-21;
HEADER;
FILE_DESCRIPTION( ( 'STEP AP214' ), '1' );
FILE_NAME( '//goodhand-server/Shared Folders/GoodHand Data/Kipp CAD/K0676/K0676.2510X030.stp', '2020-12-09T11:10:00', ( '' ), ( '' ), ' ', 'PARTsolutions', ' ' );
FILE_SCHEMA( ( 'AUTOMOTIVE_DESIGN { 1 0 10303 214 1 1 1 1 }' ) );
ENDSEC;
DATA;
#1 = MECHANICAL_DESIGN_GEOMETRIC_PRESENTATION_REPRESENTATION( ' ', ( #10, #11, #12, #13, #14, #15, #16, #17, #18, #19, #20 ), #6 );
#2 = PRODUCT_DEFINITION_CONTEXT( '', #21, 'design' );
#3 = APPLICATION_PROTOCOL_DEFINITION( 'international standard', 'automotive_design', 2001, #21 );
#4 = PRODUCT_CATEGORY_RELATIONSHIP( 'NONE', 'NONE', #22, #23 );
#5 = SHAPE_DEFINITION_REPRESENTATION( #24, #25 );
#6 =  ( GEOMETRIC_REPRESENTATION_CONTEXT( 3 )GLOBAL_UNCERTAINTY_ASSIGNED_CONTEXT( ( #28 ) )GLOBAL_UNIT_ASSIGNED_CONTEXT( ( #30, #31, #32 ) )REPRESENTATION_CONTEXT( 'NONE', 'WORKSPACE' ) );
#10 = STYLED_ITEM( '', ( #34 ), #35 );
#11 = STYLED_ITEM( '', ( #36 ), #37 );
#12 = STYLED_ITEM( '', ( #38 ), #39 );
#13 = STYLED_ITEM( '', ( #40 ), #41 );
#14 = STYLED_ITEM( '', ( #42 ), #43 );
#15 = STYLED_ITEM( '', ( #44 ), #45 );
#16 = STYLED_ITEM( '', ( #46 ), #47 );
#17 = STYLED_ITEM( '', ( #48 ), #49 );
#18 = STYLED_ITEM( '', ( #50 ), #51 );
#19 = STYLED_ITEM( '', ( #52 ), #53 );
#20 = STYLED_ITEM( '', ( #54 ), #55 );
#21 = APPLICATION_CONTEXT( 'core data for automotive mechanical design processes' );
#22 = PRODUCT_CATEGORY( 'part', 'NONE' );
#23 = PRODUCT_RELATED_PRODUCT_CATEGORY( 'detail', ' ', ( #56 ) );
#24 = PRODUCT_DEFINITION_SHAPE( 'NONE', 'NONE', #57 );
#25 = ADVANCED_BREP_SHAPE_REPRESENTATION( '_K0676.2510X030', ( #58, #59 ), #6 );
#28 = UNCERTAINTY_MEASURE_WITH_UNIT( LENGTH_MEASURE( 0.00100000000000000 ), #30, '', '' );
#30 =  ( CONVERSION_BASED_UNIT( 'MILLIMETRE', #62 )LENGTH_UNIT(  )NAMED_UNIT( #65 ) );
#31 =  ( NAMED_UNIT( #67 )PLANE_ANGLE_UNIT(  )SI_UNIT( $, .RADIAN. ) );
#32 =  ( NAMED_UNIT( #67 )SI_UNIT( $, .STERADIAN. )SOLID_ANGLE_UNIT(  ) );
#34 = PRESENTATION_STYLE_ASSIGNMENT( ( #73 ) );
#35 = ADVANCED_FACE( '', ( #74 ), #75, .T. );
#36 = PRESENTATION_STYLE_ASSIGNMENT( ( #76 ) );
#37 = ADVANCED_FACE( '', ( #77, #78 ), #79, .T. );
#38 = PRESENTATION_STYLE_ASSIGNMENT( ( #80 ) );
#39 = ADVANCED_FACE( '', ( #81 ), #82, .T. );
#40 = PRESENTATION_STYLE_ASSIGNMENT( ( #83 ) );
#41 = ADVANCED_FACE( '', ( #84, #85 ), #86, .T. );
#42 = PRESENTATION_STYLE_ASSIGNMENT( ( #87 ) );
#43 = ADVANCED_FACE( '', ( #88 ), #89, .T. );
#44 = PRESENTATION_STYLE_ASSIGNMENT( ( #90 ) );
#45 = ADVANCED_FACE( '', ( #91 ), #92, .F. );
#46 = PRESENTATION_STYLE_ASSIGNMENT( ( #93 ) );
#47 = ADVANCED_FACE( '', ( #94, #95 ), #96, .T. );
#48 = PRESENTATION_STYLE_ASSIGNMENT( ( #97 ) );
#49 = ADVANCED_FACE( '', ( #98 ), #99, .T. );
#50 = PRESENTATION_STYLE_ASSIGNMENT( ( #100 ) );
#51 = ADVANCED_FACE( '', ( #101 ), #102, .T. );
#52 = PRESENTATION_STYLE_ASSIGNMENT( ( #103 ) );
#53 = ADVANCED_FACE( '', ( #104 ), #105, .T. );
#54 = PRESENTATION_STYLE_ASSIGNMENT( ( #106 ) );
#55 = ADVANCED_FACE( '', ( #107 ), #108, .F. );
#56 = PRODUCT( '_K0676.2510X030', '_K0676.2510X030', 'PART-_K0676.2510X030-DESC', ( #109 ) );
#57 = PRODUCT_DEFINITION( 'NONE', 'NONE', #110, #2 );
#58 = MANIFOLD_SOLID_BREP( '_K0676.2510X030', #111 );
#59 = AXIS2_PLACEMENT_3D( '', #112, #113, #114 );
#62 = LENGTH_MEASURE_WITH_UNIT( LENGTH_MEASURE( 1.00000000000000 ), #115 );
#65 = DIMENSIONAL_EXPONENTS( 1.00000000000000, 0.000000000000000, 0.000000000000000, 0.000000000000000, 0.000000000000000, 0.000000000000000, 0.000000000000000 );
#67 = DIMENSIONAL_EXPONENTS( 0.000000000000000, 0.000000000000000, 0.000000000000000, 0.000000000000000, 0.000000000000000, 0.000000000000000, 0.000000000000000 );
#73 = SURFACE_STYLE_USAGE( .BOTH., #116 );
#74 = FACE_OUTER_BOUND( '', #117, .T. );
#75 = PLANE( '', #118 );
#76 = SURFACE_STYLE_USAGE( .BOTH., #119 );
#77 = FACE_OUTER_BOUND( '', #120, .T. );
#78 = FACE_BOUND( '', #121, .T. );
#79 = CONICAL_SURFACE( '', #122, 4.08000000000000, 0.785398163400000 );
#80 = SURFACE_STYLE_USAGE( .BOTH., #123 );
#81 = FACE_OUTER_BOUND( '', #124, .T. );
#82 = PLANE( '', #125 );
#83 = SURFACE_STYLE_USAGE( .BOTH., #126 );
#84 = FACE_BOUND( '', #127, .T. );
#85 = FACE_OUTER_BOUND( '', #128, .T. );
#86 = PLANE( '', #129 );
#87 = SURFACE_STYLE_USAGE( .BOTH., #130 );
#88 = FACE_OUTER_BOUND( '', #131, .T. );
#89 = PLANE( '', #132 );
#90 = SURFACE_STYLE_USAGE( .BOTH., #133 );
#91 = FACE_OUTER_BOUND( '', #134, .T. );
#92 = PLANE( '', #135 );
#93 = SURFACE_STYLE_USAGE( .BOTH., #136 );
#94 = FACE_OUTER_BOUND( '', #137, .T. );
#95 = FACE_OUTER_BOUND( '', #138, .T. );
#96 = CYLINDRICAL_SURFACE( '', #139, 5.00000000000000 );
#97 = SURFACE_STYLE_USAGE( .BOTH., #140 );
#98 = FACE_OUTER_BOUND( '', #141, .T. );
#99 = PLANE( '', #142 );
#100 = SURFACE_STYLE_USAGE( .BOTH., #143 );
#101 = FACE_OUTER_BOUND( '', #144, .T. );
#102 = PLANE( '', #145 );
#103 = SURFACE_STYLE_USAGE( .BOTH., #146 );
#104 = FACE_OUTER_BOUND( '', #147, .T. );
#105 = PLANE( '', #148 );
#106 = SURFACE_STYLE_USAGE( .BOTH., #149 );
#107 = FACE_OUTER_BOUND( '', #150, .T. );
#108 = PLANE( '', #151 );
#109 = PRODUCT_CONTEXT( '', #21, 'mechanical' );
#110 = PRODUCT_DEFINITION_FORMATION_WITH_SPECIFIED_SOURCE( ' ', 'NONE', #56, .NOT_KNOWN. );
#111 = CLOSED_SHELL( '', ( #39, #55, #49, #53, #51, #43, #35, #41, #45, #37, #47 ) );
#112 = CARTESIAN_POINT( '', ( 0.000000000000000, 0.000000000000000, 0.000000000000000 ) );
#113 = DIRECTION( '', ( 0.000000000000000, 0.000000000000000, 1.00000000000000 ) );
#114 = DIRECTION( '', ( 1.00000000000000, 0.000000000000000, 0.000000000000000 ) );
#115 =  ( LENGTH_UNIT(  )NAMED_UNIT( #65 )SI_UNIT( .MILLI., .METRE. ) );
#116 = SURFACE_SIDE_STYLE( '', ( #153 ) );
#117 = EDGE_LOOP( '', ( #154, #155, #156, #157 ) );
#118 = AXIS2_PLACEMENT_3D( '', #158, #159, #160 );
#119 = SURFACE_SIDE_STYLE( '', ( #161 ) );
#120 = EDGE_LOOP( '', ( #162 ) );
#121 = EDGE_LOOP( '', ( #163 ) );
#122 = AXIS2_PLACEMENT_3D( '', #164, #165, #166 );
#123 = SURFACE_SIDE_STYLE( '', ( #167 ) );
#124 = EDGE_LOOP( '', ( #168, #169, #170, #171 ) );
#125 = AXIS2_PLACEMENT_3D( '', #172, #173, #174 );
#126 = SURFACE_SIDE_STYLE( '', ( #175 ) );
#127 = EDGE_LOOP( '', ( #176 ) );
#128 = EDGE_LOOP( '', ( #177, #178, #179, #180, #181, #182 ) );
#129 = AXIS2_PLACEMENT_3D( '', #183, #184, #185 );
#130 = SURFACE_SIDE_STYLE( '', ( #186 ) );
#131 = EDGE_LOOP( '', ( #187, #188, #189, #190 ) );
#132 = AXIS2_PLACEMENT_3D( '', #191, #192, #193 );
#133 = SURFACE_SIDE_STYLE( '', ( #194 ) );
#134 = EDGE_LOOP( '', ( #195 ) );
#135 = AXIS2_PLACEMENT_3D( '', #196, #197, #198 );
#136 = SURFACE_SIDE_STYLE( '', ( #199 ) );
#137 = EDGE_LOOP( '', ( #200 ) );
#138 = EDGE_LOOP( '', ( #201 ) );
#139 = AXIS2_PLACEMENT_3D( '', #202, #203, #204 );
#140 = SURFACE_SIDE_STYLE( '', ( #205 ) );
#141 = EDGE_LOOP( '', ( #206, #207, #208, #209 ) );
#142 = AXIS2_PLACEMENT_3D( '', #210, #211, #212 );
#143 = SURFACE_SIDE_STYLE( '', ( #213 ) );
#144 = EDGE_LOOP( '', ( #214, #215, #216, #217 ) );
#145 = AXIS2_PLACEMENT_3D( '', #218, #219, #220 );
#146 = SURFACE_SIDE_STYLE( '', ( #221 ) );
#147 = EDGE_LOOP( '', ( #222, #223, #224, #225 ) );
#148 = AXIS2_PLACEMENT_3D( '', #226, #227, #228 );
#149 = SURFACE_SIDE_STYLE( '', ( #229 ) );
#150 = EDGE_LOOP( '', ( #230, #231, #232, #233, #234, #235 ) );
#151 = AXIS2_PLACEMENT_3D( '', #236, #237, #238 );
#153 = SURFACE_STYLE_FILL_AREA( #239 );
#154 = ORIENTED_EDGE( '', *, *, #240, .F. );
#155 = ORIENTED_EDGE( '', *, *, #241, .F. );
#156 = ORIENTED_EDGE( '', *, *, #242, .T. );
#157 = ORIENTED_EDGE( '', *, *, #243, .T. );
#158 = CARTESIAN_POINT( '', ( 12.5000000000000, 7.50000000000000, 7.21687836487032 ) );
#159 = DIRECTION( '', ( 0.999048221581858, -0.0436193873653360, 0.000000000000000 ) );
#160 = DIRECTION( '', ( 0.0436193873653360, 0.999048221581858, 0.000000000000000 ) );
#161 = SURFACE_STYLE_FILL_AREA( #244 );
#162 = ORIENTED_EDGE( '', *, *, #245, .F. );
#163 = ORIENTED_EDGE( '', *, *, #246, .T. );
#164 = CARTESIAN_POINT( '', ( 0.000000000000000, 37.5000000000000, 0.000000000000000 ) );
#165 = DIRECTION( '', ( -0.000000000000000, -1.00000000000000, -0.000000000000000 ) );
#166 = DIRECTION( '', ( 0.000000000000000, 0.000000000000000, -1.00000000000000 ) );
#167 = SURFACE_STYLE_FILL_AREA( #247 );
#168 = ORIENTED_EDGE( '', *, *, #248, .F. );
#169 = ORIENTED_EDGE( '', *, *, #249, .F. );
#170 = ORIENTED_EDGE( '', *, *, #250, .T. );
#171 = ORIENTED_EDGE( '', *, *, #251, .T. );
#172 = CARTESIAN_POINT( '', ( 0.000000000000000, 7.50000000000000, -14.4337567297406 ) );
#173 = DIRECTION( '', ( -0.499524110790929, -0.0436193873653360, -0.865201139495554 ) );
#174 = DIRECTION( '', ( -0.866025403784439, -2.42136240865198E-18, 0.500000000000000 ) );
#175 = SURFACE_STYLE_FILL_AREA( #252 );
#176 = ORIENTED_EDGE( '', *, *, #253, .T. );
#177 = ORIENTED_EDGE( '', *, *, #254, .T. );
#178 = ORIENTED_EDGE( '', *, *, #255, .T. );
#179 = ORIENTED_EDGE( '', *, *, #256, .T. );
#180 = ORIENTED_EDGE( '', *, *, #240, .T. );
#181 = ORIENTED_EDGE( '', *, *, #257, .T. );
#182 = ORIENTED_EDGE( '', *, *, #248, .T. );
#183 = CARTESIAN_POINT( '', ( 0.000000000000000, 7.50000000000000, 0.000000000000000 ) );
#184 = DIRECTION( '', ( 0.000000000000000, 1.00000000000000, 0.000000000000000 ) );
#185 = DIRECTION( '', ( 0.000000000000000, -0.000000000000000, 1.00000000000000 ) );
#186 = SURFACE_STYLE_FILL_AREA( #258 );
#187 = ORIENTED_EDGE( '', *, *, #256, .F. );
#188 = ORIENTED_EDGE( '', *, *, #259, .F. );
#189 = ORIENTED_EDGE( '', *, *, #260, .T. );
#190 = ORIENTED_EDGE( '', *, *, #241, .T. );
#191 = CARTESIAN_POINT( '', ( 0.000000000000000, 7.50000000000000, 14.4337567297406 ) );
#192 = DIRECTION( '', ( 0.499524110790929, -0.0436193873653360, 0.865201139495554 ) );
#193 = DIRECTION( '', ( 0.866025403784439, -2.42136240865198E-18, -0.500000000000000 ) );
#194 = SURFACE_STYLE_FILL_AREA( #261 );
#195 = ORIENTED_EDGE( '', *, *, #246, .F. );
#196 = CARTESIAN_POINT( '', ( 0.000000000000000, 37.5000000000000, 0.000000000000000 ) );
#197 = DIRECTION( '', ( 0.000000000000000, -1.00000000000000, -0.000000000000000 ) );
#198 = DIRECTION( '', ( 0.000000000000000, 0.000000000000000, -1.00000000000000 ) );
#199 = SURFACE_STYLE_FILL_AREA( #262 );
#200 = ORIENTED_EDGE( '', *, *, #253, .F. );
#201 = ORIENTED_EDGE( '', *, *, #245, .T. );
#202 = CARTESIAN_POINT( '', ( 0.000000000000000, 7.50000000000000, 0.000000000000000 ) );
#203 = DIRECTION( '', ( -0.000000000000000, 1.00000000000000, 0.000000000000000 ) );
#204 = DIRECTION( '', ( 0.000000000000000, 0.000000000000000, -1.00000000000000 ) );
#205 = SURFACE_STYLE_FILL_AREA( #263 );
#206 = ORIENTED_EDGE( '', *, *, #257, .F. );
#207 = ORIENTED_EDGE( '', *, *, #243, .F. );
#208 = ORIENTED_EDGE( '', *, *, #264, .T. );
#209 = ORIENTED_EDGE( '', *, *, #249, .T. );
#210 = CARTESIAN_POINT( '', ( 12.5000000000000, 7.50000000000000, -7.21687836487032 ) );
#211 = DIRECTION( '', ( 0.499524110790929, -0.0436193873653360, -0.865201139495554 ) );
#212 = DIRECTION( '', ( -0.866025403784439, 2.42136240865198E-18, -0.500000000000000 ) );
#213 = SURFACE_STYLE_FILL_AREA( #265 );
#214 = ORIENTED_EDGE( '', *, *, #255, .F. );
#215 = ORIENTED_EDGE( '', *, *, #266, .F. );
#216 = ORIENTED_EDGE( '', *, *, #267, .T. );
#217 = ORIENTED_EDGE( '', *, *, #259, .T. );
#218 = CARTESIAN_POINT( '', ( -12.5000000000000, 7.50000000000000, 7.21687836487032 ) );
#219 = DIRECTION( '', ( -0.499524110790929, -0.0436193873653360, 0.865201139495554 ) );
#220 = DIRECTION( '', ( 0.866025403784439, 2.42136240865198E-18, 0.500000000000000 ) );
#221 = SURFACE_STYLE_FILL_AREA( #268 );
#222 = ORIENTED_EDGE( '', *, *, #254, .F. );
#223 = ORIENTED_EDGE( '', *, *, #251, .F. );
#224 = ORIENTED_EDGE( '', *, *, #269, .T. );
#225 = ORIENTED_EDGE( '', *, *, #266, .T. );
#226 = CARTESIAN_POINT( '', ( -12.5000000000000, 7.50000000000000, -7.21687836487032 ) );
#227 = DIRECTION( '', ( -0.999048221581858, -0.0436193873653360, 0.000000000000000 ) );
#228 = DIRECTION( '', ( 0.0436193873653360, -0.999048221581858, 0.000000000000000 ) );
#229 = SURFACE_STYLE_FILL_AREA( #270 );
#230 = ORIENTED_EDGE( '', *, *, #269, .F. );
#231 = ORIENTED_EDGE( '', *, *, #250, .F. );
#232 = ORIENTED_EDGE( '', *, *, #264, .F. );
#233 = ORIENTED_EDGE( '', *, *, #242, .F. );
#234 = ORIENTED_EDGE( '', *, *, #260, .F. );
#235 = ORIENTED_EDGE( '', *, *, #267, .F. );
#236 = CARTESIAN_POINT( '', ( 0.000000000000000, 0.000000000000000, 0.000000000000000 ) );
#237 = DIRECTION( '', ( 0.000000000000000, 1.00000000000000, 0.000000000000000 ) );
#238 = DIRECTION( '', ( 0.000000000000000, -0.000000000000000, 1.00000000000000 ) );
#239 = FILL_AREA_STYLE( '', ( #271 ) );
#240 = EDGE_CURVE( '', #272, #273, #274, .T. );
#241 = EDGE_CURVE( '', #275, #272, #276, .T. );
#242 = EDGE_CURVE( '', #275, #277, #278, .T. );
#243 = EDGE_CURVE( '', #277, #273, #279, .T. );
#244 = FILL_AREA_STYLE( '', ( #280 ) );
#245 = EDGE_CURVE( '', #281, #281, #282, .T. );
#246 = EDGE_CURVE( '', #283, #283, #284, .T. );
#247 = FILL_AREA_STYLE( '', ( #285 ) );
#248 = EDGE_CURVE( '', #286, #287, #288, .T. );
#249 = EDGE_CURVE( '', #289, #286, #290, .T. );
#250 = EDGE_CURVE( '', #289, #291, #292, .T. );
#251 = EDGE_CURVE( '', #291, #287, #293, .T. );
#252 = FILL_AREA_STYLE( '', ( #294 ) );
#253 = EDGE_CURVE( '', #295, #295, #296, .T. );
#254 = EDGE_CURVE( '', #287, #297, #298, .T. );
#255 = EDGE_CURVE( '', #297, #299, #300, .T. );
#256 = EDGE_CURVE( '', #299, #272, #301, .T. );
#257 = EDGE_CURVE( '', #273, #286, #302, .T. );
#258 = FILL_AREA_STYLE( '', ( #303 ) );
#259 = EDGE_CURVE( '', #304, #299, #305, .T. );
#260 = EDGE_CURVE( '', #304, #275, #306, .T. );
#261 = FILL_AREA_STYLE( '', ( #307 ) );
#262 = FILL_AREA_STYLE( '', ( #308 ) );
#263 = FILL_AREA_STYLE( '', ( #309 ) );
#264 = EDGE_CURVE( '', #277, #289, #310, .T. );
#265 = FILL_AREA_STYLE( '', ( #311 ) );
#266 = EDGE_CURVE( '', #312, #297, #313, .T. );
#267 = EDGE_CURVE( '', #312, #304, #314, .T. );
#268 = FILL_AREA_STYLE( '', ( #315 ) );
#269 = EDGE_CURVE( '', #291, #312, #316, .T. );
#270 = FILL_AREA_STYLE( '', ( #317 ) );
#271 = FILL_AREA_STYLE_COLOUR( '', #318 );
#272 = VERTEX_POINT( '', #319 );
#273 = VERTEX_POINT( '', #320 );
#274 = LINE( '', #321, #322 );
#275 = VERTEX_POINT( '', #323 );
#276 = LINE( '', #324, #325 );
#277 = VERTEX_POINT( '', #326 );
#278 = LINE( '', #327, #328 );
#279 = LINE( '', #329, #330 );
#280 = FILL_AREA_STYLE_COLOUR( '', #331 );
#281 = VERTEX_POINT( '', #332 );
#282 = CIRCLE( '', #333, 5.00000000000000 );
#283 = VERTEX_POINT( '', #334 );
#284 = CIRCLE( '', #335, 4.08000000000000 );
#285 = FILL_AREA_STYLE_COLOUR( '', #336 );
#286 = VERTEX_POINT( '', #337 );
#287 = VERTEX_POINT( '', #338 );
#288 = LINE( '', #339, #340 );
#289 = VERTEX_POINT( '', #341 );
#290 = LINE( '', #342, #343 );
#291 = VERTEX_POINT( '', #344 );
#292 = LINE( '', #345, #346 );
#293 = LINE( '', #347, #348 );
#294 = FILL_AREA_STYLE_COLOUR( '', #349 );
#295 = VERTEX_POINT( '', #350 );
#296 = CIRCLE( '', #351, 5.00000000000000 );
#297 = VERTEX_POINT( '', #352 );
#298 = LINE( '', #353, #354 );
#299 = VERTEX_POINT( '', #355 );
#300 = LINE( '', #356, #357 );
#301 = LINE( '', #358, #359 );
#302 = LINE( '', #360, #361 );
#303 = FILL_AREA_STYLE_COLOUR( '', #362 );
#304 = VERTEX_POINT( '', #363 );
#305 = LINE( '', #364, #365 );
#306 = LINE( '', #366, #367 );
#307 = FILL_AREA_STYLE_COLOUR( '', #368 );
#308 = FILL_AREA_STYLE_COLOUR( '', #369 );
#309 = FILL_AREA_STYLE_COLOUR( '', #370 );
#310 = LINE( '', #371, #372 );
#311 = FILL_AREA_STYLE_COLOUR( '', #373 );
#312 = VERTEX_POINT( '', #374 );
#313 = LINE( '', #375, #376 );
#314 = LINE( '', #377, #378 );
#315 = FILL_AREA_STYLE_COLOUR( '', #379 );
#316 = LINE( '', #380, #381 );
#317 = FILL_AREA_STYLE_COLOUR( '', #382 );
#318 = COLOUR_RGB( '', 0.689999997600000, 0.689999997600000, 0.689999997600000 );
#319 = CARTESIAN_POINT( '', ( 12.5000000000000, 7.50000000000000, 7.21687836487032 ) );
#320 = CARTESIAN_POINT( '', ( 12.5000000000000, 7.50000000000000, -7.21687836487032 ) );
#321 = CARTESIAN_POINT( '', ( 12.5000000000000, 7.50000000000000, 7.21687836487032 ) );
#322 = VECTOR( '', #383, 1000.00000000000 );
#323 = CARTESIAN_POINT( '', ( 12.1725429281862, 0.000000000000000, 7.02782093631055 ) );
#324 = CARTESIAN_POINT( '', ( 12.4841546247884, 7.13708124112571, 7.20773003322647 ) );
#325 = VECTOR( '', #384, 1000.00000000000 );
#326 = CARTESIAN_POINT( '', ( 12.1725429281862, 0.000000000000000, -7.02782093631055 ) );
#327 = CARTESIAN_POINT( '', ( 12.1725429281862, 0.000000000000000, 0.000000000000000 ) );
#328 = VECTOR( '', #385, 1000.00000000000 );
#329 = CARTESIAN_POINT( '', ( 12.4841546247884, 7.13708124112570, -7.20773003322647 ) );
#330 = VECTOR( '', #386, 1000.00000000000 );
#331 = COLOUR_RGB( '', 0.689999997600000, 0.689999997600000, 0.689999997600000 );
#332 = CARTESIAN_POINT( '', ( 0.000000000000000, 36.5800000000000, -5.00000000000000 ) );
#333 = AXIS2_PLACEMENT_3D( '', #387, #388, #389 );
#334 = CARTESIAN_POINT( '', ( 0.000000000000000, 37.5000000000000, -4.08000000000000 ) );
#335 = AXIS2_PLACEMENT_3D( '', #390, #391, #392 );
#336 = COLOUR_RGB( '', 0.689999997600000, 0.689999997600000, 0.689999997600000 );
#337 = CARTESIAN_POINT( '', ( 0.000000000000000, 7.50000000000000, -14.4337567297406 ) );
#338 = CARTESIAN_POINT( '', ( -12.5000000000000, 7.50000000000000, -7.21687836487032 ) );
#339 = CARTESIAN_POINT( '', ( 0.000000000000000, 7.50000000000000, -14.4337567297406 ) );
#340 = VECTOR( '', #393, 1000.00000000000 );
#341 = CARTESIAN_POINT( '', ( -4.39010374806836E-16, 0.000000000000000, -14.0556418726211 ) );
#342 = CARTESIAN_POINT( '', ( 0.000000000000000, 7.13708124112571, -14.4154600664529 ) );
#343 = VECTOR( '', #394, 1000.00000000000 );
#344 = CARTESIAN_POINT( '', ( -12.1725429281862, 0.000000000000000, -7.02782093631055 ) );
#345 = CARTESIAN_POINT( '', ( -6.08627146409308, 0.000000000000000, -10.5417314044658 ) );
#346 = VECTOR( '', #395, 1000.00000000000 );
#347 = CARTESIAN_POINT( '', ( -12.4841546247884, 7.13708124112571, -7.20773003322647 ) );
#348 = VECTOR( '', #396, 1000.00000000000 );
#349 = COLOUR_RGB( '', 0.689999997600000, 0.689999997600000, 0.689999997600000 );
#350 = CARTESIAN_POINT( '', ( 0.000000000000000, 7.50000000000000, -5.00000000000000 ) );
#351 = AXIS2_PLACEMENT_3D( '', #397, #398, #399 );
#352 = CARTESIAN_POINT( '', ( -12.5000000000000, 7.50000000000000, 7.21687836487032 ) );
#353 = CARTESIAN_POINT( '', ( -12.5000000000000, 7.50000000000000, -7.21687836487032 ) );
#354 = VECTOR( '', #400, 1000.00000000000 );
#355 = CARTESIAN_POINT( '', ( 0.000000000000000, 7.50000000000000, 14.4337567297406 ) );
#356 = CARTESIAN_POINT( '', ( -12.5000000000000, 7.50000000000000, 7.21687836487032 ) );
#357 = VECTOR( '', #401, 1000.00000000000 );
#358 = CARTESIAN_POINT( '', ( 0.000000000000000, 7.50000000000000, 14.4337567297406 ) );
#359 = VECTOR( '', #402, 1000.00000000000 );
#360 = CARTESIAN_POINT( '', ( 12.5000000000000, 7.50000000000000, -7.21687836487032 ) );
#361 = VECTOR( '', #403, 1000.00000000000 );
#362 = COLOUR_RGB( '', 0.689999997600000, 0.689999997600000, 0.689999997600000 );
#363 = CARTESIAN_POINT( '', ( 4.39010374806836E-16, 0.000000000000000, 14.0556418726211 ) );
#364 = CARTESIAN_POINT( '', ( 0.000000000000000, 7.13708124112571, 14.4154600664529 ) );
#365 = VECTOR( '', #404, 1000.00000000000 );
#366 = CARTESIAN_POINT( '', ( 6.08627146409308, 0.000000000000000, 10.5417314044658 ) );
#367 = VECTOR( '', #405, 1000.00000000000 );
#368 = COLOUR_RGB( '', 0.689999997600000, 0.689999997600000, 0.689999997600000 );
#369 = COLOUR_RGB( '', 0.689999997600000, 0.689999997600000, 0.689999997600000 );
#370 = COLOUR_RGB( '', 0.689999997600000, 0.689999997600000, 0.689999997600000 );
#371 = CARTESIAN_POINT( '', ( 6.08627146409308, 0.000000000000000, -10.5417314044658 ) );
#372 = VECTOR( '', #406, 1000.00000000000 );
#373 = COLOUR_RGB( '', 0.689999997600000, 0.689999997600000, 0.689999997600000 );
#374 = CARTESIAN_POINT( '', ( -12.1725429281862, 0.000000000000000, 7.02782093631055 ) );
#375 = CARTESIAN_POINT( '', ( -12.4841546247884, 7.13708124112570, 7.20773003322647 ) );
#376 = VECTOR( '', #407, 1000.00000000000 );
#377 = CARTESIAN_POINT( '', ( -6.08627146409308, 0.000000000000000, 10.5417314044658 ) );
#378 = VECTOR( '', #408, 1000.00000000000 );
#379 = COLOUR_RGB( '', 0.689999997600000, 0.689999997600000, 0.689999997600000 );
#380 = CARTESIAN_POINT( '', ( -12.1725429281862, 0.000000000000000, 0.000000000000000 ) );
#381 = VECTOR( '', #409, 1000.00000000000 );
#382 = COLOUR_RGB( '', 0.689999997600000, 0.689999997600000, 0.689999997600000 );
#383 = DIRECTION( '', ( 0.000000000000000, 0.000000000000000, -1.00000000000000 ) );
#384 = DIRECTION( '', ( 0.0436055618630999, 0.998731565520054, 0.0251756828798256 ) );
#385 = DIRECTION( '', ( 0.000000000000000, 0.000000000000000, -1.00000000000000 ) );
#386 = DIRECTION( '', ( 0.0436055618630999, 0.998731565520054, -0.0251756828798256 ) );
#387 = CARTESIAN_POINT( '', ( 0.000000000000000, 36.5800000000000, 0.000000000000000 ) );
#388 = DIRECTION( '', ( 0.000000000000000, -1.00000000000000, -0.000000000000000 ) );
#389 = DIRECTION( '', ( 0.000000000000000, 0.000000000000000, -1.00000000000000 ) );
#390 = CARTESIAN_POINT( '', ( 0.000000000000000, 37.5000000000000, 0.000000000000000 ) );
#391 = DIRECTION( '', ( 0.000000000000000, -1.00000000000000, -0.000000000000000 ) );
#392 = DIRECTION( '', ( 0.000000000000000, 0.000000000000000, -1.00000000000000 ) );
#393 = DIRECTION( '', ( -0.866025403784439, 0.000000000000000, 0.500000000000000 ) );
#394 = DIRECTION( '', ( 0.000000000000000, 0.998731565520054, -0.0503513657596513 ) );
#395 = DIRECTION( '', ( -0.866025403784439, 0.000000000000000, 0.500000000000000 ) );
#396 = DIRECTION( '', ( -0.0436055618630999, 0.998731565520054, -0.0251756828798256 ) );
#397 = CARTESIAN_POINT( '', ( 0.000000000000000, 7.50000000000000, 0.000000000000000 ) );
#398 = DIRECTION( '', ( 0.000000000000000, -1.00000000000000, -0.000000000000000 ) );
#399 = DIRECTION( '', ( 0.000000000000000, 0.000000000000000, -1.00000000000000 ) );
#400 = DIRECTION( '', ( 0.000000000000000, 0.000000000000000, 1.00000000000000 ) );
#401 = DIRECTION( '', ( 0.866025403784439, 0.000000000000000, 0.500000000000000 ) );
#402 = DIRECTION( '', ( 0.866025403784439, 0.000000000000000, -0.500000000000000 ) );
#403 = DIRECTION( '', ( -0.866025403784439, 0.000000000000000, -0.500000000000000 ) );
#404 = DIRECTION( '', ( 0.000000000000000, 0.998731565520054, 0.0503513657596513 ) );
#405 = DIRECTION( '', ( 0.866025403784439, 0.000000000000000, -0.500000000000000 ) );
#406 = DIRECTION( '', ( -0.866025403784439, 0.000000000000000, -0.500000000000000 ) );
#407 = DIRECTION( '', ( -0.0436055618630999, 0.998731565520054, 0.0251756828798256 ) );
#408 = DIRECTION( '', ( 0.866025403784439, 0.000000000000000, 0.500000000000000 ) );
#409 = DIRECTION( '', ( 0.000000000000000, 0.000000000000000, 1.00000000000000 ) );
ENDSEC;
END-ISO-10303-21;
