ISO-10303-21;
HEADER;
FILE_DESCRIPTION( ( 'STEP AP214' ), '1' );
FILE_NAME( '//goodhand-server/Shared Folders/GoodHand Data/Kipp CAD/K0390/K0390.20X100.stp', '2020-12-07T10:15:10', ( '' ), ( '' ), ' ', 'PARTsolutions', ' ' );
FILE_SCHEMA( ( 'AUTOMOTIVE_DESIGN { 1 0 10303 214 1 1 1 1 }' ) );
ENDSEC;
DATA;
#1 = MECHANICAL_DESIGN_GEOMETRIC_PRESENTATION_REPRESENTATION( ' ', ( #10, #11, #12, #13, #14, #15, #16, #17, #18, #19, #20, #21, #22 ), #6 );
#2 = PRODUCT_DEFINITION_CONTEXT( '', #23, 'design' );
#3 = APPLICATION_PROTOCOL_DEFINITION( 'international standard', 'automotive_design', 2001, #23 );
#4 = PRODUCT_CATEGORY_RELATIONSHIP( 'NONE', 'NONE', #24, #25 );
#5 = SHAPE_DEFINITION_REPRESENTATION( #26, #27 );
#6 =  ( GEOMETRIC_REPRESENTATION_CONTEXT( 3 )GLOBAL_UNCERTAINTY_ASSIGNED_CONTEXT( ( #30 ) )GLOBAL_UNIT_ASSIGNED_CONTEXT( ( #32, #33, #34 ) )REPRESENTATION_CONTEXT( 'NONE', 'WORKSPACE' ) );
#10 = STYLED_ITEM( '', ( #36 ), #37 );
#11 = STYLED_ITEM( '', ( #38 ), #39 );
#12 = STYLED_ITEM( '', ( #40 ), #41 );
#13 = STYLED_ITEM( '', ( #42 ), #43 );
#14 = STYLED_ITEM( '', ( #44 ), #45 );
#15 = STYLED_ITEM( '', ( #46 ), #47 );
#16 = STYLED_ITEM( '', ( #48 ), #49 );
#17 = STYLED_ITEM( '', ( #50 ), #51 );
#18 = STYLED_ITEM( '', ( #52 ), #53 );
#19 = STYLED_ITEM( '', ( #54 ), #55 );
#20 = STYLED_ITEM( '', ( #56 ), #57 );
#21 = STYLED_ITEM( '', ( #58 ), #59 );
#22 = STYLED_ITEM( '', ( #60 ), #61 );
#23 = APPLICATION_CONTEXT( 'core data for automotive mechanical design processes' );
#24 = PRODUCT_CATEGORY( 'part', 'NONE' );
#25 = PRODUCT_RELATED_PRODUCT_CATEGORY( 'detail', ' ', ( #62 ) );
#26 = PRODUCT_DEFINITION_SHAPE( 'NONE', 'NONE', #63 );
#27 = ADVANCED_BREP_SHAPE_REPRESENTATION( '_K0390.20X100', ( #64, #65 ), #6 );
#30 = UNCERTAINTY_MEASURE_WITH_UNIT( LENGTH_MEASURE( 0.00100000000000000 ), #32, '', '' );
#32 =  ( CONVERSION_BASED_UNIT( 'MILLIMETRE', #68 )LENGTH_UNIT(  )NAMED_UNIT( #71 ) );
#33 =  ( NAMED_UNIT( #73 )PLANE_ANGLE_UNIT(  )SI_UNIT( $, .RADIAN. ) );
#34 =  ( NAMED_UNIT( #73 )SI_UNIT( $, .STERADIAN. )SOLID_ANGLE_UNIT(  ) );
#36 = PRESENTATION_STYLE_ASSIGNMENT( ( #79 ) );
#37 = ADVANCED_FACE( '', ( #80, #81 ), #82, .T. );
#38 = PRESENTATION_STYLE_ASSIGNMENT( ( #83 ) );
#39 = ADVANCED_FACE( '', ( #84 ), #85, .F. );
#40 = PRESENTATION_STYLE_ASSIGNMENT( ( #86 ) );
#41 = ADVANCED_FACE( '', ( #87, #88 ), #89, .T. );
#42 = PRESENTATION_STYLE_ASSIGNMENT( ( #90 ) );
#43 = ADVANCED_FACE( '', ( #91 ), #92, .T. );
#44 = PRESENTATION_STYLE_ASSIGNMENT( ( #93 ) );
#45 = ADVANCED_FACE( '', ( #94 ), #95, .F. );
#46 = PRESENTATION_STYLE_ASSIGNMENT( ( #96 ) );
#47 = ADVANCED_FACE( '', ( #97 ), #98, .T. );
#48 = PRESENTATION_STYLE_ASSIGNMENT( ( #99 ) );
#49 = ADVANCED_FACE( '', ( #100, #101 ), #102, .T. );
#50 = PRESENTATION_STYLE_ASSIGNMENT( ( #103 ) );
#51 = ADVANCED_FACE( '', ( #104, #105 ), #106, .T. );
#52 = PRESENTATION_STYLE_ASSIGNMENT( ( #107 ) );
#53 = ADVANCED_FACE( '', ( #108, #109 ), #110, .T. );
#54 = PRESENTATION_STYLE_ASSIGNMENT( ( #111 ) );
#55 = ADVANCED_FACE( '', ( #112 ), #113, .F. );
#56 = PRESENTATION_STYLE_ASSIGNMENT( ( #114 ) );
#57 = ADVANCED_FACE( '', ( #115, #116 ), #117, .F. );
#58 = PRESENTATION_STYLE_ASSIGNMENT( ( #118 ) );
#59 = ADVANCED_FACE( '', ( #119 ), #120, .F. );
#60 = PRESENTATION_STYLE_ASSIGNMENT( ( #121 ) );
#61 = ADVANCED_FACE( '', ( #122 ), #123, .T. );
#62 = PRODUCT( '_K0390.20X100', '_K0390.20X100', 'PART-_K0390.20X100-DESC', ( #124 ) );
#63 = PRODUCT_DEFINITION( 'NONE', 'NONE', #125, #2 );
#64 = MANIFOLD_SOLID_BREP( '_K0390.20X100', #126 );
#65 = AXIS2_PLACEMENT_3D( '', #127, #128, #129 );
#68 = LENGTH_MEASURE_WITH_UNIT( LENGTH_MEASURE( 1.00000000000000 ), #130 );
#71 = DIMENSIONAL_EXPONENTS( 1.00000000000000, 0.000000000000000, 0.000000000000000, 0.000000000000000, 0.000000000000000, 0.000000000000000, 0.000000000000000 );
#73 = DIMENSIONAL_EXPONENTS( 0.000000000000000, 0.000000000000000, 0.000000000000000, 0.000000000000000, 0.000000000000000, 0.000000000000000, 0.000000000000000 );
#79 = SURFACE_STYLE_USAGE( .BOTH., #131 );
#80 = FACE_OUTER_BOUND( '', #132, .T. );
#81 = FACE_OUTER_BOUND( '', #133, .T. );
#82 = CYLINDRICAL_SURFACE( '', #134, 7.20000000000000 );
#83 = SURFACE_STYLE_USAGE( .BOTH., #135 );
#84 = FACE_OUTER_BOUND( '', #136, .T. );
#85 = PLANE( '', #137 );
#86 = SURFACE_STYLE_USAGE( .BOTH., #138 );
#87 = FACE_OUTER_BOUND( '', #139, .T. );
#88 = FACE_OUTER_BOUND( '', #140, .T. );
#89 = CYLINDRICAL_SURFACE( '', #141, 10.0000000000000 );
#90 = SURFACE_STYLE_USAGE( .BOTH., #142 );
#91 = FACE_OUTER_BOUND( '', #143, .T. );
#92 = CONICAL_SURFACE( '', #144, 8.46650000000000, 0.785398163400000 );
#93 = SURFACE_STYLE_USAGE( .BOTH., #145 );
#94 = FACE_OUTER_BOUND( '', #146, .T. );
#95 = PLANE( '', #147 );
#96 = SURFACE_STYLE_USAGE( .BOTH., #148 );
#97 = FACE_OUTER_BOUND( '', #149, .T. );
#98 = CONICAL_SURFACE( '', #150, 8.46650000000000, 0.785398163400000 );
#99 = SURFACE_STYLE_USAGE( .BOTH., #151 );
#100 = FACE_BOUND( '', #152, .T. );
#101 = FACE_OUTER_BOUND( '', #153, .T. );
#102 = SPHERICAL_SURFACE( '', #154, 12.9998500000000 );
#103 = SURFACE_STYLE_USAGE( .BOTH., #155 );
#104 = FACE_OUTER_BOUND( '', #156, .T. );
#105 = FACE_OUTER_BOUND( '', #157, .T. );
#106 = CYLINDRICAL_SURFACE( '', #158, 7.75000000000000 );
#107 = SURFACE_STYLE_USAGE( .BOTH., #159 );
#108 = FACE_BOUND( '', #160, .T. );
#109 = FACE_OUTER_BOUND( '', #161, .T. );
#110 = CONICAL_SURFACE( '', #162, 10.0000000000000, 1.12234211560000 );
#111 = SURFACE_STYLE_USAGE( .BOTH., #163 );
#112 = FACE_OUTER_BOUND( '', #164, .T. );
#113 = PLANE( '', #165 );
#114 = SURFACE_STYLE_USAGE( .BOTH., #166 );
#115 = FACE_OUTER_BOUND( '', #167, .T. );
#116 = FACE_BOUND( '', #168, .T. );
#117 = PLANE( '', #169 );
#118 = SURFACE_STYLE_USAGE( .BOTH., #170 );
#119 = FACE_OUTER_BOUND( '', #171, .T. );
#120 = PLANE( '', #172 );
#121 = SURFACE_STYLE_USAGE( .BOTH., #173 );
#122 = FACE_OUTER_BOUND( '', #174, .T. );
#123 = PLANE( '', #175 );
#124 = PRODUCT_CONTEXT( '', #23, 'mechanical' );
#125 = PRODUCT_DEFINITION_FORMATION_WITH_SPECIFIED_SOURCE( ' ', 'NONE', #62, .NOT_KNOWN. );
#126 = CLOSED_SHELL( '', ( #39, #45, #49, #51, #57, #37, #53, #41, #47, #59, #43, #55, #61 ) );
#127 = CARTESIAN_POINT( '', ( 0.000000000000000, 0.000000000000000, 0.000000000000000 ) );
#128 = DIRECTION( '', ( 0.000000000000000, 0.000000000000000, 1.00000000000000 ) );
#129 = DIRECTION( '', ( 1.00000000000000, 0.000000000000000, 0.000000000000000 ) );
#130 =  ( LENGTH_UNIT(  )NAMED_UNIT( #71 )SI_UNIT( .MILLI., .METRE. ) );
#131 = SURFACE_SIDE_STYLE( '', ( #177 ) );
#132 = EDGE_LOOP( '', ( #178 ) );
#133 = EDGE_LOOP( '', ( #179 ) );
#134 = AXIS2_PLACEMENT_3D( '', #180, #181, #182 );
#135 = SURFACE_SIDE_STYLE( '', ( #183 ) );
#136 = EDGE_LOOP( '', ( #184, #185, #186, #187, #188, #189 ) );
#137 = AXIS2_PLACEMENT_3D( '', #190, #191, #192 );
#138 = SURFACE_SIDE_STYLE( '', ( #193 ) );
#139 = EDGE_LOOP( '', ( #194 ) );
#140 = EDGE_LOOP( '', ( #195, #196, #197, #198, #199, #200, #201, #202 ) );
#141 = AXIS2_PLACEMENT_3D( '', #203, #204, #205 );
#142 = SURFACE_SIDE_STYLE( '', ( #206 ) );
#143 = EDGE_LOOP( '', ( #207, #208, #209, #210 ) );
#144 = AXIS2_PLACEMENT_3D( '', #211, #212, #213 );
#145 = SURFACE_SIDE_STYLE( '', ( #214 ) );
#146 = EDGE_LOOP( '', ( #215, #216, #217, #218, #219, #220 ) );
#147 = AXIS2_PLACEMENT_3D( '', #221, #222, #223 );
#148 = SURFACE_SIDE_STYLE( '', ( #224 ) );
#149 = EDGE_LOOP( '', ( #225, #226, #227, #228 ) );
#150 = AXIS2_PLACEMENT_3D( '', #229, #230, #231 );
#151 = SURFACE_SIDE_STYLE( '', ( #232 ) );
#152 = VERTEX_LOOP( '', #233 );
#153 = EDGE_LOOP( '', ( #234 ) );
#154 = AXIS2_PLACEMENT_3D( '', #235, #236, #237 );
#155 = SURFACE_SIDE_STYLE( '', ( #238 ) );
#156 = EDGE_LOOP( '', ( #239 ) );
#157 = EDGE_LOOP( '', ( #240 ) );
#158 = AXIS2_PLACEMENT_3D( '', #241, #242, #243 );
#159 = SURFACE_SIDE_STYLE( '', ( #244 ) );
#160 = EDGE_LOOP( '', ( #245 ) );
#161 = EDGE_LOOP( '', ( #246 ) );
#162 = AXIS2_PLACEMENT_3D( '', #247, #248, #249 );
#163 = SURFACE_SIDE_STYLE( '', ( #250 ) );
#164 = EDGE_LOOP( '', ( #251, #252 ) );
#165 = AXIS2_PLACEMENT_3D( '', #253, #254, #255 );
#166 = SURFACE_SIDE_STYLE( '', ( #256 ) );
#167 = EDGE_LOOP( '', ( #257 ) );
#168 = EDGE_LOOP( '', ( #258 ) );
#169 = AXIS2_PLACEMENT_3D( '', #259, #260, #261 );
#170 = SURFACE_SIDE_STYLE( '', ( #262 ) );
#171 = EDGE_LOOP( '', ( #263, #264 ) );
#172 = AXIS2_PLACEMENT_3D( '', #265, #266, #267 );
#173 = SURFACE_SIDE_STYLE( '', ( #268 ) );
#174 = EDGE_LOOP( '', ( #269, #270, #271, #272 ) );
#175 = AXIS2_PLACEMENT_3D( '', #273, #274, #275 );
#177 = SURFACE_STYLE_FILL_AREA( #276 );
#178 = ORIENTED_EDGE( '', *, *, #277, .F. );
#179 = ORIENTED_EDGE( '', *, *, #278, .T. );
#180 = CARTESIAN_POINT( '', ( 100.000000000000, -7.10542735760100E-15, 0.000000000000000 ) );
#181 = DIRECTION( '', ( -1.00000000000000, 6.12323399573677E-17, 0.000000000000000 ) );
#182 = DIRECTION( '', ( 6.12323399573677E-17, 1.00000000000000, 0.000000000000000 ) );
#183 = SURFACE_STYLE_FILL_AREA( #279 );
#184 = ORIENTED_EDGE( '', *, *, #280, .F. );
#185 = ORIENTED_EDGE( '', *, *, #281, .T. );
#186 = ORIENTED_EDGE( '', *, *, #282, .F. );
#187 = ORIENTED_EDGE( '', *, *, #283, .F. );
#188 = ORIENTED_EDGE( '', *, *, #284, .F. );
#189 = ORIENTED_EDGE( '', *, *, #285, .F. );
#190 = CARTESIAN_POINT( '', ( 3.00000000000000, 0.899999999999999, 10.5000000000000 ) );
#191 = DIRECTION( '', ( 0.000000000000000, 1.00000000000000, 0.000000000000000 ) );
#192 = DIRECTION( '', ( 0.000000000000000, -0.000000000000000, 1.00000000000000 ) );
#193 = SURFACE_STYLE_FILL_AREA( #286 );
#194 = ORIENTED_EDGE( '', *, *, #287, .F. );
#195 = ORIENTED_EDGE( '', *, *, #288, .T. );
#196 = ORIENTED_EDGE( '', *, *, #289, .T. );
#197 = ORIENTED_EDGE( '', *, *, #290, .F. );
#198 = ORIENTED_EDGE( '', *, *, #283, .T. );
#199 = ORIENTED_EDGE( '', *, *, #291, .T. );
#200 = ORIENTED_EDGE( '', *, *, #285, .T. );
#201 = ORIENTED_EDGE( '', *, *, #292, .F. );
#202 = ORIENTED_EDGE( '', *, *, #293, .T. );
#203 = CARTESIAN_POINT( '', ( 100.000000000000, -7.10542735760100E-15, 0.000000000000000 ) );
#204 = DIRECTION( '', ( -1.00000000000000, 6.12323399573677E-17, 0.000000000000000 ) );
#205 = DIRECTION( '', ( 6.12323399573677E-17, 1.00000000000000, 0.000000000000000 ) );
#206 = SURFACE_STYLE_FILL_AREA( #294 );
#207 = ORIENTED_EDGE( '', *, *, #288, .F. );
#208 = ORIENTED_EDGE( '', *, *, #295, .T. );
#209 = ORIENTED_EDGE( '', *, *, #296, .T. );
#210 = ORIENTED_EDGE( '', *, *, #297, .T. );
#211 = CARTESIAN_POINT( '', ( 0.000000000000000, -9.82193361864234E-16, 0.000000000000000 ) );
#212 = DIRECTION( '', ( 1.00000000000000, -6.12323399573677E-17, -0.000000000000000 ) );
#213 = DIRECTION( '', ( 6.12323399573677E-17, 1.00000000000000, 0.000000000000000 ) );
#214 = SURFACE_STYLE_FILL_AREA( #298 );
#215 = ORIENTED_EDGE( '', *, *, #299, .T. );
#216 = ORIENTED_EDGE( '', *, *, #295, .F. );
#217 = ORIENTED_EDGE( '', *, *, #293, .F. );
#218 = ORIENTED_EDGE( '', *, *, #300, .F. );
#219 = ORIENTED_EDGE( '', *, *, #289, .F. );
#220 = ORIENTED_EDGE( '', *, *, #297, .F. );
#221 = CARTESIAN_POINT( '', ( 3.00000000000000, -0.900000000000001, -10.5000000000000 ) );
#222 = DIRECTION( '', ( 0.000000000000000, -1.00000000000000, 0.000000000000000 ) );
#223 = DIRECTION( '', ( 0.000000000000000, 0.000000000000000, -1.00000000000000 ) );
#224 = SURFACE_STYLE_FILL_AREA( #301 );
#225 = ORIENTED_EDGE( '', *, *, #302, .T. );
#226 = ORIENTED_EDGE( '', *, *, #280, .T. );
#227 = ORIENTED_EDGE( '', *, *, #291, .F. );
#228 = ORIENTED_EDGE( '', *, *, #282, .T. );
#229 = CARTESIAN_POINT( '', ( 0.000000000000000, -9.82193361864234E-16, 0.000000000000000 ) );
#230 = DIRECTION( '', ( 1.00000000000000, -6.12323399573677E-17, -0.000000000000000 ) );
#231 = DIRECTION( '', ( 6.12323399573677E-17, 1.00000000000000, 0.000000000000000 ) );
#232 = SURFACE_STYLE_FILL_AREA( #303 );
#233 = VERTEX_POINT( '', #304 );
#234 = ORIENTED_EDGE( '', *, *, #305, .T. );
#235 = CARTESIAN_POINT( '', ( 87.0001500000002, 4.68375338513738E-14, 0.000000000000000 ) );
#236 = DIRECTION( '', ( 1.00000000000000, 0.000000000000000, 0.000000000000000 ) );
#237 = DIRECTION( '', ( 0.000000000000000, -1.00000000000000, 0.000000000000000 ) );
#238 = SURFACE_STYLE_FILL_AREA( #306 );
#239 = ORIENTED_EDGE( '', *, *, #305, .F. );
#240 = ORIENTED_EDGE( '', *, *, #307, .T. );
#241 = CARTESIAN_POINT( '', ( 100.000000000000, -7.10542735760100E-15, 0.000000000000000 ) );
#242 = DIRECTION( '', ( -1.00000000000000, 6.12323399573677E-17, 0.000000000000000 ) );
#243 = DIRECTION( '', ( 6.12323399573677E-17, 1.00000000000000, 0.000000000000000 ) );
#244 = SURFACE_STYLE_FILL_AREA( #308 );
#245 = ORIENTED_EDGE( '', *, *, #278, .F. );
#246 = ORIENTED_EDGE( '', *, *, #287, .T. );
#247 = CARTESIAN_POINT( '', ( 86.0000000000000, -6.24817459819785E-15, 0.000000000000000 ) );
#248 = DIRECTION( '', ( -1.00000000000000, 6.12323399573677E-17, -0.000000000000000 ) );
#249 = DIRECTION( '', ( -6.12323399573677E-17, -1.00000000000000, 0.000000000000000 ) );
#250 = SURFACE_STYLE_FILL_AREA( #309 );
#251 = ORIENTED_EDGE( '', *, *, #302, .F. );
#252 = ORIENTED_EDGE( '', *, *, #281, .F. );
#253 = CARTESIAN_POINT( '', ( -2.59211803124527E-16, -9.82193361864235E-16, 0.000000000000000 ) );
#254 = DIRECTION( '', ( 1.00000000000000, -6.12323399573677E-17, -0.000000000000000 ) );
#255 = DIRECTION( '', ( 6.12323399573677E-17, 1.00000000000000, 0.000000000000000 ) );
#256 = SURFACE_STYLE_FILL_AREA( #310 );
#257 = ORIENTED_EDGE( '', *, *, #307, .F. );
#258 = ORIENTED_EDGE( '', *, *, #277, .T. );
#259 = CARTESIAN_POINT( '', ( 94.5000000000000, 7.19999999999999, 0.000000000000000 ) );
#260 = DIRECTION( '', ( 1.00000000000000, -6.12323399573677E-17, -0.000000000000000 ) );
#261 = DIRECTION( '', ( 6.12323399573677E-17, 1.00000000000000, 0.000000000000000 ) );
#262 = SURFACE_STYLE_FILL_AREA( #311 );
#263 = ORIENTED_EDGE( '', *, *, #296, .F. );
#264 = ORIENTED_EDGE( '', *, *, #299, .F. );
#265 = CARTESIAN_POINT( '', ( -2.59211803124527E-16, -9.82193361864235E-16, 0.000000000000000 ) );
#266 = DIRECTION( '', ( 1.00000000000000, -6.12323399573677E-17, -0.000000000000000 ) );
#267 = DIRECTION( '', ( 6.12323399573677E-17, 1.00000000000000, 0.000000000000000 ) );
#268 = SURFACE_STYLE_FILL_AREA( #312 );
#269 = ORIENTED_EDGE( '', *, *, #290, .T. );
#270 = ORIENTED_EDGE( '', *, *, #300, .T. );
#271 = ORIENTED_EDGE( '', *, *, #292, .T. );
#272 = ORIENTED_EDGE( '', *, *, #284, .T. );
#273 = CARTESIAN_POINT( '', ( 3.00000000000000, 0.000000000000000, 0.000000000000000 ) );
#274 = DIRECTION( '', ( -1.00000000000000, 0.000000000000000, 0.000000000000000 ) );
#275 = DIRECTION( '', ( 0.000000000000000, 0.000000000000000, 1.00000000000000 ) );
#276 = FILL_AREA_STYLE( '', ( #313 ) );
#277 = EDGE_CURVE( '', #314, #314, #315, .T. );
#278 = EDGE_CURVE( '', #316, #316, #317, .T. );
#279 = FILL_AREA_STYLE( '', ( #318 ) );
#280 = EDGE_CURVE( '', #319, #320, #321, .T. );
#281 = EDGE_CURVE( '', #319, #322, #323, .T. );
#282 = EDGE_CURVE( '', #324, #322, #325, .T. );
#283 = EDGE_CURVE( '', #326, #324, #327, .F. );
#284 = EDGE_CURVE( '', #328, #326, #329, .T. );
#285 = EDGE_CURVE( '', #320, #328, #330, .T. );
#286 = FILL_AREA_STYLE( '', ( #331 ) );
#287 = EDGE_CURVE( '', #332, #332, #333, .T. );
#288 = EDGE_CURVE( '', #334, #335, #336, .T. );
#289 = EDGE_CURVE( '', #335, #337, #338, .T. );
#290 = EDGE_CURVE( '', #326, #337, #339, .T. );
#291 = EDGE_CURVE( '', #324, #320, #340, .T. );
#292 = EDGE_CURVE( '', #341, #328, #342, .T. );
#293 = EDGE_CURVE( '', #341, #334, #343, .F. );
#294 = FILL_AREA_STYLE( '', ( #344 ) );
#295 = EDGE_CURVE( '', #334, #345, #346, .T. );
#296 = EDGE_CURVE( '', #345, #347, #348, .T. );
#297 = EDGE_CURVE( '', #347, #335, #349, .T. );
#298 = FILL_AREA_STYLE( '', ( #350 ) );
#299 = EDGE_CURVE( '', #347, #345, #351, .T. );
#300 = EDGE_CURVE( '', #337, #341, #352, .T. );
#301 = FILL_AREA_STYLE( '', ( #353 ) );
#302 = EDGE_CURVE( '', #322, #319, #354, .T. );
#303 = FILL_AREA_STYLE( '', ( #355 ) );
#304 = CARTESIAN_POINT( '', ( 100.000000000000, 4.52455113821842E-14, 0.000000000000000 ) );
#305 = EDGE_CURVE( '', #356, #356, #357, .T. );
#306 = FILL_AREA_STYLE( '', ( #358 ) );
#307 = EDGE_CURVE( '', #359, #359, #360, .T. );
#308 = FILL_AREA_STYLE( '', ( #361 ) );
#309 = FILL_AREA_STYLE( '', ( #362 ) );
#310 = FILL_AREA_STYLE( '', ( #363 ) );
#311 = FILL_AREA_STYLE( '', ( #364 ) );
#312 = FILL_AREA_STYLE( '', ( #365 ) );
#313 = FILL_AREA_STYLE_COLOUR( '', #366 );
#314 = VERTEX_POINT( '', #367 );
#315 = CIRCLE( '', #368, 7.20000000000000 );
#316 = VERTEX_POINT( '', #369 );
#317 = CIRCLE( '', #370, 7.20000000000000 );
#318 = FILL_AREA_STYLE_COLOUR( '', #371 );
#319 = VERTEX_POINT( '', #372 );
#320 = VERTEX_POINT( '', #373 );
#321 = B_SPLINE_CURVE_WITH_KNOTS( '', 3, ( #374, #375, #376, #377 ), .UNSPECIFIED., .F., .F., ( 4, 4 ), ( 0.0420335464893133, 0.0442124251860490 ), .UNSPECIFIED. );
#322 = VERTEX_POINT( '', #378 );
#323 = LINE( '', #379, #380 );
#324 = VERTEX_POINT( '', #381 );
#325 = B_SPLINE_CURVE_WITH_KNOTS( '', 3, ( #382, #383, #384, #385 ), .UNSPECIFIED., .F., .F., ( 4, 4 ), ( 0.0170363399290313, 0.0192102676191474 ), .UNSPECIFIED. );
#326 = VERTEX_POINT( '', #386 );
#327 = LINE( '', #387, #388 );
#328 = VERTEX_POINT( '', #389 );
#329 = LINE( '', #390, #391 );
#330 = LINE( '', #392, #393 );
#331 = FILL_AREA_STYLE_COLOUR( '', #394 );
#332 = VERTEX_POINT( '', #395 );
#333 = CIRCLE( '', #396, 10.0000000000000 );
#334 = VERTEX_POINT( '', #397 );
#335 = VERTEX_POINT( '', #398 );
#336 = CIRCLE( '', #399, 10.0000000000000 );
#337 = VERTEX_POINT( '', #400 );
#338 = LINE( '', #401, #402 );
#339 = CIRCLE( '', #403, 10.0000000000000 );
#340 = CIRCLE( '', #404, 10.0000000000000 );
#341 = VERTEX_POINT( '', #405 );
#342 = CIRCLE( '', #406, 10.0000000000000 );
#343 = LINE( '', #407, #408 );
#344 = FILL_AREA_STYLE_COLOUR( '', #409 );
#345 = VERTEX_POINT( '', #410 );
#346 = B_SPLINE_CURVE_WITH_KNOTS( '', 3, ( #411, #412, #413, #414 ), .UNSPECIFIED., .F., .F., ( 4, 4 ), ( 0.0170363399290313, 0.0192102676191474 ), .UNSPECIFIED. );
#347 = VERTEX_POINT( '', #415 );
#348 = CIRCLE( '', #416, 8.46650000000000 );
#349 = B_SPLINE_CURVE_WITH_KNOTS( '', 3, ( #417, #418, #419, #420 ), .UNSPECIFIED., .F., .F., ( 4, 4 ), ( 0.0420335464893133, 0.0442124251860489 ), .UNSPECIFIED. );
#350 = FILL_AREA_STYLE_COLOUR( '', #421 );
#351 = LINE( '', #422, #423 );
#352 = LINE( '', #424, #425 );
#353 = FILL_AREA_STYLE_COLOUR( '', #426 );
#354 = CIRCLE( '', #427, 8.46650000000000 );
#355 = FILL_AREA_STYLE_COLOUR( '', #428 );
#356 = VERTEX_POINT( '', #429 );
#357 = CIRCLE( '', #430, 7.75000000000000 );
#358 = FILL_AREA_STYLE_COLOUR( '', #431 );
#359 = VERTEX_POINT( '', #432 );
#360 = CIRCLE( '', #433, 7.75000000000000 );
#361 = FILL_AREA_STYLE_COLOUR( '', #434 );
#362 = FILL_AREA_STYLE_COLOUR( '', #435 );
#363 = FILL_AREA_STYLE_COLOUR( '', #436 );
#364 = FILL_AREA_STYLE_COLOUR( '', #437 );
#365 = FILL_AREA_STYLE_COLOUR( '', #438 );
#366 = COLOUR_RGB( '', 0.689999997600000, 0.689999997600000, 0.689999997600000 );
#367 = CARTESIAN_POINT( '', ( 94.5000000000000, 7.19999999999999, 0.000000000000000 ) );
#368 = AXIS2_PLACEMENT_3D( '', #439, #440, #441 );
#369 = CARTESIAN_POINT( '', ( 87.3472200000000, 7.19999999999999, 0.000000000000000 ) );
#370 = AXIS2_PLACEMENT_3D( '', #442, #443, #444 );
#371 = COLOUR_RGB( '', 0.689999997600000, 0.689999997600000, 0.689999997600000 );
#372 = CARTESIAN_POINT( '', ( 0.000000000000000, 0.899999999999999, 8.41852850859341 ) );
#373 = CARTESIAN_POINT( '', ( 1.53350000000001, 0.900000000000005, 9.95941765365827 ) );
#374 = CARTESIAN_POINT( '', ( -3.36727106945044E-16, 0.899999999999999, 8.41852850859341 ) );
#375 = CARTESIAN_POINT( '', ( 0.510941899449511, 0.899999999999999, 8.93238191982478 ) );
#376 = CARTESIAN_POINT( '', ( 1.02214318709475, 0.899999999999999, 9.44597717883550 ) );
#377 = CARTESIAN_POINT( '', ( 1.53350000000001, 0.899999999999999, 9.95941765365827 ) );
#378 = CARTESIAN_POINT( '', ( 0.000000000000000, 0.899999999999999, -8.41852850859341 ) );
#379 = CARTESIAN_POINT( '', ( 0.000000000000000, 0.899999999999999, 10.5000000000000 ) );
#380 = VECTOR( '', #445, 1000.00000000000 );
#381 = CARTESIAN_POINT( '', ( 1.53350000000001, 0.900000000000005, -9.95941765365827 ) );
#382 = CARTESIAN_POINT( '', ( 1.53350000000000, 0.899999999999999, -9.95941765365827 ) );
#383 = CARTESIAN_POINT( '', ( 1.02214317772921, 0.899999999999999, -9.44597716943180 ) );
#384 = CARTESIAN_POINT( '', ( 0.510941888387718, 0.899999999999999, -8.93238190869995 ) );
#385 = CARTESIAN_POINT( '', ( -1.68891369666574E-15, 0.899999999999999, -8.41852850859341 ) );
#386 = CARTESIAN_POINT( '', ( 3.00000000000000, 0.899999999999999, -9.95941765365827 ) );
#387 = CARTESIAN_POINT( '', ( 100.000000000000, 0.899999999999999, -9.95941765365827 ) );
#388 = VECTOR( '', #446, 1000.00000000000 );
#389 = CARTESIAN_POINT( '', ( 3.00000000000000, 0.899999999999999, 9.95941765365827 ) );
#390 = CARTESIAN_POINT( '', ( 3.00000000000000, 0.899999999999999, 10.5000000000000 ) );
#391 = VECTOR( '', #447, 1000.00000000000 );
#392 = CARTESIAN_POINT( '', ( 100.000000000000, 0.899999999999999, 9.95941765365827 ) );
#393 = VECTOR( '', #448, 1000.00000000000 );
#394 = COLOUR_RGB( '', 0.689999997600000, 0.689999997600000, 0.689999997600000 );
#395 = CARTESIAN_POINT( '', ( 86.0000000000000, 9.99999999999999, 0.000000000000000 ) );
#396 = AXIS2_PLACEMENT_3D( '', #449, #450, #451 );
#397 = CARTESIAN_POINT( '', ( 1.53350000000001, -0.899999999999995, 9.95941765365827 ) );
#398 = CARTESIAN_POINT( '', ( 1.53350000000001, -0.899999999999995, -9.95941765365827 ) );
#399 = AXIS2_PLACEMENT_3D( '', #452, #453, #454 );
#400 = CARTESIAN_POINT( '', ( 3.00000000000000, -0.900000000000001, -9.95941765365827 ) );
#401 = CARTESIAN_POINT( '', ( 100.000000000000, -0.900000000000001, -9.95941765365827 ) );
#402 = VECTOR( '', #455, 1000.00000000000 );
#403 = AXIS2_PLACEMENT_3D( '', #456, #457, #458 );
#404 = AXIS2_PLACEMENT_3D( '', #459, #460, #461 );
#405 = CARTESIAN_POINT( '', ( 3.00000000000000, -0.900000000000001, 9.95941765365827 ) );
#406 = AXIS2_PLACEMENT_3D( '', #462, #463, #464 );
#407 = CARTESIAN_POINT( '', ( 100.000000000000, -0.900000000000001, 9.95941765365827 ) );
#408 = VECTOR( '', #465, 1000.00000000000 );
#409 = COLOUR_RGB( '', 0.689999997600000, 0.689999997600000, 0.689999997600000 );
#410 = CARTESIAN_POINT( '', ( 0.000000000000000, -0.900000000000001, 8.41852850859341 ) );
#411 = CARTESIAN_POINT( '', ( 1.53350000000001, -0.900000000000001, 9.95941765365827 ) );
#412 = CARTESIAN_POINT( '', ( 1.02214317772921, -0.900000000000001, 9.44597716943180 ) );
#413 = CARTESIAN_POINT( '', ( 0.510941888387719, -0.900000000000001, 8.93238190869996 ) );
#414 = CARTESIAN_POINT( '', ( -1.74401581618307E-15, -0.900000000000001, 8.41852850859341 ) );
#415 = CARTESIAN_POINT( '', ( 0.000000000000000, -0.900000000000001, -8.41852850859341 ) );
#416 = AXIS2_PLACEMENT_3D( '', #466, #467, #468 );
#417 = CARTESIAN_POINT( '', ( -1.25458603705600E-15, -0.900000000000001, -8.41852850859341 ) );
#418 = CARTESIAN_POINT( '', ( 0.510941899449512, -0.900000000000001, -8.93238191982478 ) );
#419 = CARTESIAN_POINT( '', ( 1.02214318709475, -0.900000000000001, -9.44597717883551 ) );
#420 = CARTESIAN_POINT( '', ( 1.53350000000001, -0.900000000000001, -9.95941765365827 ) );
#421 = COLOUR_RGB( '', 0.689999997600000, 0.689999997600000, 0.689999997600000 );
#422 = CARTESIAN_POINT( '', ( 0.000000000000000, -0.900000000000001, -10.5000000000000 ) );
#423 = VECTOR( '', #469, 1000.00000000000 );
#424 = CARTESIAN_POINT( '', ( 3.00000000000000, -0.900000000000001, -10.5000000000000 ) );
#425 = VECTOR( '', #470, 1000.00000000000 );
#426 = COLOUR_RGB( '', 0.689999997600000, 0.689999997600000, 0.689999997600000 );
#427 = AXIS2_PLACEMENT_3D( '', #471, #472, #473 );
#428 = COLOUR_RGB( '', 0.689999997600000, 0.689999997600000, 0.689999997600000 );
#429 = CARTESIAN_POINT( '', ( 97.4372760422829, 7.74999999999999, 0.000000000000000 ) );
#430 = AXIS2_PLACEMENT_3D( '', #474, #475, #476 );
#431 = COLOUR_RGB( '', 0.689999997600000, 0.689999997600000, 0.689999997600000 );
#432 = CARTESIAN_POINT( '', ( 94.5000000000000, 7.74999999999999, 0.000000000000000 ) );
#433 = AXIS2_PLACEMENT_3D( '', #477, #478, #479 );
#434 = COLOUR_RGB( '', 0.689999997600000, 0.689999997600000, 0.689999997600000 );
#435 = COLOUR_RGB( '', 0.689999997600000, 0.689999997600000, 0.689999997600000 );
#436 = COLOUR_RGB( '', 0.689999997600000, 0.689999997600000, 0.689999997600000 );
#437 = COLOUR_RGB( '', 0.689999997600000, 0.689999997600000, 0.689999997600000 );
#438 = COLOUR_RGB( '', 0.689999997600000, 0.689999997600000, 0.689999997600000 );
#439 = CARTESIAN_POINT( '', ( 94.5000000000000, -6.76864948783548E-15, 0.000000000000000 ) );
#440 = DIRECTION( '', ( 1.00000000000000, -6.12323399573677E-17, -0.000000000000000 ) );
#441 = DIRECTION( '', ( 6.12323399573677E-17, 1.00000000000000, 0.000000000000000 ) );
#442 = CARTESIAN_POINT( '', ( 87.3472200000000, -6.33066803123522E-15, 0.000000000000000 ) );
#443 = DIRECTION( '', ( 1.00000000000000, -6.12323399573677E-17, -0.000000000000000 ) );
#444 = DIRECTION( '', ( 6.12323399573677E-17, 1.00000000000000, 0.000000000000000 ) );
#445 = DIRECTION( '', ( 0.000000000000000, 0.000000000000000, -1.00000000000000 ) );
#446 = DIRECTION( '', ( 1.00000000000000, -6.12323399573677E-17, -0.000000000000000 ) );
#447 = DIRECTION( '', ( 0.000000000000000, 0.000000000000000, -1.00000000000000 ) );
#448 = DIRECTION( '', ( 1.00000000000000, -6.12323399573677E-17, -0.000000000000000 ) );
#449 = CARTESIAN_POINT( '', ( 86.0000000000000, -6.24817459819785E-15, 0.000000000000000 ) );
#450 = DIRECTION( '', ( 1.00000000000000, -6.12323399573677E-17, -0.000000000000000 ) );
#451 = DIRECTION( '', ( 6.12323399573677E-17, 1.00000000000000, 0.000000000000000 ) );
#452 = CARTESIAN_POINT( '', ( 1.53350000000001, -1.07609315518886E-15, 0.000000000000000 ) );
#453 = DIRECTION( '', ( 1.00000000000000, -6.12323399573677E-17, -0.000000000000000 ) );
#454 = DIRECTION( '', ( 6.12323399573677E-17, 1.00000000000000, 0.000000000000000 ) );
#455 = DIRECTION( '', ( 1.00000000000000, -6.12323399573677E-17, -0.000000000000000 ) );
#456 = CARTESIAN_POINT( '', ( 3.00000000000000, -1.16589038173634E-15, 0.000000000000000 ) );
#457 = DIRECTION( '', ( -1.00000000000000, 0.000000000000000, 0.000000000000000 ) );
#458 = DIRECTION( '', ( 0.000000000000000, 0.000000000000000, 1.00000000000000 ) );
#459 = CARTESIAN_POINT( '', ( 1.53350000000001, -1.07609315518886E-15, 0.000000000000000 ) );
#460 = DIRECTION( '', ( 1.00000000000000, -6.12323399573677E-17, -0.000000000000000 ) );
#461 = DIRECTION( '', ( 6.12323399573677E-17, 1.00000000000000, 0.000000000000000 ) );
#462 = CARTESIAN_POINT( '', ( 3.00000000000000, -1.16589038173634E-15, 0.000000000000000 ) );
#463 = DIRECTION( '', ( -1.00000000000000, 0.000000000000000, 0.000000000000000 ) );
#464 = DIRECTION( '', ( 0.000000000000000, 0.000000000000000, 1.00000000000000 ) );
#465 = DIRECTION( '', ( 1.00000000000000, -6.12323399573677E-17, -0.000000000000000 ) );
#466 = CARTESIAN_POINT( '', ( 0.000000000000000, -9.82193361864234E-16, 0.000000000000000 ) );
#467 = DIRECTION( '', ( 1.00000000000000, -6.12323399573677E-17, -0.000000000000000 ) );
#468 = DIRECTION( '', ( 6.12323399573677E-17, 1.00000000000000, 0.000000000000000 ) );
#469 = DIRECTION( '', ( 0.000000000000000, 0.000000000000000, 1.00000000000000 ) );
#470 = DIRECTION( '', ( 0.000000000000000, 0.000000000000000, 1.00000000000000 ) );
#471 = CARTESIAN_POINT( '', ( 0.000000000000000, -9.82193361864234E-16, 0.000000000000000 ) );
#472 = DIRECTION( '', ( 1.00000000000000, -6.12323399573677E-17, -0.000000000000000 ) );
#473 = DIRECTION( '', ( 6.12323399573677E-17, 1.00000000000000, 0.000000000000000 ) );
#474 = CARTESIAN_POINT( '', ( 97.4372760422829, -6.94850577300518E-15, 0.000000000000000 ) );
#475 = DIRECTION( '', ( 1.00000000000000, -6.12323399573677E-17, -0.000000000000000 ) );
#476 = DIRECTION( '', ( 6.12323399573677E-17, 1.00000000000000, 0.000000000000000 ) );
#477 = CARTESIAN_POINT( '', ( 94.5000000000000, -6.76864948783548E-15, 0.000000000000000 ) );
#478 = DIRECTION( '', ( 1.00000000000000, -6.12323399573677E-17, -0.000000000000000 ) );
#479 = DIRECTION( '', ( 6.12323399573677E-17, 1.00000000000000, 0.000000000000000 ) );
ENDSEC;
END-ISO-10303-21;
