ISO-10303-21;
HEADER;
FILE_DESCRIPTION( ( 'STEP AP214' ), '1' );
FILE_NAME( '//goodhand-server/Shared Folders/GoodHand Data/Kipp CAD/K0129/K0129.1081.stp', '2020-11-25T11:57:18', ( '' ), ( '' ), ' ', 'PARTsolutions', ' ' );
FILE_SCHEMA( ( 'AUTOMOTIVE_DESIGN { 1 0 10303 214 1 1 1 1 }' ) );
ENDSEC;
DATA;
#1 = MECHANICAL_DESIGN_GEOMETRIC_PRESENTATION_REPRESENTATION( ' ', ( #10, #11, #12, #13, #14, #15, #16, #17, #18, #19, #20, #21, #22 ), #6 );
#2 = PRODUCT_DEFINITION_CONTEXT( '', #23, 'design' );
#3 = APPLICATION_PROTOCOL_DEFINITION( 'international standard', 'automotive_design', 2001, #23 );
#4 = PRODUCT_CATEGORY_RELATIONSHIP( 'NONE', 'NONE', #24, #25 );
#5 = SHAPE_DEFINITION_REPRESENTATION( #26, #27 );
#6 =  ( GEOMETRIC_REPRESENTATION_CONTEXT( 3 )GLOBAL_UNCERTAINTY_ASSIGNED_CONTEXT( ( #30 ) )GLOBAL_UNIT_ASSIGNED_CONTEXT( ( #32, #33, #34 ) )REPRESENTATION_CONTEXT( 'NONE', 'WORKSPACE' ) );
#10 = STYLED_ITEM( '', ( #36 ), #37 );
#11 = STYLED_ITEM( '', ( #38 ), #39 );
#12 = STYLED_ITEM( '', ( #40 ), #41 );
#13 = STYLED_ITEM( '', ( #42 ), #43 );
#14 = STYLED_ITEM( '', ( #44 ), #45 );
#15 = STYLED_ITEM( '', ( #46 ), #47 );
#16 = STYLED_ITEM( '', ( #48 ), #49 );
#17 = STYLED_ITEM( '', ( #50 ), #51 );
#18 = STYLED_ITEM( '', ( #52 ), #53 );
#19 = STYLED_ITEM( '', ( #54 ), #55 );
#20 = STYLED_ITEM( '', ( #56 ), #57 );
#21 = STYLED_ITEM( '', ( #58 ), #59 );
#22 = STYLED_ITEM( '', ( #60 ), #61 );
#23 = APPLICATION_CONTEXT( 'core data for automotive mechanical design processes' );
#24 = PRODUCT_CATEGORY( 'part', 'NONE' );
#25 = PRODUCT_RELATED_PRODUCT_CATEGORY( 'detail', ' ', ( #62 ) );
#26 = PRODUCT_DEFINITION_SHAPE( 'NONE', 'NONE', #63 );
#27 = ADVANCED_BREP_SHAPE_REPRESENTATION( '_K0129.1081', ( #64, #65 ), #6 );
#30 = UNCERTAINTY_MEASURE_WITH_UNIT( LENGTH_MEASURE( 0.00100000000000000 ), #32, '', '' );
#32 =  ( CONVERSION_BASED_UNIT( 'MILLIMETRE', #68 )LENGTH_UNIT(  )NAMED_UNIT( #71 ) );
#33 =  ( NAMED_UNIT( #73 )PLANE_ANGLE_UNIT(  )SI_UNIT( $, .RADIAN. ) );
#34 =  ( NAMED_UNIT( #73 )SI_UNIT( $, .STERADIAN. )SOLID_ANGLE_UNIT(  ) );
#36 = PRESENTATION_STYLE_ASSIGNMENT( ( #79 ) );
#37 = ADVANCED_FACE( '', ( #80, #81 ), #82, .T. );
#38 = PRESENTATION_STYLE_ASSIGNMENT( ( #83 ) );
#39 = ADVANCED_FACE( '', ( #84, #85 ), #86, .T. );
#40 = PRESENTATION_STYLE_ASSIGNMENT( ( #87 ) );
#41 = ADVANCED_FACE( '', ( #88, #89 ), #90, .T. );
#42 = PRESENTATION_STYLE_ASSIGNMENT( ( #91 ) );
#43 = ADVANCED_FACE( '', ( #92, #93 ), #94, .F. );
#44 = PRESENTATION_STYLE_ASSIGNMENT( ( #95 ) );
#45 = ADVANCED_FACE( '', ( #96, #97 ), #98, .T. );
#46 = PRESENTATION_STYLE_ASSIGNMENT( ( #99 ) );
#47 = ADVANCED_FACE( '', ( #100, #101, #102 ), #103, .T. );
#48 = PRESENTATION_STYLE_ASSIGNMENT( ( #104 ) );
#49 = ADVANCED_FACE( '', ( #105 ), #106, .T. );
#50 = PRESENTATION_STYLE_ASSIGNMENT( ( #107 ) );
#51 = ADVANCED_FACE( '', ( #108, #109 ), #110, .F. );
#52 = PRESENTATION_STYLE_ASSIGNMENT( ( #111 ) );
#53 = ADVANCED_FACE( '', ( #112, #113 ), #114, .T. );
#54 = PRESENTATION_STYLE_ASSIGNMENT( ( #115 ) );
#55 = ADVANCED_FACE( '', ( #116, #117 ), #118, .F. );
#56 = PRESENTATION_STYLE_ASSIGNMENT( ( #119 ) );
#57 = ADVANCED_FACE( '', ( #120 ), #121, .F. );
#58 = PRESENTATION_STYLE_ASSIGNMENT( ( #122 ) );
#59 = ADVANCED_FACE( '', ( #123, #124 ), #125, .F. );
#60 = PRESENTATION_STYLE_ASSIGNMENT( ( #126 ) );
#61 = ADVANCED_FACE( '', ( #127, #128 ), #129, .F. );
#62 = PRODUCT( '_K0129.1081', '_K0129.1081', 'PART-_K0129.1081-DESC', ( #130 ) );
#63 = PRODUCT_DEFINITION( 'NONE', 'NONE', #131, #2 );
#64 = MANIFOLD_SOLID_BREP( '_K0129.1081', #132 );
#65 = AXIS2_PLACEMENT_3D( '', #133, #134, #135 );
#68 = LENGTH_MEASURE_WITH_UNIT( LENGTH_MEASURE( 1.00000000000000 ), #136 );
#71 = DIMENSIONAL_EXPONENTS( 1.00000000000000, 0.000000000000000, 0.000000000000000, 0.000000000000000, 0.000000000000000, 0.000000000000000, 0.000000000000000 );
#73 = DIMENSIONAL_EXPONENTS( 0.000000000000000, 0.000000000000000, 0.000000000000000, 0.000000000000000, 0.000000000000000, 0.000000000000000, 0.000000000000000 );
#79 = SURFACE_STYLE_USAGE( .BOTH., #137 );
#80 = FACE_BOUND( '', #138, .T. );
#81 = FACE_OUTER_BOUND( '', #139, .T. );
#82 = CONICAL_SURFACE( '', #140, 16.5000000000000, 0.785398163400000 );
#83 = SURFACE_STYLE_USAGE( .BOTH., #141 );
#84 = FACE_OUTER_BOUND( '', #142, .T. );
#85 = FACE_OUTER_BOUND( '', #143, .T. );
#86 = CYLINDRICAL_SURFACE( '', #144, 6.75000000000000 );
#87 = SURFACE_STYLE_USAGE( .BOTH., #145 );
#88 = FACE_OUTER_BOUND( '', #146, .T. );
#89 = FACE_BOUND( '', #147, .T. );
#90 = CONICAL_SURFACE( '', #148, 15.5500000000000, 0.785398163400000 );
#91 = SURFACE_STYLE_USAGE( .BOTH., #149 );
#92 = FACE_BOUND( '', #150, .T. );
#93 = FACE_OUTER_BOUND( '', #151, .T. );
#94 = PLANE( '', #152 );
#95 = SURFACE_STYLE_USAGE( .BOTH., #153 );
#96 = FACE_BOUND( '', #154, .T. );
#97 = FACE_OUTER_BOUND( '', #155, .T. );
#98 = SPHERICAL_SURFACE( '', #156, 12.5000000000000 );
#99 = SURFACE_STYLE_USAGE( .BOTH., #157 );
#100 = FACE_OUTER_BOUND( '', #158, .T. );
#101 = FACE_BOUND( '', #159, .T. );
#102 = FACE_OUTER_BOUND( '', #160, .T. );
#103 = CYLINDRICAL_SURFACE( '', #161, 16.5000000000000 );
#104 = SURFACE_STYLE_USAGE( .BOTH., #162 );
#105 = FACE_OUTER_BOUND( '', #163, .T. );
#106 = PLANE( '', #164 );
#107 = SURFACE_STYLE_USAGE( .BOTH., #165 );
#108 = FACE_OUTER_BOUND( '', #166, .T. );
#109 = FACE_BOUND( '', #167, .T. );
#110 = CONICAL_SURFACE( '', #168, 3.32350000000000, 0.785398163400000 );
#111 = SURFACE_STYLE_USAGE( .BOTH., #169 );
#112 = FACE_OUTER_BOUND( '', #170, .T. );
#113 = FACE_OUTER_BOUND( '', #171, .T. );
#114 = CYLINDRICAL_SURFACE( '', #172, 5.00000000000000 );
#115 = SURFACE_STYLE_USAGE( .BOTH., #173 );
#116 = FACE_OUTER_BOUND( '', #174, .T. );
#117 = FACE_OUTER_BOUND( '', #175, .T. );
#118 = CYLINDRICAL_SURFACE( '', #176, 3.32350000000000 );
#119 = SURFACE_STYLE_USAGE( .BOTH., #177 );
#120 = FACE_OUTER_BOUND( '', #178, .T. );
#121 = PLANE( '', #179 );
#122 = SURFACE_STYLE_USAGE( .BOTH., #180 );
#123 = FACE_OUTER_BOUND( '', #181, .T. );
#124 = FACE_BOUND( '', #182, .T. );
#125 = PLANE( '', #183 );
#126 = SURFACE_STYLE_USAGE( .BOTH., #184 );
#127 = FACE_BOUND( '', #185, .T. );
#128 = FACE_OUTER_BOUND( '', #186, .T. );
#129 = PLANE( '', #187 );
#130 = PRODUCT_CONTEXT( '', #23, 'mechanical' );
#131 = PRODUCT_DEFINITION_FORMATION_WITH_SPECIFIED_SOURCE( ' ', 'NONE', #62, .NOT_KNOWN. );
#132 = CLOSED_SHELL( '', ( #61, #39, #43, #37, #47, #41, #57, #53, #59, #45, #49, #55, #51 ) );
#133 = CARTESIAN_POINT( '', ( 0.000000000000000, 0.000000000000000, 0.000000000000000 ) );
#134 = DIRECTION( '', ( 0.000000000000000, 0.000000000000000, 1.00000000000000 ) );
#135 = DIRECTION( '', ( 1.00000000000000, 0.000000000000000, 0.000000000000000 ) );
#136 =  ( LENGTH_UNIT(  )NAMED_UNIT( #71 )SI_UNIT( .MILLI., .METRE. ) );
#137 = SURFACE_SIDE_STYLE( '', ( #189 ) );
#138 = EDGE_LOOP( '', ( #190 ) );
#139 = EDGE_LOOP( '', ( #191 ) );
#140 = AXIS2_PLACEMENT_3D( '', #192, #193, #194 );
#141 = SURFACE_SIDE_STYLE( '', ( #195 ) );
#142 = EDGE_LOOP( '', ( #196 ) );
#143 = EDGE_LOOP( '', ( #197 ) );
#144 = AXIS2_PLACEMENT_3D( '', #198, #199, #200 );
#145 = SURFACE_SIDE_STYLE( '', ( #201 ) );
#146 = EDGE_LOOP( '', ( #202 ) );
#147 = EDGE_LOOP( '', ( #203 ) );
#148 = AXIS2_PLACEMENT_3D( '', #204, #205, #206 );
#149 = SURFACE_SIDE_STYLE( '', ( #207 ) );
#150 = EDGE_LOOP( '', ( #208 ) );
#151 = EDGE_LOOP( '', ( #209 ) );
#152 = AXIS2_PLACEMENT_3D( '', #210, #211, #212 );
#153 = SURFACE_SIDE_STYLE( '', ( #213 ) );
#154 = VERTEX_LOOP( '', #214 );
#155 = EDGE_LOOP( '', ( #215 ) );
#156 = AXIS2_PLACEMENT_3D( '', #216, #217, #218 );
#157 = SURFACE_SIDE_STYLE( '', ( #219 ) );
#158 = EDGE_LOOP( '', ( #220 ) );
#159 = EDGE_LOOP( '', ( #221 ) );
#160 = EDGE_LOOP( '', ( #222 ) );
#161 = AXIS2_PLACEMENT_3D( '', #223, #224, #225 );
#162 = SURFACE_SIDE_STYLE( '', ( #226 ) );
#163 = EDGE_LOOP( '', ( #227 ) );
#164 = AXIS2_PLACEMENT_3D( '', #228, #229, #230 );
#165 = SURFACE_SIDE_STYLE( '', ( #231 ) );
#166 = EDGE_LOOP( '', ( #232 ) );
#167 = EDGE_LOOP( '', ( #233 ) );
#168 = AXIS2_PLACEMENT_3D( '', #234, #235, #236 );
#169 = SURFACE_SIDE_STYLE( '', ( #237 ) );
#170 = EDGE_LOOP( '', ( #238 ) );
#171 = EDGE_LOOP( '', ( #239 ) );
#172 = AXIS2_PLACEMENT_3D( '', #240, #241, #242 );
#173 = SURFACE_SIDE_STYLE( '', ( #243 ) );
#174 = EDGE_LOOP( '', ( #244 ) );
#175 = EDGE_LOOP( '', ( #245 ) );
#176 = AXIS2_PLACEMENT_3D( '', #246, #247, #248 );
#177 = SURFACE_SIDE_STYLE( '', ( #249 ) );
#178 = EDGE_LOOP( '', ( #250 ) );
#179 = AXIS2_PLACEMENT_3D( '', #251, #252, #253 );
#180 = SURFACE_SIDE_STYLE( '', ( #254 ) );
#181 = EDGE_LOOP( '', ( #255 ) );
#182 = EDGE_LOOP( '', ( #256 ) );
#183 = AXIS2_PLACEMENT_3D( '', #257, #258, #259 );
#184 = SURFACE_SIDE_STYLE( '', ( #260 ) );
#185 = EDGE_LOOP( '', ( #261 ) );
#186 = EDGE_LOOP( '', ( #262 ) );
#187 = AXIS2_PLACEMENT_3D( '', #263, #264, #265 );
#189 = SURFACE_STYLE_FILL_AREA( #266 );
#190 = ORIENTED_EDGE( '', *, *, #267, .F. );
#191 = ORIENTED_EDGE( '', *, *, #268, .T. );
#192 = CARTESIAN_POINT( '', ( 0.000000000000000, 2.20000000000000, 0.000000000000000 ) );
#193 = DIRECTION( '', ( -0.000000000000000, 1.00000000000000, 0.000000000000000 ) );
#194 = DIRECTION( '', ( 0.000000000000000, -0.000000000000000, 1.00000000000000 ) );
#195 = SURFACE_STYLE_FILL_AREA( #269 );
#196 = ORIENTED_EDGE( '', *, *, #270, .F. );
#197 = ORIENTED_EDGE( '', *, *, #271, .T. );
#198 = CARTESIAN_POINT( '', ( 0.000000000000000, 0.000000000000000, 0.000000000000000 ) );
#199 = DIRECTION( '', ( -0.000000000000000, 1.00000000000000, 0.000000000000000 ) );
#200 = DIRECTION( '', ( 0.000000000000000, 0.000000000000000, -1.00000000000000 ) );
#201 = SURFACE_STYLE_FILL_AREA( #272 );
#202 = ORIENTED_EDGE( '', *, *, #273, .F. );
#203 = ORIENTED_EDGE( '', *, *, #274, .T. );
#204 = CARTESIAN_POINT( '', ( 0.000000000000000, 19.0000000000000, 0.000000000000000 ) );
#205 = DIRECTION( '', ( -0.000000000000000, -1.00000000000000, -0.000000000000000 ) );
#206 = DIRECTION( '', ( 0.000000000000000, 0.000000000000000, -1.00000000000000 ) );
#207 = SURFACE_STYLE_FILL_AREA( #275 );
#208 = ORIENTED_EDGE( '', *, *, #271, .F. );
#209 = ORIENTED_EDGE( '', *, *, #267, .T. );
#210 = CARTESIAN_POINT( '', ( 16.3000000000000, 2.00000000000000, 0.000000000000000 ) );
#211 = DIRECTION( '', ( 0.000000000000000, 1.00000000000000, 0.000000000000000 ) );
#212 = DIRECTION( '', ( 0.000000000000000, -0.000000000000000, 1.00000000000000 ) );
#213 = SURFACE_STYLE_FILL_AREA( #276 );
#214 = VERTEX_POINT( '', #277 );
#215 = ORIENTED_EDGE( '', *, *, #278, .T. );
#216 = CARTESIAN_POINT( '', ( 102.000000000000, 12.0000000000000, 0.000000000000000 ) );
#217 = DIRECTION( '', ( 1.00000000000000, 0.000000000000000, 0.000000000000000 ) );
#218 = DIRECTION( '', ( 0.000000000000000, -1.00000000000000, 0.000000000000000 ) );
#219 = SURFACE_STYLE_FILL_AREA( #279 );
#220 = ORIENTED_EDGE( '', *, *, #268, .F. );
#221 = ORIENTED_EDGE( '', *, *, #280, .F. );
#222 = ORIENTED_EDGE( '', *, *, #273, .T. );
#223 = CARTESIAN_POINT( '', ( 0.000000000000000, 0.000000000000000, 0.000000000000000 ) );
#224 = DIRECTION( '', ( -0.000000000000000, 1.00000000000000, 0.000000000000000 ) );
#225 = DIRECTION( '', ( 0.000000000000000, 0.000000000000000, -1.00000000000000 ) );
#226 = SURFACE_STYLE_FILL_AREA( #281 );
#227 = ORIENTED_EDGE( '', *, *, #282, .T. );
#228 = CARTESIAN_POINT( '', ( 0.000000000000000, 18.0000000000000, 0.000000000000000 ) );
#229 = DIRECTION( '', ( 0.000000000000000, -1.00000000000000, -0.000000000000000 ) );
#230 = DIRECTION( '', ( 0.000000000000000, 0.000000000000000, -1.00000000000000 ) );
#231 = SURFACE_STYLE_FILL_AREA( #283 );
#232 = ORIENTED_EDGE( '', *, *, #284, .T. );
#233 = ORIENTED_EDGE( '', *, *, #285, .F. );
#234 = CARTESIAN_POINT( '', ( 0.000000000000000, 0.676500000000000, 0.000000000000000 ) );
#235 = DIRECTION( '', ( -0.000000000000000, -1.00000000000000, -0.000000000000000 ) );
#236 = DIRECTION( '', ( 0.000000000000000, 0.000000000000000, -1.00000000000000 ) );
#237 = SURFACE_STYLE_FILL_AREA( #286 );
#238 = ORIENTED_EDGE( '', *, *, #287, .F. );
#239 = ORIENTED_EDGE( '', *, *, #280, .T. );
#240 = CARTESIAN_POINT( '', ( 114.500000000000, 12.0000000000000, 0.000000000000000 ) );
#241 = DIRECTION( '', ( -1.00000000000000, -0.000000000000000, 0.000000000000000 ) );
#242 = DIRECTION( '', ( -0.000000000000000, 0.000000000000000, -1.00000000000000 ) );
#243 = SURFACE_STYLE_FILL_AREA( #288 );
#244 = ORIENTED_EDGE( '', *, *, #285, .T. );
#245 = ORIENTED_EDGE( '', *, *, #282, .F. );
#246 = CARTESIAN_POINT( '', ( 0.000000000000000, 0.000000000000000, 0.000000000000000 ) );
#247 = DIRECTION( '', ( -0.000000000000000, 1.00000000000000, 0.000000000000000 ) );
#248 = DIRECTION( '', ( 0.000000000000000, 0.000000000000000, -1.00000000000000 ) );
#249 = SURFACE_STYLE_FILL_AREA( #289 );
#250 = ORIENTED_EDGE( '', *, *, #274, .F. );
#251 = CARTESIAN_POINT( '', ( 0.000000000000000, 19.0000000000000, 0.000000000000000 ) );
#252 = DIRECTION( '', ( 0.000000000000000, -1.00000000000000, -0.000000000000000 ) );
#253 = DIRECTION( '', ( 0.000000000000000, 0.000000000000000, -1.00000000000000 ) );
#254 = SURFACE_STYLE_FILL_AREA( #290 );
#255 = ORIENTED_EDGE( '', *, *, #278, .F. );
#256 = ORIENTED_EDGE( '', *, *, #287, .T. );
#257 = CARTESIAN_POINT( '', ( 94.5000000000000, 17.0000000000000, 0.000000000000000 ) );
#258 = DIRECTION( '', ( 1.00000000000000, 0.000000000000000, -0.000000000000000 ) );
#259 = DIRECTION( '', ( -0.000000000000000, 0.000000000000000, -1.00000000000000 ) );
#260 = SURFACE_STYLE_FILL_AREA( #291 );
#261 = ORIENTED_EDGE( '', *, *, #284, .F. );
#262 = ORIENTED_EDGE( '', *, *, #270, .T. );
#263 = CARTESIAN_POINT( '', ( 6.75000000000000, 0.000000000000000, 0.000000000000000 ) );
#264 = DIRECTION( '', ( 0.000000000000000, 1.00000000000000, 0.000000000000000 ) );
#265 = DIRECTION( '', ( 0.000000000000000, -0.000000000000000, 1.00000000000000 ) );
#266 = FILL_AREA_STYLE( '', ( #292 ) );
#267 = EDGE_CURVE( '', #293, #293, #294, .T. );
#268 = EDGE_CURVE( '', #295, #295, #296, .T. );
#269 = FILL_AREA_STYLE( '', ( #297 ) );
#270 = EDGE_CURVE( '', #298, #298, #299, .T. );
#271 = EDGE_CURVE( '', #300, #300, #301, .T. );
#272 = FILL_AREA_STYLE( '', ( #302 ) );
#273 = EDGE_CURVE( '', #303, #303, #304, .T. );
#274 = EDGE_CURVE( '', #305, #305, #306, .T. );
#275 = FILL_AREA_STYLE( '', ( #307 ) );
#276 = FILL_AREA_STYLE( '', ( #308 ) );
#277 = CARTESIAN_POINT( '', ( 114.500000000000, 12.0000000000000, 0.000000000000000 ) );
#278 = EDGE_CURVE( '', #309, #309, #310, .T. );
#279 = FILL_AREA_STYLE( '', ( #311 ) );
#280 = EDGE_CURVE( '', #312, #312, #313, .T. );
#281 = FILL_AREA_STYLE( '', ( #314 ) );
#282 = EDGE_CURVE( '', #315, #315, #316, .T. );
#283 = FILL_AREA_STYLE( '', ( #317 ) );
#284 = EDGE_CURVE( '', #318, #318, #319, .T. );
#285 = EDGE_CURVE( '', #320, #320, #321, .T. );
#286 = FILL_AREA_STYLE( '', ( #322 ) );
#287 = EDGE_CURVE( '', #323, #323, #324, .T. );
#288 = FILL_AREA_STYLE( '', ( #325 ) );
#289 = FILL_AREA_STYLE( '', ( #326 ) );
#290 = FILL_AREA_STYLE( '', ( #327 ) );
#291 = FILL_AREA_STYLE( '', ( #328 ) );
#292 = FILL_AREA_STYLE_COLOUR( '', #329 );
#293 = VERTEX_POINT( '', #330 );
#294 = CIRCLE( '', #331, 16.3000000000000 );
#295 = VERTEX_POINT( '', #332 );
#296 = CIRCLE( '', #333, 16.5000000000000 );
#297 = FILL_AREA_STYLE_COLOUR( '', #334 );
#298 = VERTEX_POINT( '', #335 );
#299 = CIRCLE( '', #336, 6.75000000000000 );
#300 = VERTEX_POINT( '', #337 );
#301 = CIRCLE( '', #338, 6.75000000000000 );
#302 = FILL_AREA_STYLE_COLOUR( '', #339 );
#303 = VERTEX_POINT( '', #340 );
#304 = CIRCLE( '', #341, 16.5000000000000 );
#305 = VERTEX_POINT( '', #342 );
#306 = CIRCLE( '', #343, 15.5500000000000 );
#307 = FILL_AREA_STYLE_COLOUR( '', #344 );
#308 = FILL_AREA_STYLE_COLOUR( '', #345 );
#309 = VERTEX_POINT( '', #346 );
#310 = CIRCLE( '', #347, 10.0000000000000 );
#311 = FILL_AREA_STYLE_COLOUR( '', #348 );
#312 = VERTEX_POINT( '', #349 );
#313 = B_SPLINE_CURVE_WITH_KNOTS( '', 3, ( #350, #351, #352, #353, #354, #355, #356, #357, #358, #359, #360, #361, #362, #363, #364, #365, #366, #367, #368, #369, #370, #371, #372, #373, #374, #375, #376, #377, #378, #379, #380, #381, #382, #383, #384, #385, #386, #387, #388, #389, #390, #391, #392, #393, #394, #395, #396, #397, #398, #399, #400, #401, #402, #403, #404, #405, #406, #407, #408, #409, #410, #411, #412, #413, #414, #415, #416, #417, #418, #419, #420, #421 ), .UNSPECIFIED., .T., .F., ( 2, 2, 2, 2, 2, 2, 2, 2, 2, 2, 2, 2, 2, 2, 2, 2, 2, 2, 2, 2, 2, 2, 2, 2, 2, 2, 2, 2, 2, 2, 2, 2, 2, 2, 2, 2, 2, 2 ), ( -0.000982677582677171, 0.000000000000000, 0.000982677582677182, 0.00196535516535436, 0.00294803274803154, 0.00393071033070873, 0.00491338791338591, 0.00589606549606309, 0.00638740428740168, 0.00687874307874027, 0.00786142066141745, 0.00884409824409463, 0.00982677582677181, 0.0108094534094490, 0.0117921309921262, 0.0127748085748034, 0.0137574861574805, 0.0147401637401577, 0.0152315025314963, 0.0157228413228349, 0.0167055189055121, 0.0176881964881893, 0.0186708740708664, 0.0196535516535436, 0.0206362292362208, 0.0216189068188980, 0.0226015844015751, 0.0230929231929137, 0.0235842619842523, 0.0245669395669295, 0.0255496171496066, 0.0265322947322838, 0.0275149723149610, 0.0284976498976382, 0.0294803274803153, 0.0304630050629925, 0.0314456826456697, 0.0324283602283469 ), .UNSPECIFIED. );
#314 = FILL_AREA_STYLE_COLOUR( '', #422 );
#315 = VERTEX_POINT( '', #423 );
#316 = CIRCLE( '', #424, 3.32350000000000 );
#317 = FILL_AREA_STYLE_COLOUR( '', #425 );
#318 = VERTEX_POINT( '', #426 );
#319 = CIRCLE( '', #427, 4.00000000000000 );
#320 = VERTEX_POINT( '', #428 );
#321 = CIRCLE( '', #429, 3.32350000000000 );
#322 = FILL_AREA_STYLE_COLOUR( '', #430 );
#323 = VERTEX_POINT( '', #431 );
#324 = CIRCLE( '', #432, 5.00000000000000 );
#325 = FILL_AREA_STYLE_COLOUR( '', #433 );
#326 = FILL_AREA_STYLE_COLOUR( '', #434 );
#327 = FILL_AREA_STYLE_COLOUR( '', #435 );
#328 = FILL_AREA_STYLE_COLOUR( '', #436 );
#329 = COLOUR_RGB( '', 0.689999997600000, 0.689999997600000, 0.689999997600000 );
#330 = CARTESIAN_POINT( '', ( 0.000000000000000, 2.00000000000000, -16.3000000000000 ) );
#331 = AXIS2_PLACEMENT_3D( '', #437, #438, #439 );
#332 = CARTESIAN_POINT( '', ( 0.000000000000000, 2.20000000000000, -16.5000000000000 ) );
#333 = AXIS2_PLACEMENT_3D( '', #440, #441, #442 );
#334 = COLOUR_RGB( '', 0.689999997600000, 0.689999997600000, 0.689999997600000 );
#335 = CARTESIAN_POINT( '', ( 0.000000000000000, 0.000000000000000, -6.75000000000000 ) );
#336 = AXIS2_PLACEMENT_3D( '', #443, #444, #445 );
#337 = CARTESIAN_POINT( '', ( 0.000000000000000, 2.00000000000000, -6.75000000000000 ) );
#338 = AXIS2_PLACEMENT_3D( '', #446, #447, #448 );
#339 = COLOUR_RGB( '', 0.689999997600000, 0.689999997600000, 0.689999997600000 );
#340 = CARTESIAN_POINT( '', ( 0.000000000000000, 18.0500000000000, -16.5000000000000 ) );
#341 = AXIS2_PLACEMENT_3D( '', #449, #450, #451 );
#342 = CARTESIAN_POINT( '', ( 0.000000000000000, 19.0000000000000, -15.5500000000000 ) );
#343 = AXIS2_PLACEMENT_3D( '', #452, #453, #454 );
#344 = COLOUR_RGB( '', 0.689999997600000, 0.689999997600000, 0.689999997600000 );
#345 = COLOUR_RGB( '', 0.689999997600000, 0.689999997600000, 0.689999997600000 );
#346 = CARTESIAN_POINT( '', ( 94.5000000000000, 12.0000000000000, -10.0000000000000 ) );
#347 = AXIS2_PLACEMENT_3D( '', #455, #456, #457 );
#348 = COLOUR_RGB( '', 0.689999997600000, 0.689999997600000, 0.689999997600000 );
#349 = CARTESIAN_POINT( '', ( 15.7241851935164, 12.0000000000000, -5.00000000000000 ) );
#350 = CARTESIAN_POINT( '', ( 15.7241851935164, 11.6675603559775, -5.00000000000000 ) );
#351 = CARTESIAN_POINT( '', ( 15.7241851935164, 12.3324396440225, -5.00000000000000 ) );
#352 = CARTESIAN_POINT( '', ( 15.7347271577213, 12.6589068100343, -4.96717911849264 ) );
#353 = CARTESIAN_POINT( '', ( 15.7746263807300, 13.3005217829777, -4.83897403087673 ) );
#354 = CARTESIAN_POINT( '', ( 15.8044747826269, 13.6190784547818, -4.74191341205192 ) );
#355 = CARTESIAN_POINT( '', ( 15.8777838687291, 14.2235135417001, -4.49033911637112 ) );
#356 = CARTESIAN_POINT( '', ( 15.9210011531907, 14.5098767086552, -4.33668490859358 ) );
#357 = CARTESIAN_POINT( '', ( 16.0153835067417, 15.0518375187361, -3.97399104783942 ) );
#358 = CARTESIAN_POINT( '', ( 16.0665757465513, 15.3067833052487, -3.76432949400889 ) );
#359 = CARTESIAN_POINT( '', ( 16.1670995769070, 15.7649791948731, -3.30604356134478 ) );
#360 = CARTESIAN_POINT( '', ( 16.2169671576600, 15.9713068082212, -3.05559755875465 ) );
#361 = CARTESIAN_POINT( '', ( 16.3103780887700, 16.3370136466270, -2.50963480113401 ) );
#362 = CARTESIAN_POINT( '', ( 16.3525207858411, 16.4910283455728, -2.22184178364348 ) );
#363 = CARTESIAN_POINT( '', ( 16.4053618877514, 16.6786214374994, -1.77115232903380 ) );
#364 = CARTESIAN_POINT( '', ( 16.4212757237458, 16.7339626178401, -1.61757772886410 ) );
#365 = CARTESIAN_POINT( '', ( 16.4491857324220, 16.8298878798104, -1.30351173546110 ) );
#366 = CARTESIAN_POINT( '', ( 16.4612210484079, 16.8706005984539, -1.14210586829615 ) );
#367 = CARTESIAN_POINT( '', ( 16.4900797681545, 16.9675484799397, -0.657332576152397 ) );
#368 = CARTESIAN_POINT( '', ( 16.4999347026832, 16.9997845188130, -0.331576621938694 ) );
#369 = CARTESIAN_POINT( '', ( 16.5000646510760, 17.0002133485922, 0.325045780375211 ) );
#370 = CARTESIAN_POINT( '', ( 16.4899970387699, 16.9672694034817, 0.658563058328457 ) );
#371 = CARTESIAN_POINT( '', ( 16.4517417631368, 16.8387570748144, 1.30149936592124 ) );
#372 = CARTESIAN_POINT( '', ( 16.4237003233584, 16.7436921422447, 1.61423222759187 ) );
#373 = CARTESIAN_POINT( '', ( 16.3525356432895, 16.4911139814043, 2.22221871808888 ) );
#374 = CARTESIAN_POINT( '', ( 16.3100197248734, 16.3355778226650, 2.51160899819766 ) );
#375 = CARTESIAN_POINT( '', ( 16.2177371636046, 15.9743540781347, 3.05121688475700 ) );
#376 = CARTESIAN_POINT( '', ( 16.1672161402329, 15.7655750585230, 3.30558321680210 ) );
#377 = CARTESIAN_POINT( '', ( 16.0660021806229, 15.3041040940237, 3.76687298172234 ) );
#378 = CARTESIAN_POINT( '', ( 16.0157727326839, 15.0537934497182, 3.97240301049728 ) );
#379 = CARTESIAN_POINT( '', ( 15.9216393849042, 14.5138175971012, 4.33432361503547 ) );
#380 = CARTESIAN_POINT( '', ( 15.8774783902140, 14.2211897840251, 4.49140288222226 ) );
#381 = CARTESIAN_POINT( '', ( 15.8044735747033, 13.6188727554822, 4.74190203490643 ) );
#382 = CARTESIAN_POINT( '', ( 15.7751306642354, 13.3071164810995, 4.83734025319632 ) );
#383 = CARTESIAN_POINT( '', ( 15.7448782321393, 12.8228864139475, 4.93456801603033 ) );
#384 = CARTESIAN_POINT( '', ( 15.7370895409412, 12.6579318863258, 4.95926450984429 ) );
#385 = CARTESIAN_POINT( '', ( 15.7267891453147, 12.3298241480397, 4.99183281741438 ) );
#386 = CARTESIAN_POINT( '', ( 15.7242077441179, 12.1659160709927, 4.99992908202593 ) );
#387 = CARTESIAN_POINT( '', ( 15.7241405337290, 11.6746211835318, 5.00014044776774 ) );
#388 = CARTESIAN_POINT( '', ( 15.7344412536018, 11.3460913646921, 4.96809427989835 ) );
#389 = CARTESIAN_POINT( '', ( 15.7747617029462, 10.6969030254723, 4.83854270956304 ) );
#390 = CARTESIAN_POINT( '', ( 15.8041510689333, 10.3842315378378, 4.74297360132512 ) );
#391 = CARTESIAN_POINT( '', ( 15.8771096283709, 9.78141331813207, 4.49270291041185 ) );
#392 = CARTESIAN_POINT( '', ( 15.9212122620076, 9.48884133434299, 4.33589668312079 ) );
#393 = CARTESIAN_POINT( '', ( 16.0154303400481, 8.94796347840742, 3.97378798650194 ) );
#394 = CARTESIAN_POINT( '', ( 16.0656915428744, 8.69739795264410, 3.76819455000156 ) );
#395 = CARTESIAN_POINT( '', ( 16.1669237492313, 8.23567282959199, 3.30700943512246 ) );
#396 = CARTESIAN_POINT( '', ( 16.2174479066231, 8.02682972975399, 3.05271928240978 ) );
#397 = CARTESIAN_POINT( '', ( 16.3096626679340, 7.66576861091458, 2.51388450001783 ) );
#398 = CARTESIAN_POINT( '', ( 16.3519663120068, 7.51094433507576, 2.22650651105341 ) );
#399 = CARTESIAN_POINT( '', ( 16.4234360993719, 7.25720843764603, 1.61705912155854 ) );
#400 = CARTESIAN_POINT( '', ( 16.4514970500767, 7.16207412827114, 1.30436087628770 ) );
#401 = CARTESIAN_POINT( '', ( 16.4802166885762, 7.06558159553301, 0.823550859777863 ) );
#402 = CARTESIAN_POINT( '', ( 16.4875615823166, 7.04117637246136, 0.661306945078490 ) );
#403 = CARTESIAN_POINT( '', ( 16.4974634066053, 7.00835260754172, 0.332738567059678 ) );
#404 = CARTESIAN_POINT( '', ( 16.4999871467413, 7.00004241575513, 0.166065203525024 ) );
#405 = CARTESIAN_POINT( '', ( 16.5000255570992, 6.99991566156998, -0.328284317116775 ) );
#406 = CARTESIAN_POINT( '', ( 16.4901871445792, 7.03210038724475, -0.654200579402599 ) );
#407 = CARTESIAN_POINT( '', ( 16.4519695730825, 7.16046930655456, -1.29882548007956 ) );
#408 = CARTESIAN_POINT( '', ( 16.4233012587052, 7.25771583401080, -1.61777029092386 ) );
#409 = CARTESIAN_POINT( '', ( 16.3527451641422, 7.50815079503098, -2.22029965207558 ) );
#410 = CARTESIAN_POINT( '', ( 16.3106658437305, 7.66189954962798, -2.50780709180781 ) );
#411 = CARTESIAN_POINT( '', ( 16.2171715701835, 8.02785335260026, -3.05454791070471 ) );
#412 = CARTESIAN_POINT( '', ( 16.1672704488702, 8.23428561249629, -3.30521643265933 ) );
#413 = CARTESIAN_POINT( '', ( 16.0667149835374, 8.69253851971544, -3.76374269463357 ) );
#414 = CARTESIAN_POINT( '', ( 16.0155148548208, 8.94747724122322, -3.97346352181152 ) );
#415 = CARTESIAN_POINT( '', ( 15.9211238256719, 9.48935008409344, -4.33623621955439 ) );
#416 = CARTESIAN_POINT( '', ( 15.8779528178724, 9.77537923067213, -4.48973660900779 ) );
#417 = CARTESIAN_POINT( '', ( 15.8047530320226, 10.3783433520098, -4.74098113280562 ) );
#418 = CARTESIAN_POINT( '', ( 15.7747717678518, 10.6975388922361, -4.83850336108231 ) );
#419 = CARTESIAN_POINT( '', ( 15.7347332315904, 11.3405983934367, -4.96716309715154 ) );
#420 = CARTESIAN_POINT( '', ( 15.7241851935164, 11.6675603559775, -5.00000000000000 ) );
#421 = CARTESIAN_POINT( '', ( 15.7241851935164, 12.3324396440225, -5.00000000000000 ) );
#422 = COLOUR_RGB( '', 0.689999997600000, 0.689999997600000, 0.689999997600000 );
#423 = CARTESIAN_POINT( '', ( 0.000000000000000, 18.0000000000000, -3.32350000000000 ) );
#424 = AXIS2_PLACEMENT_3D( '', #458, #459, #460 );
#425 = COLOUR_RGB( '', 0.689999997600000, 0.689999997600000, 0.689999997600000 );
#426 = CARTESIAN_POINT( '', ( 0.000000000000000, 0.000000000000000, -4.00000000000000 ) );
#427 = AXIS2_PLACEMENT_3D( '', #461, #462, #463 );
#428 = CARTESIAN_POINT( '', ( 0.000000000000000, 0.676500000000000, -3.32350000000000 ) );
#429 = AXIS2_PLACEMENT_3D( '', #464, #465, #466 );
#430 = COLOUR_RGB( '', 0.689999997600000, 0.689999997600000, 0.689999997600000 );
#431 = CARTESIAN_POINT( '', ( 94.5000000000000, 12.0000000000000, -5.00000000000000 ) );
#432 = AXIS2_PLACEMENT_3D( '', #467, #468, #469 );
#433 = COLOUR_RGB( '', 0.689999997600000, 0.689999997600000, 0.689999997600000 );
#434 = COLOUR_RGB( '', 0.689999997600000, 0.689999997600000, 0.689999997600000 );
#435 = COLOUR_RGB( '', 0.689999997600000, 0.689999997600000, 0.689999997600000 );
#436 = COLOUR_RGB( '', 0.689999997600000, 0.689999997600000, 0.689999997600000 );
#437 = CARTESIAN_POINT( '', ( 0.000000000000000, 2.00000000000000, 0.000000000000000 ) );
#438 = DIRECTION( '', ( 0.000000000000000, -1.00000000000000, -0.000000000000000 ) );
#439 = DIRECTION( '', ( 0.000000000000000, 0.000000000000000, -1.00000000000000 ) );
#440 = CARTESIAN_POINT( '', ( 0.000000000000000, 2.20000000000000, 0.000000000000000 ) );
#441 = DIRECTION( '', ( 0.000000000000000, -1.00000000000000, -0.000000000000000 ) );
#442 = DIRECTION( '', ( 0.000000000000000, 0.000000000000000, -1.00000000000000 ) );
#443 = CARTESIAN_POINT( '', ( 0.000000000000000, 0.000000000000000, 0.000000000000000 ) );
#444 = DIRECTION( '', ( 0.000000000000000, -1.00000000000000, -0.000000000000000 ) );
#445 = DIRECTION( '', ( 0.000000000000000, 0.000000000000000, -1.00000000000000 ) );
#446 = CARTESIAN_POINT( '', ( 0.000000000000000, 2.00000000000000, 0.000000000000000 ) );
#447 = DIRECTION( '', ( 0.000000000000000, -1.00000000000000, -0.000000000000000 ) );
#448 = DIRECTION( '', ( 0.000000000000000, 0.000000000000000, -1.00000000000000 ) );
#449 = CARTESIAN_POINT( '', ( 0.000000000000000, 18.0500000000000, 0.000000000000000 ) );
#450 = DIRECTION( '', ( 0.000000000000000, -1.00000000000000, -0.000000000000000 ) );
#451 = DIRECTION( '', ( 0.000000000000000, 0.000000000000000, -1.00000000000000 ) );
#452 = CARTESIAN_POINT( '', ( 0.000000000000000, 19.0000000000000, 0.000000000000000 ) );
#453 = DIRECTION( '', ( 0.000000000000000, -1.00000000000000, -0.000000000000000 ) );
#454 = DIRECTION( '', ( 0.000000000000000, 0.000000000000000, -1.00000000000000 ) );
#455 = CARTESIAN_POINT( '', ( 94.5000000000000, 12.0000000000000, 0.000000000000000 ) );
#456 = DIRECTION( '', ( 1.00000000000000, 0.000000000000000, -0.000000000000000 ) );
#457 = DIRECTION( '', ( -0.000000000000000, 0.000000000000000, -1.00000000000000 ) );
#458 = CARTESIAN_POINT( '', ( 0.000000000000000, 18.0000000000000, 0.000000000000000 ) );
#459 = DIRECTION( '', ( 0.000000000000000, -1.00000000000000, -0.000000000000000 ) );
#460 = DIRECTION( '', ( 0.000000000000000, 0.000000000000000, -1.00000000000000 ) );
#461 = CARTESIAN_POINT( '', ( 0.000000000000000, 0.000000000000000, 0.000000000000000 ) );
#462 = DIRECTION( '', ( 0.000000000000000, -1.00000000000000, -0.000000000000000 ) );
#463 = DIRECTION( '', ( 0.000000000000000, 0.000000000000000, -1.00000000000000 ) );
#464 = CARTESIAN_POINT( '', ( 0.000000000000000, 0.676500000000000, 0.000000000000000 ) );
#465 = DIRECTION( '', ( 0.000000000000000, -1.00000000000000, -0.000000000000000 ) );
#466 = DIRECTION( '', ( 0.000000000000000, 0.000000000000000, -1.00000000000000 ) );
#467 = CARTESIAN_POINT( '', ( 94.5000000000000, 12.0000000000000, 0.000000000000000 ) );
#468 = DIRECTION( '', ( 1.00000000000000, 0.000000000000000, -0.000000000000000 ) );
#469 = DIRECTION( '', ( -0.000000000000000, 0.000000000000000, -1.00000000000000 ) );
ENDSEC;
END-ISO-10303-21;
