ISO-10303-21;
HEADER;
FILE_DESCRIPTION( ( 'STEP AP214' ), '1' );
FILE_NAME( '//goodhand-server/Shared Folders/GoodHand Data/Kipp CAD/K1129/K1129.101010.stp', '2020-12-10T10:15:50', ( '' ), ( '' ), ' ', 'PARTsolutions', ' ' );
FILE_SCHEMA( ( 'AUTOMOTIVE_DESIGN { 1 0 10303 214 1 1 1 1 }' ) );
ENDSEC;
DATA;
#1 = MECHANICAL_DESIGN_GEOMETRIC_PRESENTATION_REPRESENTATION( ' ', ( #10, #11, #12, #13, #14, #15, #16, #17, #18, #19, #20, #21 ), #6 );
#2 = PRODUCT_DEFINITION_CONTEXT( '', #22, 'design' );
#3 = APPLICATION_PROTOCOL_DEFINITION( 'international standard', 'automotive_design', 2001, #22 );
#4 = PRODUCT_CATEGORY_RELATIONSHIP( 'NONE', 'NONE', #23, #24 );
#5 = SHAPE_DEFINITION_REPRESENTATION( #25, #26 );
#6 =  ( GEOMETRIC_REPRESENTATION_CONTEXT( 3 )GLOBAL_UNCERTAINTY_ASSIGNED_CONTEXT( ( #29 ) )GLOBAL_UNIT_ASSIGNED_CONTEXT( ( #31, #32, #33 ) )REPRESENTATION_CONTEXT( 'NONE', 'WORKSPACE' ) );
#10 = STYLED_ITEM( '', ( #35 ), #36 );
#11 = STYLED_ITEM( '', ( #37 ), #38 );
#12 = STYLED_ITEM( '', ( #39 ), #40 );
#13 = STYLED_ITEM( '', ( #41 ), #42 );
#14 = STYLED_ITEM( '', ( #43 ), #44 );
#15 = STYLED_ITEM( '', ( #45 ), #46 );
#16 = STYLED_ITEM( '', ( #47 ), #48 );
#17 = STYLED_ITEM( '', ( #49 ), #50 );
#18 = STYLED_ITEM( '', ( #51 ), #52 );
#19 = STYLED_ITEM( '', ( #53 ), #54 );
#20 = STYLED_ITEM( '', ( #55 ), #56 );
#21 = STYLED_ITEM( '', ( #57 ), #58 );
#22 = APPLICATION_CONTEXT( 'core data for automotive mechanical design processes' );
#23 = PRODUCT_CATEGORY( 'part', 'NONE' );
#24 = PRODUCT_RELATED_PRODUCT_CATEGORY( 'detail', ' ', ( #59 ) );
#25 = PRODUCT_DEFINITION_SHAPE( 'NONE', 'NONE', #60 );
#26 = ADVANCED_BREP_SHAPE_REPRESENTATION( '_K1129.101010', ( #61, #62 ), #6 );
#29 = UNCERTAINTY_MEASURE_WITH_UNIT( LENGTH_MEASURE( 0.00100000000000000 ), #31, '', '' );
#31 =  ( CONVERSION_BASED_UNIT( 'MILLIMETRE', #65 )LENGTH_UNIT(  )NAMED_UNIT( #68 ) );
#32 =  ( NAMED_UNIT( #70 )PLANE_ANGLE_UNIT(  )SI_UNIT( $, .RADIAN. ) );
#33 =  ( NAMED_UNIT( #70 )SI_UNIT( $, .STERADIAN. )SOLID_ANGLE_UNIT(  ) );
#35 = PRESENTATION_STYLE_ASSIGNMENT( ( #76 ) );
#36 = ADVANCED_FACE( '', ( #77 ), #78, .F. );
#37 = PRESENTATION_STYLE_ASSIGNMENT( ( #79 ) );
#38 = ADVANCED_FACE( '', ( #80, #81 ), #82, .T. );
#39 = PRESENTATION_STYLE_ASSIGNMENT( ( #83 ) );
#40 = ADVANCED_FACE( '', ( #84, #85 ), #86, .T. );
#41 = PRESENTATION_STYLE_ASSIGNMENT( ( #87 ) );
#42 = ADVANCED_FACE( '', ( #88 ), #89, .T. );
#43 = PRESENTATION_STYLE_ASSIGNMENT( ( #90 ) );
#44 = ADVANCED_FACE( '', ( #91 ), #92, .T. );
#45 = PRESENTATION_STYLE_ASSIGNMENT( ( #93 ) );
#46 = ADVANCED_FACE( '', ( #94 ), #95, .F. );
#47 = PRESENTATION_STYLE_ASSIGNMENT( ( #96 ) );
#48 = ADVANCED_FACE( '', ( #97 ), #98, .T. );
#49 = PRESENTATION_STYLE_ASSIGNMENT( ( #99 ) );
#50 = ADVANCED_FACE( '', ( #100 ), #101, .T. );
#51 = PRESENTATION_STYLE_ASSIGNMENT( ( #102 ) );
#52 = ADVANCED_FACE( '', ( #103 ), #104, .T. );
#53 = PRESENTATION_STYLE_ASSIGNMENT( ( #105 ) );
#54 = ADVANCED_FACE( '', ( #106, #107 ), #108, .F. );
#55 = PRESENTATION_STYLE_ASSIGNMENT( ( #109 ) );
#56 = ADVANCED_FACE( '', ( #110, #111 ), #112, .T. );
#57 = PRESENTATION_STYLE_ASSIGNMENT( ( #113 ) );
#58 = ADVANCED_FACE( '', ( #114 ), #115, .T. );
#59 = PRODUCT( '_K1129.101010', '_K1129.101010', 'PART-_K1129.101010-DESC', ( #116 ) );
#60 = PRODUCT_DEFINITION( 'NONE', 'NONE', #117, #2 );
#61 = MANIFOLD_SOLID_BREP( '_K1129.101010', #118 );
#62 = AXIS2_PLACEMENT_3D( '', #119, #120, #121 );
#65 = LENGTH_MEASURE_WITH_UNIT( LENGTH_MEASURE( 1.00000000000000 ), #122 );
#68 = DIMENSIONAL_EXPONENTS( 1.00000000000000, 0.000000000000000, 0.000000000000000, 0.000000000000000, 0.000000000000000, 0.000000000000000, 0.000000000000000 );
#70 = DIMENSIONAL_EXPONENTS( 0.000000000000000, 0.000000000000000, 0.000000000000000, 0.000000000000000, 0.000000000000000, 0.000000000000000, 0.000000000000000 );
#76 = SURFACE_STYLE_USAGE( .BOTH., #123 );
#77 = FACE_OUTER_BOUND( '', #124, .T. );
#78 = PLANE( '', #125 );
#79 = SURFACE_STYLE_USAGE( .BOTH., #126 );
#80 = FACE_OUTER_BOUND( '', #127, .T. );
#81 = FACE_BOUND( '', #128, .T. );
#82 = CONICAL_SURFACE( '', #129, 4.62570506420000, 0.769690200100000 );
#83 = SURFACE_STYLE_USAGE( .BOTH., #130 );
#84 = FACE_BOUND( '', #131, .T. );
#85 = FACE_OUTER_BOUND( '', #132, .T. );
#86 = CONICAL_SURFACE( '', #133, 5.10999968460000, 0.0314159265000000 );
#87 = SURFACE_STYLE_USAGE( .BOTH., #134 );
#88 = FACE_OUTER_BOUND( '', #135, .T. );
#89 = PLANE( '', #136 );
#90 = SURFACE_STYLE_USAGE( .BOTH., #137 );
#91 = FACE_OUTER_BOUND( '', #138, .T. );
#92 = PLANE( '', #139 );
#93 = SURFACE_STYLE_USAGE( .BOTH., #140 );
#94 = FACE_OUTER_BOUND( '', #141, .T. );
#95 = PLANE( '', #142 );
#96 = SURFACE_STYLE_USAGE( .BOTH., #143 );
#97 = FACE_OUTER_BOUND( '', #144, .T. );
#98 = PLANE( '', #145 );
#99 = SURFACE_STYLE_USAGE( .BOTH., #146 );
#100 = FACE_OUTER_BOUND( '', #147, .T. );
#101 = PLANE( '', #148 );
#102 = SURFACE_STYLE_USAGE( .BOTH., #149 );
#103 = FACE_OUTER_BOUND( '', #150, .T. );
#104 = PLANE( '', #151 );
#105 = SURFACE_STYLE_USAGE( .BOTH., #152 );
#106 = FACE_OUTER_BOUND( '', #153, .T. );
#107 = FACE_BOUND( '', #154, .T. );
#108 = PLANE( '', #155 );
#109 = SURFACE_STYLE_USAGE( .BOTH., #156 );
#110 = FACE_BOUND( '', #157, .T. );
#111 = FACE_OUTER_BOUND( '', #158, .T. );
#112 = CONICAL_SURFACE( '', #159, 4.89000031540000, 0.801106126700000 );
#113 = SURFACE_STYLE_USAGE( .BOTH., #160 );
#114 = FACE_OUTER_BOUND( '', #161, .T. );
#115 = PLANE( '', #162 );
#116 = PRODUCT_CONTEXT( '', #22, 'mechanical' );
#117 = PRODUCT_DEFINITION_FORMATION_WITH_SPECIFIED_SOURCE( ' ', 'NONE', #59, .NOT_KNOWN. );
#118 = CLOSED_SHELL( '', ( #38, #54, #48, #52, #50, #36, #56, #40, #44, #58, #42, #46 ) );
#119 = CARTESIAN_POINT( '', ( 0.000000000000000, 0.000000000000000, 0.000000000000000 ) );
#120 = DIRECTION( '', ( 0.000000000000000, 0.000000000000000, 1.00000000000000 ) );
#121 = DIRECTION( '', ( 1.00000000000000, 0.000000000000000, 0.000000000000000 ) );
#122 =  ( LENGTH_UNIT(  )NAMED_UNIT( #68 )SI_UNIT( .MILLI., .METRE. ) );
#123 = SURFACE_SIDE_STYLE( '', ( #164 ) );
#124 = EDGE_LOOP( '', ( #165 ) );
#125 = AXIS2_PLACEMENT_3D( '', #166, #167, #168 );
#126 = SURFACE_SIDE_STYLE( '', ( #169 ) );
#127 = EDGE_LOOP( '', ( #170 ) );
#128 = EDGE_LOOP( '', ( #171 ) );
#129 = AXIS2_PLACEMENT_3D( '', #172, #173, #174 );
#130 = SURFACE_SIDE_STYLE( '', ( #175 ) );
#131 = EDGE_LOOP( '', ( #176 ) );
#132 = EDGE_LOOP( '', ( #177 ) );
#133 = AXIS2_PLACEMENT_3D( '', #178, #179, #180 );
#134 = SURFACE_SIDE_STYLE( '', ( #181 ) );
#135 = EDGE_LOOP( '', ( #182, #183, #184, #185 ) );
#136 = AXIS2_PLACEMENT_3D( '', #186, #187, #188 );
#137 = SURFACE_SIDE_STYLE( '', ( #189 ) );
#138 = EDGE_LOOP( '', ( #190, #191, #192, #193 ) );
#139 = AXIS2_PLACEMENT_3D( '', #194, #195, #196 );
#140 = SURFACE_SIDE_STYLE( '', ( #197 ) );
#141 = EDGE_LOOP( '', ( #198, #199, #200, #201, #202, #203 ) );
#142 = AXIS2_PLACEMENT_3D( '', #204, #205, #206 );
#143 = SURFACE_SIDE_STYLE( '', ( #207 ) );
#144 = EDGE_LOOP( '', ( #208, #209, #210, #211 ) );
#145 = AXIS2_PLACEMENT_3D( '', #212, #213, #214 );
#146 = SURFACE_SIDE_STYLE( '', ( #215 ) );
#147 = EDGE_LOOP( '', ( #216, #217, #218, #219 ) );
#148 = AXIS2_PLACEMENT_3D( '', #220, #221, #222 );
#149 = SURFACE_SIDE_STYLE( '', ( #223 ) );
#150 = EDGE_LOOP( '', ( #224, #225, #226, #227 ) );
#151 = AXIS2_PLACEMENT_3D( '', #228, #229, #230 );
#152 = SURFACE_SIDE_STYLE( '', ( #231 ) );
#153 = EDGE_LOOP( '', ( #232 ) );
#154 = EDGE_LOOP( '', ( #233, #234, #235, #236, #237, #238 ) );
#155 = AXIS2_PLACEMENT_3D( '', #239, #240, #241 );
#156 = SURFACE_SIDE_STYLE( '', ( #242 ) );
#157 = EDGE_LOOP( '', ( #243 ) );
#158 = EDGE_LOOP( '', ( #244 ) );
#159 = AXIS2_PLACEMENT_3D( '', #245, #246, #247 );
#160 = SURFACE_SIDE_STYLE( '', ( #248 ) );
#161 = EDGE_LOOP( '', ( #249, #250, #251, #252 ) );
#162 = AXIS2_PLACEMENT_3D( '', #253, #254, #255 );
#164 = SURFACE_STYLE_FILL_AREA( #256 );
#165 = ORIENTED_EDGE( '', *, *, #257, .T. );
#166 = CARTESIAN_POINT( '', ( 8.00000000000000, 4.37429493582660, 0.000000000000000 ) );
#167 = DIRECTION( '', ( -1.00000000000000, 0.000000000000000, 0.000000000000000 ) );
#168 = DIRECTION( '', ( 0.000000000000000, 0.000000000000000, 1.00000000000000 ) );
#169 = SURFACE_STYLE_FILL_AREA( #258 );
#170 = ORIENTED_EDGE( '', *, *, #259, .F. );
#171 = ORIENTED_EDGE( '', *, *, #260, .T. );
#172 = CARTESIAN_POINT( '', ( 0.000000000000000, 0.000000000000000, 0.000000000000000 ) );
#173 = DIRECTION( '', ( 1.00000000000000, -0.000000000000000, -0.000000000000000 ) );
#174 = DIRECTION( '', ( -0.000000000000000, 0.000000000000000, -1.00000000000000 ) );
#175 = SURFACE_STYLE_FILL_AREA( #261 );
#176 = ORIENTED_EDGE( '', *, *, #262, .F. );
#177 = ORIENTED_EDGE( '', *, *, #259, .T. );
#178 = CARTESIAN_POINT( '', ( 0.499753280182866, 0.000000000000000, 0.000000000000000 ) );
#179 = DIRECTION( '', ( -1.00000000000000, 0.000000000000000, -0.000000000000000 ) );
#180 = DIRECTION( '', ( 0.000000000000000, 0.000000000000000, 1.00000000000000 ) );
#181 = SURFACE_STYLE_FILL_AREA( #263 );
#182 = ORIENTED_EDGE( '', *, *, #264, .F. );
#183 = ORIENTED_EDGE( '', *, *, #265, .F. );
#184 = ORIENTED_EDGE( '', *, *, #266, .T. );
#185 = ORIENTED_EDGE( '', *, *, #267, .T. );
#186 = CARTESIAN_POINT( '', ( 4.00000000000000, 2.88675134594813, 0.000000000000000 ) );
#187 = DIRECTION( '', ( 0.000000000000000, -0.866025403784439, -0.500000000000000 ) );
#188 = DIRECTION( '', ( 0.000000000000000, 0.500000000000000, -0.866025403784439 ) );
#189 = SURFACE_STYLE_FILL_AREA( #268 );
#190 = ORIENTED_EDGE( '', *, *, #269, .F. );
#191 = ORIENTED_EDGE( '', *, *, #270, .F. );
#192 = ORIENTED_EDGE( '', *, *, #271, .T. );
#193 = ORIENTED_EDGE( '', *, *, #272, .T. );
#194 = CARTESIAN_POINT( '', ( 4.00000000000000, -1.44337567297406, -2.50000000000000 ) );
#195 = DIRECTION( '', ( 0.000000000000000, 0.000000000000000, 1.00000000000000 ) );
#196 = DIRECTION( '', ( 1.00000000000000, 0.000000000000000, -0.000000000000000 ) );
#197 = SURFACE_STYLE_FILL_AREA( #273 );
#198 = ORIENTED_EDGE( '', *, *, #274, .F. );
#199 = ORIENTED_EDGE( '', *, *, #266, .F. );
#200 = ORIENTED_EDGE( '', *, *, #275, .F. );
#201 = ORIENTED_EDGE( '', *, *, #271, .F. );
#202 = ORIENTED_EDGE( '', *, *, #276, .F. );
#203 = ORIENTED_EDGE( '', *, *, #277, .F. );
#204 = CARTESIAN_POINT( '', ( 4.00000000000000, 0.000000000000000, 0.000000000000000 ) );
#205 = DIRECTION( '', ( 1.00000000000000, 0.000000000000000, 0.000000000000000 ) );
#206 = DIRECTION( '', ( 0.000000000000000, 0.000000000000000, -1.00000000000000 ) );
#207 = SURFACE_STYLE_FILL_AREA( #278 );
#208 = ORIENTED_EDGE( '', *, *, #279, .F. );
#209 = ORIENTED_EDGE( '', *, *, #280, .F. );
#210 = ORIENTED_EDGE( '', *, *, #277, .T. );
#211 = ORIENTED_EDGE( '', *, *, #281, .T. );
#212 = CARTESIAN_POINT( '', ( 4.00000000000000, -1.44337567297406, 2.50000000000000 ) );
#213 = DIRECTION( '', ( 0.000000000000000, 0.866025403784439, -0.500000000000000 ) );
#214 = DIRECTION( '', ( 0.000000000000000, 0.500000000000000, 0.866025403784439 ) );
#215 = SURFACE_STYLE_FILL_AREA( #282 );
#216 = ORIENTED_EDGE( '', *, *, #283, .F. );
#217 = ORIENTED_EDGE( '', *, *, #267, .F. );
#218 = ORIENTED_EDGE( '', *, *, #274, .T. );
#219 = ORIENTED_EDGE( '', *, *, #280, .T. );
#220 = CARTESIAN_POINT( '', ( 4.00000000000000, 1.44337567297406, 2.50000000000000 ) );
#221 = DIRECTION( '', ( 0.000000000000000, 0.000000000000000, -1.00000000000000 ) );
#222 = DIRECTION( '', ( -1.00000000000000, 0.000000000000000, 0.000000000000000 ) );
#223 = SURFACE_STYLE_FILL_AREA( #284 );
#224 = ORIENTED_EDGE( '', *, *, #285, .F. );
#225 = ORIENTED_EDGE( '', *, *, #281, .F. );
#226 = ORIENTED_EDGE( '', *, *, #276, .T. );
#227 = ORIENTED_EDGE( '', *, *, #270, .T. );
#228 = CARTESIAN_POINT( '', ( 4.00000000000000, -2.88675134594813, 0.000000000000000 ) );
#229 = DIRECTION( '', ( -0.000000000000000, 0.866025403784439, 0.500000000000000 ) );
#230 = DIRECTION( '', ( 0.000000000000000, -0.500000000000000, 0.866025403784439 ) );
#231 = SURFACE_STYLE_FILL_AREA( #286 );
#232 = ORIENTED_EDGE( '', *, *, #260, .F. );
#233 = ORIENTED_EDGE( '', *, *, #283, .T. );
#234 = ORIENTED_EDGE( '', *, *, #279, .T. );
#235 = ORIENTED_EDGE( '', *, *, #285, .T. );
#236 = ORIENTED_EDGE( '', *, *, #269, .T. );
#237 = ORIENTED_EDGE( '', *, *, #287, .T. );
#238 = ORIENTED_EDGE( '', *, *, #264, .T. );
#239 = CARTESIAN_POINT( '', ( 0.000000000000000, 0.000000000000000, 0.000000000000000 ) );
#240 = DIRECTION( '', ( 1.00000000000000, 0.000000000000000, -0.000000000000000 ) );
#241 = DIRECTION( '', ( -0.000000000000000, 0.000000000000000, -1.00000000000000 ) );
#242 = SURFACE_STYLE_FILL_AREA( #288 );
#243 = ORIENTED_EDGE( '', *, *, #257, .F. );
#244 = ORIENTED_EDGE( '', *, *, #262, .T. );
#245 = CARTESIAN_POINT( '', ( 7.50024671981714, 0.000000000000000, 0.000000000000000 ) );
#246 = DIRECTION( '', ( -1.00000000000000, 0.000000000000000, -0.000000000000000 ) );
#247 = DIRECTION( '', ( 0.000000000000000, 0.000000000000000, 1.00000000000000 ) );
#248 = SURFACE_STYLE_FILL_AREA( #289 );
#249 = ORIENTED_EDGE( '', *, *, #287, .F. );
#250 = ORIENTED_EDGE( '', *, *, #272, .F. );
#251 = ORIENTED_EDGE( '', *, *, #275, .T. );
#252 = ORIENTED_EDGE( '', *, *, #265, .T. );
#253 = CARTESIAN_POINT( '', ( 4.00000000000000, 1.44337567297406, -2.50000000000000 ) );
#254 = DIRECTION( '', ( 0.000000000000000, -0.866025403784439, 0.500000000000000 ) );
#255 = DIRECTION( '', ( 0.000000000000000, -0.500000000000000, -0.866025403784439 ) );
#256 = FILL_AREA_STYLE( '', ( #290 ) );
#257 = EDGE_CURVE( '', #291, #291, #292, .T. );
#258 = FILL_AREA_STYLE( '', ( #293 ) );
#259 = EDGE_CURVE( '', #294, #294, #295, .T. );
#260 = EDGE_CURVE( '', #296, #296, #297, .T. );
#261 = FILL_AREA_STYLE( '', ( #298 ) );
#262 = EDGE_CURVE( '', #299, #299, #300, .T. );
#263 = FILL_AREA_STYLE( '', ( #301 ) );
#264 = EDGE_CURVE( '', #302, #303, #304, .T. );
#265 = EDGE_CURVE( '', #305, #302, #306, .T. );
#266 = EDGE_CURVE( '', #305, #307, #308, .T. );
#267 = EDGE_CURVE( '', #307, #303, #309, .T. );
#268 = FILL_AREA_STYLE( '', ( #310 ) );
#269 = EDGE_CURVE( '', #311, #312, #313, .T. );
#270 = EDGE_CURVE( '', #314, #311, #315, .T. );
#271 = EDGE_CURVE( '', #314, #316, #317, .T. );
#272 = EDGE_CURVE( '', #316, #312, #318, .T. );
#273 = FILL_AREA_STYLE( '', ( #319 ) );
#274 = EDGE_CURVE( '', #307, #320, #321, .T. );
#275 = EDGE_CURVE( '', #316, #305, #322, .T. );
#276 = EDGE_CURVE( '', #323, #314, #324, .T. );
#277 = EDGE_CURVE( '', #320, #323, #325, .T. );
#278 = FILL_AREA_STYLE( '', ( #326 ) );
#279 = EDGE_CURVE( '', #327, #328, #329, .T. );
#280 = EDGE_CURVE( '', #320, #327, #330, .T. );
#281 = EDGE_CURVE( '', #323, #328, #331, .T. );
#282 = FILL_AREA_STYLE( '', ( #332 ) );
#283 = EDGE_CURVE( '', #303, #327, #333, .T. );
#284 = FILL_AREA_STYLE( '', ( #334 ) );
#285 = EDGE_CURVE( '', #328, #311, #335, .T. );
#286 = FILL_AREA_STYLE( '', ( #336 ) );
#287 = EDGE_CURVE( '', #312, #302, #337, .T. );
#288 = FILL_AREA_STYLE( '', ( #338 ) );
#289 = FILL_AREA_STYLE( '', ( #339 ) );
#290 = FILL_AREA_STYLE_COLOUR( '', #340 );
#291 = VERTEX_POINT( '', #341 );
#292 = CIRCLE( '', #342, 4.37429493580000 );
#293 = FILL_AREA_STYLE_COLOUR( '', #343 );
#294 = VERTEX_POINT( '', #344 );
#295 = CIRCLE( '', #345, 5.10999968460000 );
#296 = VERTEX_POINT( '', #346 );
#297 = CIRCLE( '', #347, 4.62570506420000 );
#298 = FILL_AREA_STYLE_COLOUR( '', #348 );
#299 = VERTEX_POINT( '', #349 );
#300 = CIRCLE( '', #350, 4.89000031540000 );
#301 = FILL_AREA_STYLE_COLOUR( '', #351 );
#302 = VERTEX_POINT( '', #352 );
#303 = VERTEX_POINT( '', #353 );
#304 = LINE( '', #354, #355 );
#305 = VERTEX_POINT( '', #356 );
#306 = LINE( '', #357, #358 );
#307 = VERTEX_POINT( '', #359 );
#308 = LINE( '', #360, #361 );
#309 = LINE( '', #362, #363 );
#310 = FILL_AREA_STYLE_COLOUR( '', #364 );
#311 = VERTEX_POINT( '', #365 );
#312 = VERTEX_POINT( '', #366 );
#313 = LINE( '', #367, #368 );
#314 = VERTEX_POINT( '', #369 );
#315 = LINE( '', #370, #371 );
#316 = VERTEX_POINT( '', #372 );
#317 = LINE( '', #373, #374 );
#318 = LINE( '', #375, #376 );
#319 = FILL_AREA_STYLE_COLOUR( '', #377 );
#320 = VERTEX_POINT( '', #378 );
#321 = LINE( '', #379, #380 );
#322 = LINE( '', #381, #382 );
#323 = VERTEX_POINT( '', #383 );
#324 = LINE( '', #384, #385 );
#325 = LINE( '', #386, #387 );
#326 = FILL_AREA_STYLE_COLOUR( '', #388 );
#327 = VERTEX_POINT( '', #389 );
#328 = VERTEX_POINT( '', #390 );
#329 = LINE( '', #391, #392 );
#330 = LINE( '', #393, #394 );
#331 = LINE( '', #395, #396 );
#332 = FILL_AREA_STYLE_COLOUR( '', #397 );
#333 = LINE( '', #398, #399 );
#334 = FILL_AREA_STYLE_COLOUR( '', #400 );
#335 = LINE( '', #401, #402 );
#336 = FILL_AREA_STYLE_COLOUR( '', #403 );
#337 = LINE( '', #404, #405 );
#338 = FILL_AREA_STYLE_COLOUR( '', #406 );
#339 = FILL_AREA_STYLE_COLOUR( '', #407 );
#340 = COLOUR_RGB( '', 0.689999997600000, 0.689999997600000, 0.689999997600000 );
#341 = CARTESIAN_POINT( '', ( 8.00000000000000, 0.000000000000000, -4.37429493582660 ) );
#342 = AXIS2_PLACEMENT_3D( '', #408, #409, #410 );
#343 = COLOUR_RGB( '', 0.689999997600000, 0.689999997600000, 0.689999997600000 );
#344 = CARTESIAN_POINT( '', ( 0.499753280182866, 0.000000000000000, -5.10999968463434 ) );
#345 = AXIS2_PLACEMENT_3D( '', #411, #412, #413 );
#346 = CARTESIAN_POINT( '', ( 0.000000000000000, 0.000000000000000, -4.62570506417340 ) );
#347 = AXIS2_PLACEMENT_3D( '', #414, #415, #416 );
#348 = COLOUR_RGB( '', 0.689999997600000, 0.689999997600000, 0.689999997600000 );
#349 = CARTESIAN_POINT( '', ( 7.50024671981714, 0.000000000000000, -4.89000031536566 ) );
#350 = AXIS2_PLACEMENT_3D( '', #417, #418, #419 );
#351 = COLOUR_RGB( '', 0.689999997600000, 0.689999997600000, 0.689999997600000 );
#352 = CARTESIAN_POINT( '', ( 0.000000000000000, 2.88675134594813, 0.000000000000000 ) );
#353 = CARTESIAN_POINT( '', ( 0.000000000000000, 1.44337567297406, 2.50000000000000 ) );
#354 = CARTESIAN_POINT( '', ( 0.000000000000000, 2.88675134594813, 0.000000000000000 ) );
#355 = VECTOR( '', #420, 1000.00000000000 );
#356 = CARTESIAN_POINT( '', ( 4.00000000000000, 2.88675134594813, 0.000000000000000 ) );
#357 = CARTESIAN_POINT( '', ( 4.00000000000000, 2.88675134594813, 0.000000000000000 ) );
#358 = VECTOR( '', #421, 1000.00000000000 );
#359 = CARTESIAN_POINT( '', ( 4.00000000000000, 1.44337567297406, 2.50000000000000 ) );
#360 = CARTESIAN_POINT( '', ( 4.00000000000000, 2.88675134594813, 0.000000000000000 ) );
#361 = VECTOR( '', #422, 1000.00000000000 );
#362 = CARTESIAN_POINT( '', ( 4.00000000000000, 1.44337567297406, 2.50000000000000 ) );
#363 = VECTOR( '', #423, 1000.00000000000 );
#364 = COLOUR_RGB( '', 0.689999997600000, 0.689999997600000, 0.689999997600000 );
#365 = CARTESIAN_POINT( '', ( 0.000000000000000, -1.44337567297406, -2.50000000000000 ) );
#366 = CARTESIAN_POINT( '', ( 0.000000000000000, 1.44337567297406, -2.50000000000000 ) );
#367 = CARTESIAN_POINT( '', ( 0.000000000000000, -1.44337567297406, -2.50000000000000 ) );
#368 = VECTOR( '', #424, 1000.00000000000 );
#369 = CARTESIAN_POINT( '', ( 4.00000000000000, -1.44337567297406, -2.50000000000000 ) );
#370 = CARTESIAN_POINT( '', ( 4.00000000000000, -1.44337567297406, -2.50000000000000 ) );
#371 = VECTOR( '', #425, 1000.00000000000 );
#372 = CARTESIAN_POINT( '', ( 4.00000000000000, 1.44337567297406, -2.50000000000000 ) );
#373 = CARTESIAN_POINT( '', ( 4.00000000000000, -1.44337567297406, -2.50000000000000 ) );
#374 = VECTOR( '', #426, 1000.00000000000 );
#375 = CARTESIAN_POINT( '', ( 4.00000000000000, 1.44337567297406, -2.50000000000000 ) );
#376 = VECTOR( '', #427, 1000.00000000000 );
#377 = COLOUR_RGB( '', 0.689999997600000, 0.689999997600000, 0.689999997600000 );
#378 = CARTESIAN_POINT( '', ( 4.00000000000000, -1.44337567297406, 2.50000000000000 ) );
#379 = CARTESIAN_POINT( '', ( 4.00000000000000, 1.44337567297406, 2.50000000000000 ) );
#380 = VECTOR( '', #428, 1000.00000000000 );
#381 = CARTESIAN_POINT( '', ( 4.00000000000000, 1.44337567297406, -2.50000000000000 ) );
#382 = VECTOR( '', #429, 1000.00000000000 );
#383 = CARTESIAN_POINT( '', ( 4.00000000000000, -2.88675134594813, 0.000000000000000 ) );
#384 = CARTESIAN_POINT( '', ( 4.00000000000000, -2.88675134594813, 0.000000000000000 ) );
#385 = VECTOR( '', #430, 1000.00000000000 );
#386 = CARTESIAN_POINT( '', ( 4.00000000000000, -1.44337567297406, 2.50000000000000 ) );
#387 = VECTOR( '', #431, 1000.00000000000 );
#388 = COLOUR_RGB( '', 0.689999997600000, 0.689999997600000, 0.689999997600000 );
#389 = CARTESIAN_POINT( '', ( 0.000000000000000, -1.44337567297406, 2.50000000000000 ) );
#390 = CARTESIAN_POINT( '', ( 0.000000000000000, -2.88675134594813, 0.000000000000000 ) );
#391 = CARTESIAN_POINT( '', ( 0.000000000000000, -1.44337567297406, 2.50000000000000 ) );
#392 = VECTOR( '', #432, 1000.00000000000 );
#393 = CARTESIAN_POINT( '', ( 4.00000000000000, -1.44337567297406, 2.50000000000000 ) );
#394 = VECTOR( '', #433, 1000.00000000000 );
#395 = CARTESIAN_POINT( '', ( 4.00000000000000, -2.88675134594813, 0.000000000000000 ) );
#396 = VECTOR( '', #434, 1000.00000000000 );
#397 = COLOUR_RGB( '', 0.689999997600000, 0.689999997600000, 0.689999997600000 );
#398 = CARTESIAN_POINT( '', ( 0.000000000000000, 1.44337567297406, 2.50000000000000 ) );
#399 = VECTOR( '', #435, 1000.00000000000 );
#400 = COLOUR_RGB( '', 0.689999997600000, 0.689999997600000, 0.689999997600000 );
#401 = CARTESIAN_POINT( '', ( 0.000000000000000, -2.88675134594813, 0.000000000000000 ) );
#402 = VECTOR( '', #436, 1000.00000000000 );
#403 = COLOUR_RGB( '', 0.689999997600000, 0.689999997600000, 0.689999997600000 );
#404 = CARTESIAN_POINT( '', ( 0.000000000000000, 1.44337567297406, -2.50000000000000 ) );
#405 = VECTOR( '', #437, 1000.00000000000 );
#406 = COLOUR_RGB( '', 0.689999997600000, 0.689999997600000, 0.689999997600000 );
#407 = COLOUR_RGB( '', 0.689999997600000, 0.689999997600000, 0.689999997600000 );
#408 = CARTESIAN_POINT( '', ( 8.00000000000000, 0.000000000000000, 0.000000000000000 ) );
#409 = DIRECTION( '', ( 1.00000000000000, 0.000000000000000, -0.000000000000000 ) );
#410 = DIRECTION( '', ( -0.000000000000000, 0.000000000000000, -1.00000000000000 ) );
#411 = CARTESIAN_POINT( '', ( 0.499753280182866, 0.000000000000000, 0.000000000000000 ) );
#412 = DIRECTION( '', ( 1.00000000000000, 0.000000000000000, -0.000000000000000 ) );
#413 = DIRECTION( '', ( -0.000000000000000, 0.000000000000000, -1.00000000000000 ) );
#414 = CARTESIAN_POINT( '', ( 0.000000000000000, 0.000000000000000, 0.000000000000000 ) );
#415 = DIRECTION( '', ( 1.00000000000000, 0.000000000000000, -0.000000000000000 ) );
#416 = DIRECTION( '', ( -0.000000000000000, 0.000000000000000, -1.00000000000000 ) );
#417 = CARTESIAN_POINT( '', ( 7.50024671981714, 0.000000000000000, 0.000000000000000 ) );
#418 = DIRECTION( '', ( 1.00000000000000, 0.000000000000000, -0.000000000000000 ) );
#419 = DIRECTION( '', ( -0.000000000000000, 0.000000000000000, -1.00000000000000 ) );
#420 = DIRECTION( '', ( 0.000000000000000, -0.500000000000000, 0.866025403784439 ) );
#421 = DIRECTION( '', ( -1.00000000000000, -0.000000000000000, -0.000000000000000 ) );
#422 = DIRECTION( '', ( 0.000000000000000, -0.500000000000000, 0.866025403784439 ) );
#423 = DIRECTION( '', ( -1.00000000000000, -0.000000000000000, -0.000000000000000 ) );
#424 = DIRECTION( '', ( 0.000000000000000, 1.00000000000000, 0.000000000000000 ) );
#425 = DIRECTION( '', ( -1.00000000000000, -0.000000000000000, -0.000000000000000 ) );
#426 = DIRECTION( '', ( 0.000000000000000, 1.00000000000000, 0.000000000000000 ) );
#427 = DIRECTION( '', ( -1.00000000000000, -0.000000000000000, -0.000000000000000 ) );
#428 = DIRECTION( '', ( 0.000000000000000, -1.00000000000000, 0.000000000000000 ) );
#429 = DIRECTION( '', ( 0.000000000000000, 0.500000000000000, 0.866025403784439 ) );
#430 = DIRECTION( '', ( 0.000000000000000, 0.500000000000000, -0.866025403784439 ) );
#431 = DIRECTION( '', ( 0.000000000000000, -0.500000000000000, -0.866025403784439 ) );
#432 = DIRECTION( '', ( 0.000000000000000, -0.500000000000000, -0.866025403784439 ) );
#433 = DIRECTION( '', ( -1.00000000000000, -0.000000000000000, -0.000000000000000 ) );
#434 = DIRECTION( '', ( -1.00000000000000, -0.000000000000000, -0.000000000000000 ) );
#435 = DIRECTION( '', ( 0.000000000000000, -1.00000000000000, 0.000000000000000 ) );
#436 = DIRECTION( '', ( 0.000000000000000, 0.500000000000000, -0.866025403784439 ) );
#437 = DIRECTION( '', ( 0.000000000000000, 0.500000000000000, 0.866025403784439 ) );
ENDSEC;
END-ISO-10303-21;
