ISO-10303-21;
HEADER;
FILE_DESCRIPTION( ( 'STEP AP214' ), '1' );
FILE_NAME( '//goodhand-server/Shared Folders/GoodHand Data/Kipp CAD/K0757/K0757.110010X1000.stp', '2020-12-10T08:49:57', ( '' ), ( '' ), ' ', 'PARTsolutions', ' ' );
FILE_SCHEMA( ( 'AUTOMOTIVE_DESIGN { 1 0 10303 214 1 1 1 1 }' ) );
ENDSEC;
DATA;
#1 = MECHANICAL_DESIGN_GEOMETRIC_PRESENTATION_REPRESENTATION( ' ', ( #10, #11, #12, #13, #14, #15, #16, #17, #18, #19, #20 ), #6 );
#2 = PRODUCT_DEFINITION_CONTEXT( '', #21, 'design' );
#3 = APPLICATION_PROTOCOL_DEFINITION( 'international standard', 'automotive_design', 2001, #21 );
#4 = PRODUCT_CATEGORY_RELATIONSHIP( 'NONE', 'NONE', #22, #23 );
#5 = SHAPE_DEFINITION_REPRESENTATION( #24, #25 );
#6 =  ( GEOMETRIC_REPRESENTATION_CONTEXT( 3 )GLOBAL_UNCERTAINTY_ASSIGNED_CONTEXT( ( #28 ) )GLOBAL_UNIT_ASSIGNED_CONTEXT( ( #30, #31, #32 ) )REPRESENTATION_CONTEXT( 'NONE', 'WORKSPACE' ) );
#10 = STYLED_ITEM( '', ( #34 ), #35 );
#11 = STYLED_ITEM( '', ( #36 ), #37 );
#12 = STYLED_ITEM( '', ( #38 ), #39 );
#13 = STYLED_ITEM( '', ( #40 ), #41 );
#14 = STYLED_ITEM( '', ( #42 ), #43 );
#15 = STYLED_ITEM( '', ( #44 ), #45 );
#16 = STYLED_ITEM( '', ( #46 ), #47 );
#17 = STYLED_ITEM( '', ( #48 ), #49 );
#18 = STYLED_ITEM( '', ( #50 ), #51 );
#19 = STYLED_ITEM( '', ( #52 ), #53 );
#20 = STYLED_ITEM( '', ( #54 ), #55 );
#21 = APPLICATION_CONTEXT( 'core data for automotive mechanical design processes' );
#22 = PRODUCT_CATEGORY( 'part', 'NONE' );
#23 = PRODUCT_RELATED_PRODUCT_CATEGORY( 'detail', ' ', ( #56 ) );
#24 = PRODUCT_DEFINITION_SHAPE( 'NONE', 'NONE', #57 );
#25 = ADVANCED_BREP_SHAPE_REPRESENTATION( '_K0757.110010X1000', ( #58, #59 ), #6 );
#28 = UNCERTAINTY_MEASURE_WITH_UNIT( LENGTH_MEASURE( 0.00100000000000000 ), #30, '', '' );
#30 =  ( CONVERSION_BASED_UNIT( 'MILLIMETRE', #62 )LENGTH_UNIT(  )NAMED_UNIT( #65 ) );
#31 =  ( NAMED_UNIT( #67 )PLANE_ANGLE_UNIT(  )SI_UNIT( $, .RADIAN. ) );
#32 =  ( NAMED_UNIT( #67 )SI_UNIT( $, .STERADIAN. )SOLID_ANGLE_UNIT(  ) );
#34 = PRESENTATION_STYLE_ASSIGNMENT( ( #73 ) );
#35 = ADVANCED_FACE( '', ( #74, #75 ), #76, .F. );
#36 = PRESENTATION_STYLE_ASSIGNMENT( ( #77 ) );
#37 = ADVANCED_FACE( '', ( #78 ), #79, .F. );
#38 = PRESENTATION_STYLE_ASSIGNMENT( ( #80 ) );
#39 = ADVANCED_FACE( '', ( #81 ), #82, .F. );
#40 = PRESENTATION_STYLE_ASSIGNMENT( ( #83 ) );
#41 = ADVANCED_FACE( '', ( #84, #85 ), #86, .F. );
#42 = PRESENTATION_STYLE_ASSIGNMENT( ( #87 ) );
#43 = ADVANCED_FACE( '', ( #88, #89 ), #90, .F. );
#44 = PRESENTATION_STYLE_ASSIGNMENT( ( #91 ) );
#45 = ADVANCED_FACE( '', ( #92, #93, #94, #95, #96, #97 ), #98, .F. );
#46 = PRESENTATION_STYLE_ASSIGNMENT( ( #99 ) );
#47 = ADVANCED_FACE( '', ( #100, #101 ), #102, .F. );
#48 = PRESENTATION_STYLE_ASSIGNMENT( ( #103 ) );
#49 = ADVANCED_FACE( '', ( #104 ), #105, .F. );
#50 = PRESENTATION_STYLE_ASSIGNMENT( ( #106 ) );
#51 = ADVANCED_FACE( '', ( #107 ), #108, .F. );
#52 = PRESENTATION_STYLE_ASSIGNMENT( ( #109 ) );
#53 = ADVANCED_FACE( '', ( #110, #111 ), #112, .F. );
#54 = PRESENTATION_STYLE_ASSIGNMENT( ( #113 ) );
#55 = ADVANCED_FACE( '', ( #114, #115, #116, #117, #118, #119 ), #120, .T. );
#56 = PRODUCT( '_K0757.110010X1000', '_K0757.110010X1000', 'PART-_K0757.110010X1000-DESC', ( #121 ) );
#57 = PRODUCT_DEFINITION( 'NONE', 'NONE', #122, #2 );
#58 = MANIFOLD_SOLID_BREP( '_K0757.110010X1000', #123 );
#59 = AXIS2_PLACEMENT_3D( '', #124, #125, #126 );
#62 = LENGTH_MEASURE_WITH_UNIT( LENGTH_MEASURE( 1.00000000000000 ), #127 );
#65 = DIMENSIONAL_EXPONENTS( 1.00000000000000, 0.000000000000000, 0.000000000000000, 0.000000000000000, 0.000000000000000, 0.000000000000000, 0.000000000000000 );
#67 = DIMENSIONAL_EXPONENTS( 0.000000000000000, 0.000000000000000, 0.000000000000000, 0.000000000000000, 0.000000000000000, 0.000000000000000, 0.000000000000000 );
#73 = SURFACE_STYLE_USAGE( .BOTH., #128 );
#74 = FACE_BOUND( '', #129, .T. );
#75 = FACE_OUTER_BOUND( '', #130, .T. );
#76 = CONICAL_SURFACE( '', #131, 4.05000000000000, 0.785398163400000 );
#77 = SURFACE_STYLE_USAGE( .BOTH., #132 );
#78 = FACE_OUTER_BOUND( '', #133, .T. );
#79 = PLANE( '', #134 );
#80 = SURFACE_STYLE_USAGE( .BOTH., #135 );
#81 = FACE_OUTER_BOUND( '', #136, .T. );
#82 = PLANE( '', #137 );
#83 = SURFACE_STYLE_USAGE( .BOTH., #138 );
#84 = FACE_BOUND( '', #139, .T. );
#85 = FACE_OUTER_BOUND( '', #140, .T. );
#86 = CONICAL_SURFACE( '', #141, 4.05000000000000, 0.785398163400000 );
#87 = SURFACE_STYLE_USAGE( .BOTH., #142 );
#88 = FACE_BOUND( '', #143, .T. );
#89 = FACE_OUTER_BOUND( '', #144, .T. );
#90 = CONICAL_SURFACE( '', #145, 4.05000000000000, 0.785398163400000 );
#91 = SURFACE_STYLE_USAGE( .BOTH., #146 );
#92 = FACE_BOUND( '', #147, .T. );
#93 = FACE_BOUND( '', #148, .T. );
#94 = FACE_BOUND( '', #149, .T. );
#95 = FACE_BOUND( '', #150, .T. );
#96 = FACE_BOUND( '', #151, .T. );
#97 = FACE_OUTER_BOUND( '', #152, .T. );
#98 = PLANE( '', #153 );
#99 = SURFACE_STYLE_USAGE( .BOTH., #154 );
#100 = FACE_BOUND( '', #155, .T. );
#101 = FACE_OUTER_BOUND( '', #156, .T. );
#102 = CONICAL_SURFACE( '', #157, 4.05000000000000, 0.785398163400000 );
#103 = SURFACE_STYLE_USAGE( .BOTH., #158 );
#104 = FACE_OUTER_BOUND( '', #159, .T. );
#105 = PLANE( '', #160 );
#106 = SURFACE_STYLE_USAGE( .BOTH., #161 );
#107 = FACE_OUTER_BOUND( '', #162, .T. );
#108 = PLANE( '', #163 );
#109 = SURFACE_STYLE_USAGE( .BOTH., #164 );
#110 = FACE_BOUND( '', #165, .T. );
#111 = FACE_OUTER_BOUND( '', #166, .T. );
#112 = CONICAL_SURFACE( '', #167, 4.05000000000000, 0.785398163400000 );
#113 = SURFACE_STYLE_USAGE( .BOTH., #168 );
#114 = FACE_BOUND( '', #169, .T. );
#115 = FACE_BOUND( '', #170, .T. );
#116 = FACE_BOUND( '', #171, .T. );
#117 = FACE_BOUND( '', #172, .T. );
#118 = FACE_BOUND( '', #173, .T. );
#119 = FACE_OUTER_BOUND( '', #174, .T. );
#120 = PLANE( '', #175 );
#121 = PRODUCT_CONTEXT( '', #21, 'mechanical' );
#122 = PRODUCT_DEFINITION_FORMATION_WITH_SPECIFIED_SOURCE( ' ', 'NONE', #56, .NOT_KNOWN. );
#123 = CLOSED_SHELL( '', ( #45, #47, #55, #37, #49, #51, #39, #41, #43, #35, #53 ) );
#124 = CARTESIAN_POINT( '', ( 0.000000000000000, 0.000000000000000, 0.000000000000000 ) );
#125 = DIRECTION( '', ( 0.000000000000000, 0.000000000000000, 1.00000000000000 ) );
#126 = DIRECTION( '', ( 1.00000000000000, 0.000000000000000, 0.000000000000000 ) );
#127 =  ( LENGTH_UNIT(  )NAMED_UNIT( #65 )SI_UNIT( .MILLI., .METRE. ) );
#128 = SURFACE_SIDE_STYLE( '', ( #177 ) );
#129 = EDGE_LOOP( '', ( #178 ) );
#130 = EDGE_LOOP( '', ( #179 ) );
#131 = AXIS2_PLACEMENT_3D( '', #180, #181, #182 );
#132 = SURFACE_SIDE_STYLE( '', ( #183 ) );
#133 = EDGE_LOOP( '', ( #184, #185, #186, #187 ) );
#134 = AXIS2_PLACEMENT_3D( '', #188, #189, #190 );
#135 = SURFACE_SIDE_STYLE( '', ( #191 ) );
#136 = EDGE_LOOP( '', ( #192, #193, #194, #195 ) );
#137 = AXIS2_PLACEMENT_3D( '', #196, #197, #198 );
#138 = SURFACE_SIDE_STYLE( '', ( #199 ) );
#139 = EDGE_LOOP( '', ( #200 ) );
#140 = EDGE_LOOP( '', ( #201 ) );
#141 = AXIS2_PLACEMENT_3D( '', #202, #203, #204 );
#142 = SURFACE_SIDE_STYLE( '', ( #205 ) );
#143 = EDGE_LOOP( '', ( #206 ) );
#144 = EDGE_LOOP( '', ( #207 ) );
#145 = AXIS2_PLACEMENT_3D( '', #208, #209, #210 );
#146 = SURFACE_SIDE_STYLE( '', ( #211 ) );
#147 = EDGE_LOOP( '', ( #212 ) );
#148 = EDGE_LOOP( '', ( #213 ) );
#149 = EDGE_LOOP( '', ( #214 ) );
#150 = EDGE_LOOP( '', ( #215 ) );
#151 = EDGE_LOOP( '', ( #216 ) );
#152 = EDGE_LOOP( '', ( #217, #218, #219, #220 ) );
#153 = AXIS2_PLACEMENT_3D( '', #221, #222, #223 );
#154 = SURFACE_SIDE_STYLE( '', ( #224 ) );
#155 = EDGE_LOOP( '', ( #225 ) );
#156 = EDGE_LOOP( '', ( #226 ) );
#157 = AXIS2_PLACEMENT_3D( '', #227, #228, #229 );
#158 = SURFACE_SIDE_STYLE( '', ( #230 ) );
#159 = EDGE_LOOP( '', ( #231, #232, #233, #234 ) );
#160 = AXIS2_PLACEMENT_3D( '', #235, #236, #237 );
#161 = SURFACE_SIDE_STYLE( '', ( #238 ) );
#162 = EDGE_LOOP( '', ( #239, #240, #241, #242 ) );
#163 = AXIS2_PLACEMENT_3D( '', #243, #244, #245 );
#164 = SURFACE_SIDE_STYLE( '', ( #246 ) );
#165 = EDGE_LOOP( '', ( #247 ) );
#166 = EDGE_LOOP( '', ( #248 ) );
#167 = AXIS2_PLACEMENT_3D( '', #249, #250, #251 );
#168 = SURFACE_SIDE_STYLE( '', ( #252 ) );
#169 = EDGE_LOOP( '', ( #253 ) );
#170 = EDGE_LOOP( '', ( #254 ) );
#171 = EDGE_LOOP( '', ( #255 ) );
#172 = EDGE_LOOP( '', ( #256 ) );
#173 = EDGE_LOOP( '', ( #257 ) );
#174 = EDGE_LOOP( '', ( #258, #259, #260, #261 ) );
#175 = AXIS2_PLACEMENT_3D( '', #262, #263, #264 );
#177 = SURFACE_STYLE_FILL_AREA( #265 );
#178 = ORIENTED_EDGE( '', *, *, #266, .T. );
#179 = ORIENTED_EDGE( '', *, *, #267, .F. );
#180 = CARTESIAN_POINT( '', ( -7.49999999999997, 510.000000000000, 2.00000000000000 ) );
#181 = DIRECTION( '', ( 0.000000000000000, -0.000000000000000, 1.00000000000000 ) );
#182 = DIRECTION( '', ( 1.00000000000000, 0.000000000000000, -0.000000000000000 ) );
#183 = SURFACE_STYLE_FILL_AREA( #268 );
#184 = ORIENTED_EDGE( '', *, *, #269, .T. );
#185 = ORIENTED_EDGE( '', *, *, #270, .F. );
#186 = ORIENTED_EDGE( '', *, *, #271, .F. );
#187 = ORIENTED_EDGE( '', *, *, #272, .T. );
#188 = CARTESIAN_POINT( '', ( 6.18446633569413E-14, 1010.00000000000, 2.00000000000000 ) );
#189 = DIRECTION( '', ( 0.000000000000000, -1.00000000000000, 0.000000000000000 ) );
#190 = DIRECTION( '', ( 0.000000000000000, 0.000000000000000, -1.00000000000000 ) );
#191 = SURFACE_STYLE_FILL_AREA( #273 );
#192 = ORIENTED_EDGE( '', *, *, #274, .T. );
#193 = ORIENTED_EDGE( '', *, *, #272, .F. );
#194 = ORIENTED_EDGE( '', *, *, #275, .F. );
#195 = ORIENTED_EDGE( '', *, *, #276, .T. );
#196 = CARTESIAN_POINT( '', ( 0.000000000000000, 0.000000000000000, 2.00000000000000 ) );
#197 = DIRECTION( '', ( -1.00000000000000, 6.12323399573677E-17, 0.000000000000000 ) );
#198 = DIRECTION( '', ( -6.12323399573677E-17, -1.00000000000000, 0.000000000000000 ) );
#199 = SURFACE_STYLE_FILL_AREA( #277 );
#200 = ORIENTED_EDGE( '', *, *, #278, .T. );
#201 = ORIENTED_EDGE( '', *, *, #279, .F. );
#202 = CARTESIAN_POINT( '', ( -7.49999999999994, 990.000000000000, 2.00000000000000 ) );
#203 = DIRECTION( '', ( 0.000000000000000, -0.000000000000000, 1.00000000000000 ) );
#204 = DIRECTION( '', ( 1.00000000000000, 0.000000000000000, -0.000000000000000 ) );
#205 = SURFACE_STYLE_FILL_AREA( #280 );
#206 = ORIENTED_EDGE( '', *, *, #281, .T. );
#207 = ORIENTED_EDGE( '', *, *, #282, .F. );
#208 = CARTESIAN_POINT( '', ( -7.49999999999998, 260.000000000000, 2.00000000000000 ) );
#209 = DIRECTION( '', ( 0.000000000000000, -0.000000000000000, 1.00000000000000 ) );
#210 = DIRECTION( '', ( 1.00000000000000, 0.000000000000000, -0.000000000000000 ) );
#211 = SURFACE_STYLE_FILL_AREA( #283 );
#212 = ORIENTED_EDGE( '', *, *, #284, .F. );
#213 = ORIENTED_EDGE( '', *, *, #266, .F. );
#214 = ORIENTED_EDGE( '', *, *, #281, .F. );
#215 = ORIENTED_EDGE( '', *, *, #278, .F. );
#216 = ORIENTED_EDGE( '', *, *, #285, .F. );
#217 = ORIENTED_EDGE( '', *, *, #286, .F. );
#218 = ORIENTED_EDGE( '', *, *, #269, .F. );
#219 = ORIENTED_EDGE( '', *, *, #274, .F. );
#220 = ORIENTED_EDGE( '', *, *, #287, .F. );
#221 = CARTESIAN_POINT( '', ( -0.000000000000000, 0.000000000000000, 0.000000000000000 ) );
#222 = DIRECTION( '', ( -0.000000000000000, 0.000000000000000, 1.00000000000000 ) );
#223 = DIRECTION( '', ( 1.00000000000000, 0.000000000000000, 0.000000000000000 ) );
#224 = SURFACE_STYLE_FILL_AREA( #288 );
#225 = ORIENTED_EDGE( '', *, *, #285, .T. );
#226 = ORIENTED_EDGE( '', *, *, #289, .F. );
#227 = CARTESIAN_POINT( '', ( -7.50000000000000, 10.0000000000000, 2.00000000000000 ) );
#228 = DIRECTION( '', ( 0.000000000000000, -0.000000000000000, 1.00000000000000 ) );
#229 = DIRECTION( '', ( 1.00000000000000, 0.000000000000000, -0.000000000000000 ) );
#230 = SURFACE_STYLE_FILL_AREA( #290 );
#231 = ORIENTED_EDGE( '', *, *, #286, .T. );
#232 = ORIENTED_EDGE( '', *, *, #291, .F. );
#233 = ORIENTED_EDGE( '', *, *, #292, .F. );
#234 = ORIENTED_EDGE( '', *, *, #270, .T. );
#235 = CARTESIAN_POINT( '', ( -14.9999999999999, 1010.00000000000, 2.00000000000000 ) );
#236 = DIRECTION( '', ( 1.00000000000000, -6.01141798605824E-17, 0.000000000000000 ) );
#237 = DIRECTION( '', ( 6.01141798605824E-17, 1.00000000000000, 0.000000000000000 ) );
#238 = SURFACE_STYLE_FILL_AREA( #293 );
#239 = ORIENTED_EDGE( '', *, *, #287, .T. );
#240 = ORIENTED_EDGE( '', *, *, #276, .F. );
#241 = ORIENTED_EDGE( '', *, *, #294, .F. );
#242 = ORIENTED_EDGE( '', *, *, #291, .T. );
#243 = CARTESIAN_POINT( '', ( -15.0000000000000, 0.000000000000000, 2.00000000000000 ) );
#244 = DIRECTION( '', ( 0.000000000000000, 1.00000000000000, 0.000000000000000 ) );
#245 = DIRECTION( '', ( 0.000000000000000, -0.000000000000000, 1.00000000000000 ) );
#246 = SURFACE_STYLE_FILL_AREA( #295 );
#247 = ORIENTED_EDGE( '', *, *, #284, .T. );
#248 = ORIENTED_EDGE( '', *, *, #296, .F. );
#249 = CARTESIAN_POINT( '', ( -7.49999999999995, 760.000000000000, 2.00000000000000 ) );
#250 = DIRECTION( '', ( 0.000000000000000, -0.000000000000000, 1.00000000000000 ) );
#251 = DIRECTION( '', ( 1.00000000000000, 0.000000000000000, -0.000000000000000 ) );
#252 = SURFACE_STYLE_FILL_AREA( #297 );
#253 = ORIENTED_EDGE( '', *, *, #296, .T. );
#254 = ORIENTED_EDGE( '', *, *, #267, .T. );
#255 = ORIENTED_EDGE( '', *, *, #282, .T. );
#256 = ORIENTED_EDGE( '', *, *, #279, .T. );
#257 = ORIENTED_EDGE( '', *, *, #289, .T. );
#258 = ORIENTED_EDGE( '', *, *, #292, .T. );
#259 = ORIENTED_EDGE( '', *, *, #294, .T. );
#260 = ORIENTED_EDGE( '', *, *, #275, .T. );
#261 = ORIENTED_EDGE( '', *, *, #271, .T. );
#262 = CARTESIAN_POINT( '', ( 0.000000000000000, 0.000000000000000, 2.00000000000000 ) );
#263 = DIRECTION( '', ( -0.000000000000000, 0.000000000000000, 1.00000000000000 ) );
#264 = DIRECTION( '', ( 1.00000000000000, 0.000000000000000, 0.000000000000000 ) );
#265 = FILL_AREA_STYLE( '', ( #298 ) );
#266 = EDGE_CURVE( '', #299, #299, #300, .T. );
#267 = EDGE_CURVE( '', #301, #301, #302, .T. );
#268 = FILL_AREA_STYLE( '', ( #303 ) );
#269 = EDGE_CURVE( '', #304, #305, #306, .T. );
#270 = EDGE_CURVE( '', #307, #305, #308, .T. );
#271 = EDGE_CURVE( '', #309, #307, #310, .T. );
#272 = EDGE_CURVE( '', #309, #304, #311, .T. );
#273 = FILL_AREA_STYLE( '', ( #312 ) );
#274 = EDGE_CURVE( '', #313, #304, #314, .T. );
#275 = EDGE_CURVE( '', #315, #309, #316, .T. );
#276 = EDGE_CURVE( '', #315, #313, #317, .T. );
#277 = FILL_AREA_STYLE( '', ( #318 ) );
#278 = EDGE_CURVE( '', #319, #319, #320, .T. );
#279 = EDGE_CURVE( '', #321, #321, #322, .T. );
#280 = FILL_AREA_STYLE( '', ( #323 ) );
#281 = EDGE_CURVE( '', #324, #324, #325, .T. );
#282 = EDGE_CURVE( '', #326, #326, #327, .T. );
#283 = FILL_AREA_STYLE( '', ( #328 ) );
#284 = EDGE_CURVE( '', #329, #329, #330, .T. );
#285 = EDGE_CURVE( '', #331, #331, #332, .T. );
#286 = EDGE_CURVE( '', #305, #333, #334, .T. );
#287 = EDGE_CURVE( '', #333, #313, #335, .T. );
#288 = FILL_AREA_STYLE( '', ( #336 ) );
#289 = EDGE_CURVE( '', #337, #337, #338, .T. );
#290 = FILL_AREA_STYLE( '', ( #339 ) );
#291 = EDGE_CURVE( '', #340, #333, #341, .T. );
#292 = EDGE_CURVE( '', #307, #340, #342, .T. );
#293 = FILL_AREA_STYLE( '', ( #343 ) );
#294 = EDGE_CURVE( '', #340, #315, #344, .T. );
#295 = FILL_AREA_STYLE( '', ( #345 ) );
#296 = EDGE_CURVE( '', #346, #346, #347, .T. );
#297 = FILL_AREA_STYLE( '', ( #348 ) );
#298 = FILL_AREA_STYLE_COLOUR( '', #349 );
#299 = VERTEX_POINT( '', #350 );
#300 = CIRCLE( '', #351, 2.05000000000000 );
#301 = VERTEX_POINT( '', #352 );
#302 = CIRCLE( '', #353, 4.05000000000000 );
#303 = FILL_AREA_STYLE_COLOUR( '', #354 );
#304 = VERTEX_POINT( '', #355 );
#305 = VERTEX_POINT( '', #356 );
#306 = LINE( '', #357, #358 );
#307 = VERTEX_POINT( '', #359 );
#308 = LINE( '', #360, #361 );
#309 = VERTEX_POINT( '', #362 );
#310 = LINE( '', #363, #364 );
#311 = LINE( '', #365, #366 );
#312 = FILL_AREA_STYLE_COLOUR( '', #367 );
#313 = VERTEX_POINT( '', #368 );
#314 = LINE( '', #369, #370 );
#315 = VERTEX_POINT( '', #371 );
#316 = LINE( '', #372, #373 );
#317 = LINE( '', #374, #375 );
#318 = FILL_AREA_STYLE_COLOUR( '', #376 );
#319 = VERTEX_POINT( '', #377 );
#320 = CIRCLE( '', #378, 2.05000000000000 );
#321 = VERTEX_POINT( '', #379 );
#322 = CIRCLE( '', #380, 4.05000000000000 );
#323 = FILL_AREA_STYLE_COLOUR( '', #381 );
#324 = VERTEX_POINT( '', #382 );
#325 = CIRCLE( '', #383, 2.05000000000000 );
#326 = VERTEX_POINT( '', #384 );
#327 = CIRCLE( '', #385, 4.05000000000000 );
#328 = FILL_AREA_STYLE_COLOUR( '', #386 );
#329 = VERTEX_POINT( '', #387 );
#330 = CIRCLE( '', #388, 2.05000000000000 );
#331 = VERTEX_POINT( '', #389 );
#332 = CIRCLE( '', #390, 2.05000000000000 );
#333 = VERTEX_POINT( '', #391 );
#334 = LINE( '', #392, #393 );
#335 = LINE( '', #394, #395 );
#336 = FILL_AREA_STYLE_COLOUR( '', #396 );
#337 = VERTEX_POINT( '', #397 );
#338 = CIRCLE( '', #398, 4.05000000000000 );
#339 = FILL_AREA_STYLE_COLOUR( '', #399 );
#340 = VERTEX_POINT( '', #400 );
#341 = LINE( '', #401, #402 );
#342 = LINE( '', #403, #404 );
#343 = FILL_AREA_STYLE_COLOUR( '', #405 );
#344 = LINE( '', #406, #407 );
#345 = FILL_AREA_STYLE_COLOUR( '', #408 );
#346 = VERTEX_POINT( '', #409 );
#347 = CIRCLE( '', #410, 4.05000000000000 );
#348 = FILL_AREA_STYLE_COLOUR( '', #411 );
#349 = COLOUR_RGB( '', 0.689999997600000, 0.689999997600000, 0.689999997600000 );
#350 = CARTESIAN_POINT( '', ( -9.54999999999997, 510.000000000000, 0.000000000000000 ) );
#351 = AXIS2_PLACEMENT_3D( '', #412, #413, #414 );
#352 = CARTESIAN_POINT( '', ( -11.5500000000000, 510.000000000000, 2.00000000000000 ) );
#353 = AXIS2_PLACEMENT_3D( '', #415, #416, #417 );
#354 = COLOUR_RGB( '', 0.689999997600000, 0.689999997600000, 0.689999997600000 );
#355 = CARTESIAN_POINT( '', ( 6.18446633569413E-14, 1010.00000000000, 0.000000000000000 ) );
#356 = CARTESIAN_POINT( '', ( -14.9999999999999, 1010.00000000000, 0.000000000000000 ) );
#357 = CARTESIAN_POINT( '', ( 6.18446633569413E-14, 1010.00000000000, 0.000000000000000 ) );
#358 = VECTOR( '', #418, 1000.00000000000 );
#359 = CARTESIAN_POINT( '', ( -14.9999999999999, 1010.00000000000, 2.00000000000000 ) );
#360 = CARTESIAN_POINT( '', ( -14.9999999999999, 1010.00000000000, 2.00000000000000 ) );
#361 = VECTOR( '', #419, 1000.00000000000 );
#362 = CARTESIAN_POINT( '', ( 6.18446633569413E-14, 1010.00000000000, 2.00000000000000 ) );
#363 = CARTESIAN_POINT( '', ( 6.18446633569413E-14, 1010.00000000000, 2.00000000000000 ) );
#364 = VECTOR( '', #420, 1000.00000000000 );
#365 = CARTESIAN_POINT( '', ( 6.18446633569413E-14, 1010.00000000000, 2.00000000000000 ) );
#366 = VECTOR( '', #421, 1000.00000000000 );
#367 = COLOUR_RGB( '', 0.689999997600000, 0.689999997600000, 0.689999997600000 );
#368 = CARTESIAN_POINT( '', ( 0.000000000000000, 0.000000000000000, 0.000000000000000 ) );
#369 = CARTESIAN_POINT( '', ( 0.000000000000000, 0.000000000000000, 0.000000000000000 ) );
#370 = VECTOR( '', #422, 1000.00000000000 );
#371 = CARTESIAN_POINT( '', ( 0.000000000000000, 0.000000000000000, 2.00000000000000 ) );
#372 = CARTESIAN_POINT( '', ( 0.000000000000000, 0.000000000000000, 2.00000000000000 ) );
#373 = VECTOR( '', #423, 1000.00000000000 );
#374 = CARTESIAN_POINT( '', ( 0.000000000000000, 0.000000000000000, 2.00000000000000 ) );
#375 = VECTOR( '', #424, 1000.00000000000 );
#376 = COLOUR_RGB( '', 0.689999997600000, 0.689999997600000, 0.689999997600000 );
#377 = CARTESIAN_POINT( '', ( -9.54999999999994, 990.000000000000, 0.000000000000000 ) );
#378 = AXIS2_PLACEMENT_3D( '', #425, #426, #427 );
#379 = CARTESIAN_POINT( '', ( -11.5499999999999, 990.000000000000, 2.00000000000000 ) );
#380 = AXIS2_PLACEMENT_3D( '', #428, #429, #430 );
#381 = COLOUR_RGB( '', 0.689999997600000, 0.689999997600000, 0.689999997600000 );
#382 = CARTESIAN_POINT( '', ( -9.54999999999998, 260.000000000000, 0.000000000000000 ) );
#383 = AXIS2_PLACEMENT_3D( '', #431, #432, #433 );
#384 = CARTESIAN_POINT( '', ( -11.5500000000000, 260.000000000000, 2.00000000000000 ) );
#385 = AXIS2_PLACEMENT_3D( '', #434, #435, #436 );
#386 = COLOUR_RGB( '', 0.689999997600000, 0.689999997600000, 0.689999997600000 );
#387 = CARTESIAN_POINT( '', ( -9.54999999999995, 760.000000000000, 0.000000000000000 ) );
#388 = AXIS2_PLACEMENT_3D( '', #437, #438, #439 );
#389 = CARTESIAN_POINT( '', ( -9.55000000000000, 10.0000000000000, 0.000000000000000 ) );
#390 = AXIS2_PLACEMENT_3D( '', #440, #441, #442 );
#391 = CARTESIAN_POINT( '', ( -15.0000000000000, 0.000000000000000, 0.000000000000000 ) );
#392 = CARTESIAN_POINT( '', ( -14.9999999999999, 1010.00000000000, 0.000000000000000 ) );
#393 = VECTOR( '', #443, 1000.00000000000 );
#394 = CARTESIAN_POINT( '', ( -15.0000000000000, 0.000000000000000, 0.000000000000000 ) );
#395 = VECTOR( '', #444, 1000.00000000000 );
#396 = COLOUR_RGB( '', 0.689999997600000, 0.689999997600000, 0.689999997600000 );
#397 = CARTESIAN_POINT( '', ( -11.5500000000000, 10.0000000000000, 2.00000000000000 ) );
#398 = AXIS2_PLACEMENT_3D( '', #445, #446, #447 );
#399 = COLOUR_RGB( '', 0.689999997600000, 0.689999997600000, 0.689999997600000 );
#400 = CARTESIAN_POINT( '', ( -15.0000000000000, 0.000000000000000, 2.00000000000000 ) );
#401 = CARTESIAN_POINT( '', ( -15.0000000000000, 0.000000000000000, 2.00000000000000 ) );
#402 = VECTOR( '', #448, 1000.00000000000 );
#403 = CARTESIAN_POINT( '', ( -14.9999999999999, 1010.00000000000, 2.00000000000000 ) );
#404 = VECTOR( '', #449, 1000.00000000000 );
#405 = COLOUR_RGB( '', 0.689999997600000, 0.689999997600000, 0.689999997600000 );
#406 = CARTESIAN_POINT( '', ( -15.0000000000000, 0.000000000000000, 2.00000000000000 ) );
#407 = VECTOR( '', #450, 1000.00000000000 );
#408 = COLOUR_RGB( '', 0.689999997600000, 0.689999997600000, 0.689999997600000 );
#409 = CARTESIAN_POINT( '', ( -11.5500000000000, 760.000000000000, 2.00000000000000 ) );
#410 = AXIS2_PLACEMENT_3D( '', #451, #452, #453 );
#411 = COLOUR_RGB( '', 0.689999997600000, 0.689999997600000, 0.689999997600000 );
#412 = CARTESIAN_POINT( '', ( -7.49999999999997, 510.000000000000, 0.000000000000000 ) );
#413 = DIRECTION( '', ( -0.000000000000000, 0.000000000000000, -1.00000000000000 ) );
#414 = DIRECTION( '', ( -1.00000000000000, 0.000000000000000, 0.000000000000000 ) );
#415 = CARTESIAN_POINT( '', ( -7.49999999999997, 510.000000000000, 2.00000000000000 ) );
#416 = DIRECTION( '', ( -0.000000000000000, 0.000000000000000, -1.00000000000000 ) );
#417 = DIRECTION( '', ( -1.00000000000000, 0.000000000000000, 0.000000000000000 ) );
#418 = DIRECTION( '', ( -1.00000000000000, 0.000000000000000, 0.000000000000000 ) );
#419 = DIRECTION( '', ( -0.000000000000000, -0.000000000000000, -1.00000000000000 ) );
#420 = DIRECTION( '', ( -1.00000000000000, 0.000000000000000, 0.000000000000000 ) );
#421 = DIRECTION( '', ( -0.000000000000000, -0.000000000000000, -1.00000000000000 ) );
#422 = DIRECTION( '', ( 6.12323399573677E-17, 1.00000000000000, 0.000000000000000 ) );
#423 = DIRECTION( '', ( 6.12323399573677E-17, 1.00000000000000, 0.000000000000000 ) );
#424 = DIRECTION( '', ( -0.000000000000000, -0.000000000000000, -1.00000000000000 ) );
#425 = CARTESIAN_POINT( '', ( -7.49999999999994, 990.000000000000, 0.000000000000000 ) );
#426 = DIRECTION( '', ( -0.000000000000000, 0.000000000000000, -1.00000000000000 ) );
#427 = DIRECTION( '', ( -1.00000000000000, 0.000000000000000, 0.000000000000000 ) );
#428 = CARTESIAN_POINT( '', ( -7.49999999999994, 990.000000000000, 2.00000000000000 ) );
#429 = DIRECTION( '', ( -0.000000000000000, 0.000000000000000, -1.00000000000000 ) );
#430 = DIRECTION( '', ( -1.00000000000000, 0.000000000000000, 0.000000000000000 ) );
#431 = CARTESIAN_POINT( '', ( -7.49999999999998, 260.000000000000, 0.000000000000000 ) );
#432 = DIRECTION( '', ( -0.000000000000000, 0.000000000000000, -1.00000000000000 ) );
#433 = DIRECTION( '', ( -1.00000000000000, 0.000000000000000, 0.000000000000000 ) );
#434 = CARTESIAN_POINT( '', ( -7.49999999999998, 260.000000000000, 2.00000000000000 ) );
#435 = DIRECTION( '', ( -0.000000000000000, 0.000000000000000, -1.00000000000000 ) );
#436 = DIRECTION( '', ( -1.00000000000000, 0.000000000000000, 0.000000000000000 ) );
#437 = CARTESIAN_POINT( '', ( -7.49999999999995, 760.000000000000, 0.000000000000000 ) );
#438 = DIRECTION( '', ( -0.000000000000000, 0.000000000000000, -1.00000000000000 ) );
#439 = DIRECTION( '', ( -1.00000000000000, 0.000000000000000, 0.000000000000000 ) );
#440 = CARTESIAN_POINT( '', ( -7.50000000000000, 10.0000000000000, 0.000000000000000 ) );
#441 = DIRECTION( '', ( -0.000000000000000, 0.000000000000000, -1.00000000000000 ) );
#442 = DIRECTION( '', ( -1.00000000000000, 0.000000000000000, 0.000000000000000 ) );
#443 = DIRECTION( '', ( -6.01141798605824E-17, -1.00000000000000, 0.000000000000000 ) );
#444 = DIRECTION( '', ( 1.00000000000000, 0.000000000000000, 0.000000000000000 ) );
#445 = CARTESIAN_POINT( '', ( -7.50000000000000, 10.0000000000000, 2.00000000000000 ) );
#446 = DIRECTION( '', ( -0.000000000000000, 0.000000000000000, -1.00000000000000 ) );
#447 = DIRECTION( '', ( -1.00000000000000, 0.000000000000000, 0.000000000000000 ) );
#448 = DIRECTION( '', ( -0.000000000000000, -0.000000000000000, -1.00000000000000 ) );
#449 = DIRECTION( '', ( -6.01141798605824E-17, -1.00000000000000, 0.000000000000000 ) );
#450 = DIRECTION( '', ( 1.00000000000000, 0.000000000000000, 0.000000000000000 ) );
#451 = CARTESIAN_POINT( '', ( -7.49999999999995, 760.000000000000, 2.00000000000000 ) );
#452 = DIRECTION( '', ( -0.000000000000000, 0.000000000000000, -1.00000000000000 ) );
#453 = DIRECTION( '', ( -1.00000000000000, 0.000000000000000, 0.000000000000000 ) );
ENDSEC;
END-ISO-10303-21;
