ISO-10303-21;
HEADER;
FILE_DESCRIPTION( ( 'STEP AP214' ), '1' );
FILE_NAME( '//goodhand-server/Shared Folders/GoodHand Data/Kipp CAD/K0676/K0676.2508X050.stp', '2020-12-09T11:09:56', ( '' ), ( '' ), ' ', 'PARTsolutions', ' ' );
FILE_SCHEMA( ( 'AUTOMOTIVE_DESIGN { 1 0 10303 214 1 1 1 1 }' ) );
ENDSEC;
DATA;
#1 = MECHANICAL_DESIGN_GEOMETRIC_PRESENTATION_REPRESENTATION( ' ', ( #10, #11, #12, #13, #14, #15, #16, #17, #18, #19, #20 ), #6 );
#2 = PRODUCT_DEFINITION_CONTEXT( '', #21, 'design' );
#3 = APPLICATION_PROTOCOL_DEFINITION( 'international standard', 'automotive_design', 2001, #21 );
#4 = PRODUCT_CATEGORY_RELATIONSHIP( 'NONE', 'NONE', #22, #23 );
#5 = SHAPE_DEFINITION_REPRESENTATION( #24, #25 );
#6 =  ( GEOMETRIC_REPRESENTATION_CONTEXT( 3 )GLOBAL_UNCERTAINTY_ASSIGNED_CONTEXT( ( #28 ) )GLOBAL_UNIT_ASSIGNED_CONTEXT( ( #30, #31, #32 ) )REPRESENTATION_CONTEXT( 'NONE', 'WORKSPACE' ) );
#10 = STYLED_ITEM( '', ( #34 ), #35 );
#11 = STYLED_ITEM( '', ( #36 ), #37 );
#12 = STYLED_ITEM( '', ( #38 ), #39 );
#13 = STYLED_ITEM( '', ( #40 ), #41 );
#14 = STYLED_ITEM( '', ( #42 ), #43 );
#15 = STYLED_ITEM( '', ( #44 ), #45 );
#16 = STYLED_ITEM( '', ( #46 ), #47 );
#17 = STYLED_ITEM( '', ( #48 ), #49 );
#18 = STYLED_ITEM( '', ( #50 ), #51 );
#19 = STYLED_ITEM( '', ( #52 ), #53 );
#20 = STYLED_ITEM( '', ( #54 ), #55 );
#21 = APPLICATION_CONTEXT( 'core data for automotive mechanical design processes' );
#22 = PRODUCT_CATEGORY( 'part', 'NONE' );
#23 = PRODUCT_RELATED_PRODUCT_CATEGORY( 'detail', ' ', ( #56 ) );
#24 = PRODUCT_DEFINITION_SHAPE( 'NONE', 'NONE', #57 );
#25 = ADVANCED_BREP_SHAPE_REPRESENTATION( '_K0676.2508X050', ( #58, #59 ), #6 );
#28 = UNCERTAINTY_MEASURE_WITH_UNIT( LENGTH_MEASURE( 0.00100000000000000 ), #30, '', '' );
#30 =  ( CONVERSION_BASED_UNIT( 'MILLIMETRE', #62 )LENGTH_UNIT(  )NAMED_UNIT( #65 ) );
#31 =  ( NAMED_UNIT( #67 )PLANE_ANGLE_UNIT(  )SI_UNIT( $, .RADIAN. ) );
#32 =  ( NAMED_UNIT( #67 )SI_UNIT( $, .STERADIAN. )SOLID_ANGLE_UNIT(  ) );
#34 = PRESENTATION_STYLE_ASSIGNMENT( ( #73 ) );
#35 = ADVANCED_FACE( '', ( #74 ), #75, .F. );
#36 = PRESENTATION_STYLE_ASSIGNMENT( ( #76 ) );
#37 = ADVANCED_FACE( '', ( #77 ), #78, .T. );
#38 = PRESENTATION_STYLE_ASSIGNMENT( ( #79 ) );
#39 = ADVANCED_FACE( '', ( #80, #81 ), #82, .T. );
#40 = PRESENTATION_STYLE_ASSIGNMENT( ( #83 ) );
#41 = ADVANCED_FACE( '', ( #84, #85 ), #86, .T. );
#42 = PRESENTATION_STYLE_ASSIGNMENT( ( #87 ) );
#43 = ADVANCED_FACE( '', ( #88 ), #89, .T. );
#44 = PRESENTATION_STYLE_ASSIGNMENT( ( #90 ) );
#45 = ADVANCED_FACE( '', ( #91 ), #92, .T. );
#46 = PRESENTATION_STYLE_ASSIGNMENT( ( #93 ) );
#47 = ADVANCED_FACE( '', ( #94, #95 ), #96, .T. );
#48 = PRESENTATION_STYLE_ASSIGNMENT( ( #97 ) );
#49 = ADVANCED_FACE( '', ( #98 ), #99, .T. );
#50 = PRESENTATION_STYLE_ASSIGNMENT( ( #100 ) );
#51 = ADVANCED_FACE( '', ( #101 ), #102, .F. );
#52 = PRESENTATION_STYLE_ASSIGNMENT( ( #103 ) );
#53 = ADVANCED_FACE( '', ( #104 ), #105, .T. );
#54 = PRESENTATION_STYLE_ASSIGNMENT( ( #106 ) );
#55 = ADVANCED_FACE( '', ( #107 ), #108, .T. );
#56 = PRODUCT( '_K0676.2508X050', '_K0676.2508X050', 'PART-_K0676.2508X050-DESC', ( #109 ) );
#57 = PRODUCT_DEFINITION( 'NONE', 'NONE', #110, #2 );
#58 = MANIFOLD_SOLID_BREP( '_K0676.2508X050', #111 );
#59 = AXIS2_PLACEMENT_3D( '', #112, #113, #114 );
#62 = LENGTH_MEASURE_WITH_UNIT( LENGTH_MEASURE( 1.00000000000000 ), #115 );
#65 = DIMENSIONAL_EXPONENTS( 1.00000000000000, 0.000000000000000, 0.000000000000000, 0.000000000000000, 0.000000000000000, 0.000000000000000, 0.000000000000000 );
#67 = DIMENSIONAL_EXPONENTS( 0.000000000000000, 0.000000000000000, 0.000000000000000, 0.000000000000000, 0.000000000000000, 0.000000000000000, 0.000000000000000 );
#73 = SURFACE_STYLE_USAGE( .BOTH., #116 );
#74 = FACE_OUTER_BOUND( '', #117, .T. );
#75 = PLANE( '', #118 );
#76 = SURFACE_STYLE_USAGE( .BOTH., #119 );
#77 = FACE_OUTER_BOUND( '', #120, .T. );
#78 = PLANE( '', #121 );
#79 = SURFACE_STYLE_USAGE( .BOTH., #122 );
#80 = FACE_OUTER_BOUND( '', #123, .T. );
#81 = FACE_OUTER_BOUND( '', #124, .T. );
#82 = CYLINDRICAL_SURFACE( '', #125, 4.00000000000000 );
#83 = SURFACE_STYLE_USAGE( .BOTH., #126 );
#84 = FACE_BOUND( '', #127, .T. );
#85 = FACE_OUTER_BOUND( '', #128, .T. );
#86 = PLANE( '', #129 );
#87 = SURFACE_STYLE_USAGE( .BOTH., #130 );
#88 = FACE_OUTER_BOUND( '', #131, .T. );
#89 = PLANE( '', #132 );
#90 = SURFACE_STYLE_USAGE( .BOTH., #133 );
#91 = FACE_OUTER_BOUND( '', #134, .T. );
#92 = PLANE( '', #135 );
#93 = SURFACE_STYLE_USAGE( .BOTH., #136 );
#94 = FACE_OUTER_BOUND( '', #137, .T. );
#95 = FACE_BOUND( '', #138, .T. );
#96 = CONICAL_SURFACE( '', #139, 3.23300000000000, 0.785398163400000 );
#97 = SURFACE_STYLE_USAGE( .BOTH., #140 );
#98 = FACE_OUTER_BOUND( '', #141, .T. );
#99 = PLANE( '', #142 );
#100 = SURFACE_STYLE_USAGE( .BOTH., #143 );
#101 = FACE_OUTER_BOUND( '', #144, .T. );
#102 = PLANE( '', #145 );
#103 = SURFACE_STYLE_USAGE( .BOTH., #146 );
#104 = FACE_OUTER_BOUND( '', #147, .T. );
#105 = PLANE( '', #148 );
#106 = SURFACE_STYLE_USAGE( .BOTH., #149 );
#107 = FACE_OUTER_BOUND( '', #150, .T. );
#108 = PLANE( '', #151 );
#109 = PRODUCT_CONTEXT( '', #21, 'mechanical' );
#110 = PRODUCT_DEFINITION_FORMATION_WITH_SPECIFIED_SOURCE( ' ', 'NONE', #56, .NOT_KNOWN. );
#111 = CLOSED_SHELL( '', ( #45, #51, #43, #49, #37, #53, #55, #41, #35, #47, #39 ) );
#112 = CARTESIAN_POINT( '', ( 0.000000000000000, 0.000000000000000, 0.000000000000000 ) );
#113 = DIRECTION( '', ( 0.000000000000000, 0.000000000000000, 1.00000000000000 ) );
#114 = DIRECTION( '', ( 1.00000000000000, 0.000000000000000, 0.000000000000000 ) );
#115 =  ( LENGTH_UNIT(  )NAMED_UNIT( #65 )SI_UNIT( .MILLI., .METRE. ) );
#116 = SURFACE_SIDE_STYLE( '', ( #153 ) );
#117 = EDGE_LOOP( '', ( #154 ) );
#118 = AXIS2_PLACEMENT_3D( '', #155, #156, #157 );
#119 = SURFACE_SIDE_STYLE( '', ( #158 ) );
#120 = EDGE_LOOP( '', ( #159, #160, #161, #162 ) );
#121 = AXIS2_PLACEMENT_3D( '', #163, #164, #165 );
#122 = SURFACE_SIDE_STYLE( '', ( #166 ) );
#123 = EDGE_LOOP( '', ( #167 ) );
#124 = EDGE_LOOP( '', ( #168 ) );
#125 = AXIS2_PLACEMENT_3D( '', #169, #170, #171 );
#126 = SURFACE_SIDE_STYLE( '', ( #172 ) );
#127 = EDGE_LOOP( '', ( #173 ) );
#128 = EDGE_LOOP( '', ( #174, #175, #176, #177, #178, #179 ) );
#129 = AXIS2_PLACEMENT_3D( '', #180, #181, #182 );
#130 = SURFACE_SIDE_STYLE( '', ( #183 ) );
#131 = EDGE_LOOP( '', ( #184, #185, #186, #187 ) );
#132 = AXIS2_PLACEMENT_3D( '', #188, #189, #190 );
#133 = SURFACE_SIDE_STYLE( '', ( #191 ) );
#134 = EDGE_LOOP( '', ( #192, #193, #194, #195 ) );
#135 = AXIS2_PLACEMENT_3D( '', #196, #197, #198 );
#136 = SURFACE_SIDE_STYLE( '', ( #199 ) );
#137 = EDGE_LOOP( '', ( #200 ) );
#138 = EDGE_LOOP( '', ( #201 ) );
#139 = AXIS2_PLACEMENT_3D( '', #202, #203, #204 );
#140 = SURFACE_SIDE_STYLE( '', ( #205 ) );
#141 = EDGE_LOOP( '', ( #206, #207, #208, #209 ) );
#142 = AXIS2_PLACEMENT_3D( '', #210, #211, #212 );
#143 = SURFACE_SIDE_STYLE( '', ( #213 ) );
#144 = EDGE_LOOP( '', ( #214, #215, #216, #217, #218, #219 ) );
#145 = AXIS2_PLACEMENT_3D( '', #220, #221, #222 );
#146 = SURFACE_SIDE_STYLE( '', ( #223 ) );
#147 = EDGE_LOOP( '', ( #224, #225, #226, #227 ) );
#148 = AXIS2_PLACEMENT_3D( '', #228, #229, #230 );
#149 = SURFACE_SIDE_STYLE( '', ( #231 ) );
#150 = EDGE_LOOP( '', ( #232, #233, #234, #235 ) );
#151 = AXIS2_PLACEMENT_3D( '', #236, #237, #238 );
#153 = SURFACE_STYLE_FILL_AREA( #239 );
#154 = ORIENTED_EDGE( '', *, *, #240, .F. );
#155 = CARTESIAN_POINT( '', ( 0.000000000000000, 57.5000000000000, 0.000000000000000 ) );
#156 = DIRECTION( '', ( 0.000000000000000, -1.00000000000000, -0.000000000000000 ) );
#157 = DIRECTION( '', ( 0.000000000000000, 0.000000000000000, -1.00000000000000 ) );
#158 = SURFACE_STYLE_FILL_AREA( #241 );
#159 = ORIENTED_EDGE( '', *, *, #242, .F. );
#160 = ORIENTED_EDGE( '', *, *, #243, .F. );
#161 = ORIENTED_EDGE( '', *, *, #244, .T. );
#162 = ORIENTED_EDGE( '', *, *, #245, .T. );
#163 = CARTESIAN_POINT( '', ( -12.5000000000000, 7.50000000000000, 7.21687836487032 ) );
#164 = DIRECTION( '', ( -0.499524110790929, -0.0436193873653360, 0.865201139495554 ) );
#165 = DIRECTION( '', ( 0.866025403784439, 2.42136240865198E-18, 0.500000000000000 ) );
#166 = SURFACE_STYLE_FILL_AREA( #246 );
#167 = ORIENTED_EDGE( '', *, *, #247, .F. );
#168 = ORIENTED_EDGE( '', *, *, #248, .T. );
#169 = CARTESIAN_POINT( '', ( 0.000000000000000, 7.50000000000000, 0.000000000000000 ) );
#170 = DIRECTION( '', ( -0.000000000000000, 1.00000000000000, 0.000000000000000 ) );
#171 = DIRECTION( '', ( 0.000000000000000, 0.000000000000000, -1.00000000000000 ) );
#172 = SURFACE_STYLE_FILL_AREA( #249 );
#173 = ORIENTED_EDGE( '', *, *, #247, .T. );
#174 = ORIENTED_EDGE( '', *, *, #250, .T. );
#175 = ORIENTED_EDGE( '', *, *, #242, .T. );
#176 = ORIENTED_EDGE( '', *, *, #251, .T. );
#177 = ORIENTED_EDGE( '', *, *, #252, .T. );
#178 = ORIENTED_EDGE( '', *, *, #253, .T. );
#179 = ORIENTED_EDGE( '', *, *, #254, .T. );
#180 = CARTESIAN_POINT( '', ( 0.000000000000000, 7.50000000000000, 0.000000000000000 ) );
#181 = DIRECTION( '', ( 0.000000000000000, 1.00000000000000, 0.000000000000000 ) );
#182 = DIRECTION( '', ( 0.000000000000000, -0.000000000000000, 1.00000000000000 ) );
#183 = SURFACE_STYLE_FILL_AREA( #255 );
#184 = ORIENTED_EDGE( '', *, *, #253, .F. );
#185 = ORIENTED_EDGE( '', *, *, #256, .F. );
#186 = ORIENTED_EDGE( '', *, *, #257, .T. );
#187 = ORIENTED_EDGE( '', *, *, #258, .T. );
#188 = CARTESIAN_POINT( '', ( 12.5000000000000, 7.50000000000000, -7.21687836487032 ) );
#189 = DIRECTION( '', ( 0.499524110790929, -0.0436193873653360, -0.865201139495554 ) );
#190 = DIRECTION( '', ( -0.866025403784439, 2.42136240865198E-18, -0.500000000000000 ) );
#191 = SURFACE_STYLE_FILL_AREA( #259 );
#192 = ORIENTED_EDGE( '', *, *, #254, .F. );
#193 = ORIENTED_EDGE( '', *, *, #258, .F. );
#194 = ORIENTED_EDGE( '', *, *, #260, .T. );
#195 = ORIENTED_EDGE( '', *, *, #261, .T. );
#196 = CARTESIAN_POINT( '', ( 0.000000000000000, 7.50000000000000, -14.4337567297406 ) );
#197 = DIRECTION( '', ( -0.499524110790929, -0.0436193873653360, -0.865201139495554 ) );
#198 = DIRECTION( '', ( -0.866025403784439, -2.42136240865198E-18, 0.500000000000000 ) );
#199 = SURFACE_STYLE_FILL_AREA( #262 );
#200 = ORIENTED_EDGE( '', *, *, #248, .F. );
#201 = ORIENTED_EDGE( '', *, *, #240, .T. );
#202 = CARTESIAN_POINT( '', ( 0.000000000000000, 57.5000000000000, 0.000000000000000 ) );
#203 = DIRECTION( '', ( -0.000000000000000, -1.00000000000000, -0.000000000000000 ) );
#204 = DIRECTION( '', ( 0.000000000000000, 0.000000000000000, -1.00000000000000 ) );
#205 = SURFACE_STYLE_FILL_AREA( #263 );
#206 = ORIENTED_EDGE( '', *, *, #250, .F. );
#207 = ORIENTED_EDGE( '', *, *, #261, .F. );
#208 = ORIENTED_EDGE( '', *, *, #264, .T. );
#209 = ORIENTED_EDGE( '', *, *, #243, .T. );
#210 = CARTESIAN_POINT( '', ( -12.5000000000000, 7.50000000000000, -7.21687836487032 ) );
#211 = DIRECTION( '', ( -0.999048221581858, -0.0436193873653360, 0.000000000000000 ) );
#212 = DIRECTION( '', ( 0.0436193873653360, -0.999048221581858, 0.000000000000000 ) );
#213 = SURFACE_STYLE_FILL_AREA( #265 );
#214 = ORIENTED_EDGE( '', *, *, #264, .F. );
#215 = ORIENTED_EDGE( '', *, *, #260, .F. );
#216 = ORIENTED_EDGE( '', *, *, #257, .F. );
#217 = ORIENTED_EDGE( '', *, *, #266, .F. );
#218 = ORIENTED_EDGE( '', *, *, #267, .F. );
#219 = ORIENTED_EDGE( '', *, *, #244, .F. );
#220 = CARTESIAN_POINT( '', ( 0.000000000000000, 0.000000000000000, 0.000000000000000 ) );
#221 = DIRECTION( '', ( 0.000000000000000, 1.00000000000000, 0.000000000000000 ) );
#222 = DIRECTION( '', ( 0.000000000000000, -0.000000000000000, 1.00000000000000 ) );
#223 = SURFACE_STYLE_FILL_AREA( #268 );
#224 = ORIENTED_EDGE( '', *, *, #251, .F. );
#225 = ORIENTED_EDGE( '', *, *, #245, .F. );
#226 = ORIENTED_EDGE( '', *, *, #267, .T. );
#227 = ORIENTED_EDGE( '', *, *, #269, .T. );
#228 = CARTESIAN_POINT( '', ( 0.000000000000000, 7.50000000000000, 14.4337567297406 ) );
#229 = DIRECTION( '', ( 0.499524110790929, -0.0436193873653360, 0.865201139495554 ) );
#230 = DIRECTION( '', ( 0.866025403784439, -2.42136240865198E-18, -0.500000000000000 ) );
#231 = SURFACE_STYLE_FILL_AREA( #270 );
#232 = ORIENTED_EDGE( '', *, *, #252, .F. );
#233 = ORIENTED_EDGE( '', *, *, #269, .F. );
#234 = ORIENTED_EDGE( '', *, *, #266, .T. );
#235 = ORIENTED_EDGE( '', *, *, #256, .T. );
#236 = CARTESIAN_POINT( '', ( 12.5000000000000, 7.50000000000000, 7.21687836487032 ) );
#237 = DIRECTION( '', ( 0.999048221581858, -0.0436193873653360, 0.000000000000000 ) );
#238 = DIRECTION( '', ( 0.0436193873653360, 0.999048221581858, 0.000000000000000 ) );
#239 = FILL_AREA_STYLE( '', ( #271 ) );
#240 = EDGE_CURVE( '', #272, #272, #273, .T. );
#241 = FILL_AREA_STYLE( '', ( #274 ) );
#242 = EDGE_CURVE( '', #275, #276, #277, .T. );
#243 = EDGE_CURVE( '', #278, #275, #279, .T. );
#244 = EDGE_CURVE( '', #278, #280, #281, .T. );
#245 = EDGE_CURVE( '', #280, #276, #282, .T. );
#246 = FILL_AREA_STYLE( '', ( #283 ) );
#247 = EDGE_CURVE( '', #284, #284, #285, .T. );
#248 = EDGE_CURVE( '', #286, #286, #287, .T. );
#249 = FILL_AREA_STYLE( '', ( #288 ) );
#250 = EDGE_CURVE( '', #289, #275, #290, .T. );
#251 = EDGE_CURVE( '', #276, #291, #292, .T. );
#252 = EDGE_CURVE( '', #291, #293, #294, .T. );
#253 = EDGE_CURVE( '', #293, #295, #296, .T. );
#254 = EDGE_CURVE( '', #295, #289, #297, .T. );
#255 = FILL_AREA_STYLE( '', ( #298 ) );
#256 = EDGE_CURVE( '', #299, #293, #300, .T. );
#257 = EDGE_CURVE( '', #299, #301, #302, .T. );
#258 = EDGE_CURVE( '', #301, #295, #303, .T. );
#259 = FILL_AREA_STYLE( '', ( #304 ) );
#260 = EDGE_CURVE( '', #301, #305, #306, .T. );
#261 = EDGE_CURVE( '', #305, #289, #307, .T. );
#262 = FILL_AREA_STYLE( '', ( #308 ) );
#263 = FILL_AREA_STYLE( '', ( #309 ) );
#264 = EDGE_CURVE( '', #305, #278, #310, .T. );
#265 = FILL_AREA_STYLE( '', ( #311 ) );
#266 = EDGE_CURVE( '', #312, #299, #313, .T. );
#267 = EDGE_CURVE( '', #280, #312, #314, .T. );
#268 = FILL_AREA_STYLE( '', ( #315 ) );
#269 = EDGE_CURVE( '', #312, #291, #316, .T. );
#270 = FILL_AREA_STYLE( '', ( #317 ) );
#271 = FILL_AREA_STYLE_COLOUR( '', #318 );
#272 = VERTEX_POINT( '', #319 );
#273 = CIRCLE( '', #320, 3.23300000000000 );
#274 = FILL_AREA_STYLE_COLOUR( '', #321 );
#275 = VERTEX_POINT( '', #322 );
#276 = VERTEX_POINT( '', #323 );
#277 = LINE( '', #324, #325 );
#278 = VERTEX_POINT( '', #326 );
#279 = LINE( '', #327, #328 );
#280 = VERTEX_POINT( '', #329 );
#281 = LINE( '', #330, #331 );
#282 = LINE( '', #332, #333 );
#283 = FILL_AREA_STYLE_COLOUR( '', #334 );
#284 = VERTEX_POINT( '', #335 );
#285 = CIRCLE( '', #336, 4.00000000000000 );
#286 = VERTEX_POINT( '', #337 );
#287 = CIRCLE( '', #338, 4.00000000000000 );
#288 = FILL_AREA_STYLE_COLOUR( '', #339 );
#289 = VERTEX_POINT( '', #340 );
#290 = LINE( '', #341, #342 );
#291 = VERTEX_POINT( '', #343 );
#292 = LINE( '', #344, #345 );
#293 = VERTEX_POINT( '', #346 );
#294 = LINE( '', #347, #348 );
#295 = VERTEX_POINT( '', #349 );
#296 = LINE( '', #350, #351 );
#297 = LINE( '', #352, #353 );
#298 = FILL_AREA_STYLE_COLOUR( '', #354 );
#299 = VERTEX_POINT( '', #355 );
#300 = LINE( '', #356, #357 );
#301 = VERTEX_POINT( '', #358 );
#302 = LINE( '', #359, #360 );
#303 = LINE( '', #361, #362 );
#304 = FILL_AREA_STYLE_COLOUR( '', #363 );
#305 = VERTEX_POINT( '', #364 );
#306 = LINE( '', #365, #366 );
#307 = LINE( '', #367, #368 );
#308 = FILL_AREA_STYLE_COLOUR( '', #369 );
#309 = FILL_AREA_STYLE_COLOUR( '', #370 );
#310 = LINE( '', #371, #372 );
#311 = FILL_AREA_STYLE_COLOUR( '', #373 );
#312 = VERTEX_POINT( '', #374 );
#313 = LINE( '', #375, #376 );
#314 = LINE( '', #377, #378 );
#315 = FILL_AREA_STYLE_COLOUR( '', #379 );
#316 = LINE( '', #380, #381 );
#317 = FILL_AREA_STYLE_COLOUR( '', #382 );
#318 = COLOUR_RGB( '', 0.689999997600000, 0.689999997600000, 0.689999997600000 );
#319 = CARTESIAN_POINT( '', ( 0.000000000000000, 57.5000000000000, -3.23300000000000 ) );
#320 = AXIS2_PLACEMENT_3D( '', #383, #384, #385 );
#321 = COLOUR_RGB( '', 0.689999997600000, 0.689999997600000, 0.689999997600000 );
#322 = CARTESIAN_POINT( '', ( -12.5000000000000, 7.50000000000000, 7.21687836487032 ) );
#323 = CARTESIAN_POINT( '', ( 0.000000000000000, 7.50000000000000, 14.4337567297406 ) );
#324 = CARTESIAN_POINT( '', ( -12.5000000000000, 7.50000000000000, 7.21687836487032 ) );
#325 = VECTOR( '', #386, 1000.00000000000 );
#326 = CARTESIAN_POINT( '', ( -12.1725429281862, 0.000000000000000, 7.02782093631055 ) );
#327 = CARTESIAN_POINT( '', ( -12.4841546247884, 7.13708124112570, 7.20773003322647 ) );
#328 = VECTOR( '', #387, 1000.00000000000 );
#329 = CARTESIAN_POINT( '', ( 4.39010374806836E-16, 0.000000000000000, 14.0556418726211 ) );
#330 = CARTESIAN_POINT( '', ( -6.08627146409308, 0.000000000000000, 10.5417314044658 ) );
#331 = VECTOR( '', #388, 1000.00000000000 );
#332 = CARTESIAN_POINT( '', ( 0.000000000000000, 7.13708124112571, 14.4154600664529 ) );
#333 = VECTOR( '', #389, 1000.00000000000 );
#334 = COLOUR_RGB( '', 0.689999997600000, 0.689999997600000, 0.689999997600000 );
#335 = CARTESIAN_POINT( '', ( 0.000000000000000, 7.50000000000000, -4.00000000000000 ) );
#336 = AXIS2_PLACEMENT_3D( '', #390, #391, #392 );
#337 = CARTESIAN_POINT( '', ( 0.000000000000000, 56.7330000000000, -4.00000000000000 ) );
#338 = AXIS2_PLACEMENT_3D( '', #393, #394, #395 );
#339 = COLOUR_RGB( '', 0.689999997600000, 0.689999997600000, 0.689999997600000 );
#340 = CARTESIAN_POINT( '', ( -12.5000000000000, 7.50000000000000, -7.21687836487032 ) );
#341 = CARTESIAN_POINT( '', ( -12.5000000000000, 7.50000000000000, -7.21687836487032 ) );
#342 = VECTOR( '', #396, 1000.00000000000 );
#343 = CARTESIAN_POINT( '', ( 12.5000000000000, 7.50000000000000, 7.21687836487032 ) );
#344 = CARTESIAN_POINT( '', ( 0.000000000000000, 7.50000000000000, 14.4337567297406 ) );
#345 = VECTOR( '', #397, 1000.00000000000 );
#346 = CARTESIAN_POINT( '', ( 12.5000000000000, 7.50000000000000, -7.21687836487032 ) );
#347 = CARTESIAN_POINT( '', ( 12.5000000000000, 7.50000000000000, 7.21687836487032 ) );
#348 = VECTOR( '', #398, 1000.00000000000 );
#349 = CARTESIAN_POINT( '', ( 0.000000000000000, 7.50000000000000, -14.4337567297406 ) );
#350 = CARTESIAN_POINT( '', ( 12.5000000000000, 7.50000000000000, -7.21687836487032 ) );
#351 = VECTOR( '', #399, 1000.00000000000 );
#352 = CARTESIAN_POINT( '', ( 0.000000000000000, 7.50000000000000, -14.4337567297406 ) );
#353 = VECTOR( '', #400, 1000.00000000000 );
#354 = COLOUR_RGB( '', 0.689999997600000, 0.689999997600000, 0.689999997600000 );
#355 = CARTESIAN_POINT( '', ( 12.1725429281862, 0.000000000000000, -7.02782093631055 ) );
#356 = CARTESIAN_POINT( '', ( 12.4841546247884, 7.13708124112570, -7.20773003322647 ) );
#357 = VECTOR( '', #401, 1000.00000000000 );
#358 = CARTESIAN_POINT( '', ( -4.39010374806836E-16, 0.000000000000000, -14.0556418726211 ) );
#359 = CARTESIAN_POINT( '', ( 6.08627146409308, 0.000000000000000, -10.5417314044658 ) );
#360 = VECTOR( '', #402, 1000.00000000000 );
#361 = CARTESIAN_POINT( '', ( 0.000000000000000, 7.13708124112571, -14.4154600664529 ) );
#362 = VECTOR( '', #403, 1000.00000000000 );
#363 = COLOUR_RGB( '', 0.689999997600000, 0.689999997600000, 0.689999997600000 );
#364 = CARTESIAN_POINT( '', ( -12.1725429281862, 0.000000000000000, -7.02782093631055 ) );
#365 = CARTESIAN_POINT( '', ( -6.08627146409308, 0.000000000000000, -10.5417314044658 ) );
#366 = VECTOR( '', #404, 1000.00000000000 );
#367 = CARTESIAN_POINT( '', ( -12.4841546247884, 7.13708124112571, -7.20773003322647 ) );
#368 = VECTOR( '', #405, 1000.00000000000 );
#369 = COLOUR_RGB( '', 0.689999997600000, 0.689999997600000, 0.689999997600000 );
#370 = COLOUR_RGB( '', 0.689999997600000, 0.689999997600000, 0.689999997600000 );
#371 = CARTESIAN_POINT( '', ( -12.1725429281862, 0.000000000000000, 0.000000000000000 ) );
#372 = VECTOR( '', #406, 1000.00000000000 );
#373 = COLOUR_RGB( '', 0.689999997600000, 0.689999997600000, 0.689999997600000 );
#374 = CARTESIAN_POINT( '', ( 12.1725429281862, 0.000000000000000, 7.02782093631055 ) );
#375 = CARTESIAN_POINT( '', ( 12.1725429281862, 0.000000000000000, 0.000000000000000 ) );
#376 = VECTOR( '', #407, 1000.00000000000 );
#377 = CARTESIAN_POINT( '', ( 6.08627146409308, 0.000000000000000, 10.5417314044658 ) );
#378 = VECTOR( '', #408, 1000.00000000000 );
#379 = COLOUR_RGB( '', 0.689999997600000, 0.689999997600000, 0.689999997600000 );
#380 = CARTESIAN_POINT( '', ( 12.4841546247884, 7.13708124112571, 7.20773003322647 ) );
#381 = VECTOR( '', #409, 1000.00000000000 );
#382 = COLOUR_RGB( '', 0.689999997600000, 0.689999997600000, 0.689999997600000 );
#383 = CARTESIAN_POINT( '', ( 0.000000000000000, 57.5000000000000, 0.000000000000000 ) );
#384 = DIRECTION( '', ( 0.000000000000000, -1.00000000000000, -0.000000000000000 ) );
#385 = DIRECTION( '', ( 0.000000000000000, 0.000000000000000, -1.00000000000000 ) );
#386 = DIRECTION( '', ( 0.866025403784439, 0.000000000000000, 0.500000000000000 ) );
#387 = DIRECTION( '', ( -0.0436055618630999, 0.998731565520054, 0.0251756828798256 ) );
#388 = DIRECTION( '', ( 0.866025403784439, 0.000000000000000, 0.500000000000000 ) );
#389 = DIRECTION( '', ( 0.000000000000000, 0.998731565520054, 0.0503513657596513 ) );
#390 = CARTESIAN_POINT( '', ( 0.000000000000000, 7.50000000000000, 0.000000000000000 ) );
#391 = DIRECTION( '', ( 0.000000000000000, -1.00000000000000, -0.000000000000000 ) );
#392 = DIRECTION( '', ( 0.000000000000000, 0.000000000000000, -1.00000000000000 ) );
#393 = CARTESIAN_POINT( '', ( 0.000000000000000, 56.7330000000000, 0.000000000000000 ) );
#394 = DIRECTION( '', ( 0.000000000000000, -1.00000000000000, -0.000000000000000 ) );
#395 = DIRECTION( '', ( 0.000000000000000, 0.000000000000000, -1.00000000000000 ) );
#396 = DIRECTION( '', ( 0.000000000000000, 0.000000000000000, 1.00000000000000 ) );
#397 = DIRECTION( '', ( 0.866025403784439, 0.000000000000000, -0.500000000000000 ) );
#398 = DIRECTION( '', ( 0.000000000000000, 0.000000000000000, -1.00000000000000 ) );
#399 = DIRECTION( '', ( -0.866025403784439, 0.000000000000000, -0.500000000000000 ) );
#400 = DIRECTION( '', ( -0.866025403784439, 0.000000000000000, 0.500000000000000 ) );
#401 = DIRECTION( '', ( 0.0436055618630999, 0.998731565520054, -0.0251756828798256 ) );
#402 = DIRECTION( '', ( -0.866025403784439, 0.000000000000000, -0.500000000000000 ) );
#403 = DIRECTION( '', ( 0.000000000000000, 0.998731565520054, -0.0503513657596513 ) );
#404 = DIRECTION( '', ( -0.866025403784439, 0.000000000000000, 0.500000000000000 ) );
#405 = DIRECTION( '', ( -0.0436055618630999, 0.998731565520054, -0.0251756828798256 ) );
#406 = DIRECTION( '', ( 0.000000000000000, 0.000000000000000, 1.00000000000000 ) );
#407 = DIRECTION( '', ( 0.000000000000000, 0.000000000000000, -1.00000000000000 ) );
#408 = DIRECTION( '', ( 0.866025403784439, 0.000000000000000, -0.500000000000000 ) );
#409 = DIRECTION( '', ( 0.0436055618630999, 0.998731565520054, 0.0251756828798256 ) );
ENDSEC;
END-ISO-10303-21;
