ISO-10303-21;
HEADER;
FILE_DESCRIPTION( ( 'STEP AP214' ), '1' );
FILE_NAME( '//goodhand-server/Shared Folders/GoodHand Data/Kipp CAD/K0127/27618-05061161.stp', '2020-11-25T11:42:59', ( '' ), ( '' ), ' ', 'PARTsolutions', ' ' );
FILE_SCHEMA( ( 'AUTOMOTIVE_DESIGN { 1 0 10303 214 1 1 1 1 }' ) );
ENDSEC;
DATA;
#1 = MECHANICAL_DESIGN_GEOMETRIC_PRESENTATION_REPRESENTATION( ' ', ( #10, #11, #12, #13, #14, #15, #16, #17, #18, #19, #20, #21, #22 ), #6 );
#2 = PRODUCT_DEFINITION_CONTEXT( '', #23, 'design' );
#3 = APPLICATION_PROTOCOL_DEFINITION( 'international standard', 'automotive_design', 2001, #23 );
#4 = PRODUCT_CATEGORY_RELATIONSHIP( 'NONE', 'NONE', #24, #25 );
#5 = SHAPE_DEFINITION_REPRESENTATION( #26, #27 );
#6 =  ( GEOMETRIC_REPRESENTATION_CONTEXT( 3 )GLOBAL_UNCERTAINTY_ASSIGNED_CONTEXT( ( #30 ) )GLOBAL_UNIT_ASSIGNED_CONTEXT( ( #32, #33, #34 ) )REPRESENTATION_CONTEXT( 'NONE', 'WORKSPACE' ) );
#10 = STYLED_ITEM( '', ( #36 ), #37 );
#11 = STYLED_ITEM( '', ( #38 ), #39 );
#12 = STYLED_ITEM( '', ( #40 ), #41 );
#13 = STYLED_ITEM( '', ( #42 ), #43 );
#14 = STYLED_ITEM( '', ( #44 ), #45 );
#15 = STYLED_ITEM( '', ( #46 ), #47 );
#16 = STYLED_ITEM( '', ( #48 ), #49 );
#17 = STYLED_ITEM( '', ( #50 ), #51 );
#18 = STYLED_ITEM( '', ( #52 ), #53 );
#19 = STYLED_ITEM( '', ( #54 ), #55 );
#20 = STYLED_ITEM( '', ( #56 ), #57 );
#21 = STYLED_ITEM( '', ( #58 ), #59 );
#22 = STYLED_ITEM( '', ( #60 ), #61 );
#23 = APPLICATION_CONTEXT( 'core data for automotive mechanical design processes' );
#24 = PRODUCT_CATEGORY( 'part', 'NONE' );
#25 = PRODUCT_RELATED_PRODUCT_CATEGORY( 'detail', ' ', ( #62 ) );
#26 = PRODUCT_DEFINITION_SHAPE( 'NONE', 'NONE', #63 );
#27 = ADVANCED_BREP_SHAPE_REPRESENTATION( '_27618-05061161', ( #64, #65 ), #6 );
#30 = UNCERTAINTY_MEASURE_WITH_UNIT( LENGTH_MEASURE( 0.00100000000000000 ), #32, '', '' );
#32 =  ( CONVERSION_BASED_UNIT( 'MILLIMETRE', #68 )LENGTH_UNIT(  )NAMED_UNIT( #71 ) );
#33 =  ( NAMED_UNIT( #73 )PLANE_ANGLE_UNIT(  )SI_UNIT( $, .RADIAN. ) );
#34 =  ( NAMED_UNIT( #73 )SI_UNIT( $, .STERADIAN. )SOLID_ANGLE_UNIT(  ) );
#36 = PRESENTATION_STYLE_ASSIGNMENT( ( #79 ) );
#37 = ADVANCED_FACE( '', ( #80 ), #81, .T. );
#38 = PRESENTATION_STYLE_ASSIGNMENT( ( #82 ) );
#39 = ADVANCED_FACE( '', ( #83, #84 ), #85, .F. );
#40 = PRESENTATION_STYLE_ASSIGNMENT( ( #86 ) );
#41 = ADVANCED_FACE( '', ( #87, #88 ), #89, .T. );
#42 = PRESENTATION_STYLE_ASSIGNMENT( ( #90 ) );
#43 = ADVANCED_FACE( '', ( #91 ), #92, .T. );
#44 = PRESENTATION_STYLE_ASSIGNMENT( ( #93 ) );
#45 = ADVANCED_FACE( '', ( #94, #95 ), #96, .F. );
#46 = PRESENTATION_STYLE_ASSIGNMENT( ( #97 ) );
#47 = ADVANCED_FACE( '', ( #98, #99 ), #100, .T. );
#48 = PRESENTATION_STYLE_ASSIGNMENT( ( #101 ) );
#49 = ADVANCED_FACE( '', ( #102, #103 ), #104, .T. );
#50 = PRESENTATION_STYLE_ASSIGNMENT( ( #105 ) );
#51 = ADVANCED_FACE( '', ( #106 ), #107, .F. );
#52 = PRESENTATION_STYLE_ASSIGNMENT( ( #108 ) );
#53 = ADVANCED_FACE( '', ( #109, #110 ), #111, .F. );
#54 = PRESENTATION_STYLE_ASSIGNMENT( ( #112 ) );
#55 = ADVANCED_FACE( '', ( #113, #114 ), #115, .F. );
#56 = PRESENTATION_STYLE_ASSIGNMENT( ( #116 ) );
#57 = ADVANCED_FACE( '', ( #117, #118 ), #119, .T. );
#58 = PRESENTATION_STYLE_ASSIGNMENT( ( #120 ) );
#59 = ADVANCED_FACE( '', ( #121, #122 ), #123, .F. );
#60 = PRESENTATION_STYLE_ASSIGNMENT( ( #124 ) );
#61 = ADVANCED_FACE( '', ( #125, #126 ), #127, .F. );
#62 = PRODUCT( '_27618-05061161', '_27618-05061161', 'PART-_27618-05061161-DESC', ( #128 ) );
#63 = PRODUCT_DEFINITION( 'NONE', 'NONE', #129, #2 );
#64 = MANIFOLD_SOLID_BREP( '_27618-05061161', #130 );
#65 = AXIS2_PLACEMENT_3D( '', #131, #132, #133 );
#68 = LENGTH_MEASURE_WITH_UNIT( LENGTH_MEASURE( 1.00000000000000 ), #134 );
#71 = DIMENSIONAL_EXPONENTS( 1.00000000000000, 0.000000000000000, 0.000000000000000, 0.000000000000000, 0.000000000000000, 0.000000000000000, 0.000000000000000 );
#73 = DIMENSIONAL_EXPONENTS( 0.000000000000000, 0.000000000000000, 0.000000000000000, 0.000000000000000, 0.000000000000000, 0.000000000000000, 0.000000000000000 );
#79 = SURFACE_STYLE_USAGE( .BOTH., #135 );
#80 = FACE_OUTER_BOUND( '', #136, .T. );
#81 = PLANE( '', #137 );
#82 = SURFACE_STYLE_USAGE( .BOTH., #138 );
#83 = FACE_BOUND( '', #139, .T. );
#84 = FACE_OUTER_BOUND( '', #140, .T. );
#85 = CONICAL_SURFACE( '', #141, 2.50000000000000, 0.785398163400000 );
#86 = SURFACE_STYLE_USAGE( .BOTH., #142 );
#87 = FACE_BOUND( '', #143, .T. );
#88 = FACE_OUTER_BOUND( '', #144, .T. );
#89 = PLANE( '', #145 );
#90 = SURFACE_STYLE_USAGE( .BOTH., #146 );
#91 = FACE_OUTER_BOUND( '', #147, .T. );
#92 = PLANE( '', #148 );
#93 = SURFACE_STYLE_USAGE( .BOTH., #149 );
#94 = FACE_BOUND( '', #150, .T. );
#95 = FACE_OUTER_BOUND( '', #151, .T. );
#96 = CONICAL_SURFACE( '', #152, 3.55000000000000, 0.785398163400000 );
#97 = SURFACE_STYLE_USAGE( .BOTH., #153 );
#98 = FACE_BOUND( '', #154, .T. );
#99 = FACE_OUTER_BOUND( '', #155, .T. );
#100 = PLANE( '', #156 );
#101 = SURFACE_STYLE_USAGE( .BOTH., #157 );
#102 = FACE_BOUND( '', #158, .T. );
#103 = FACE_OUTER_BOUND( '', #159, .T. );
#104 = SPHERICAL_SURFACE( '', #160, 5.00000000000000 );
#105 = SURFACE_STYLE_USAGE( .BOTH., #161 );
#106 = FACE_OUTER_BOUND( '', #162, .T. );
#107 = PLANE( '', #163 );
#108 = SURFACE_STYLE_USAGE( .BOTH., #164 );
#109 = FACE_BOUND( '', #165, .T. );
#110 = FACE_OUTER_BOUND( '', #166, .T. );
#111 = PLANE( '', #167 );
#112 = SURFACE_STYLE_USAGE( .BOTH., #168 );
#113 = FACE_OUTER_BOUND( '', #169, .T. );
#114 = FACE_BOUND( '', #170, .T. );
#115 = CONICAL_SURFACE( '', #171, 3.05000000000000, 0.785398163400000 );
#116 = SURFACE_STYLE_USAGE( .BOTH., #172 );
#117 = FACE_OUTER_BOUND( '', #173, .T. );
#118 = FACE_OUTER_BOUND( '', #174, .T. );
#119 = CYLINDRICAL_SURFACE( '', #175, 5.00000000000000 );
#120 = SURFACE_STYLE_USAGE( .BOTH., #176 );
#121 = FACE_OUTER_BOUND( '', #177, .T. );
#122 = FACE_OUTER_BOUND( '', #178, .T. );
#123 = CYLINDRICAL_SURFACE( '', #179, 2.06700000000000 );
#124 = SURFACE_STYLE_USAGE( .BOTH., #180 );
#125 = FACE_OUTER_BOUND( '', #181, .T. );
#126 = FACE_OUTER_BOUND( '', #182, .T. );
#127 = CYLINDRICAL_SURFACE( '', #183, 3.05000000000000 );
#128 = PRODUCT_CONTEXT( '', #23, 'mechanical' );
#129 = PRODUCT_DEFINITION_FORMATION_WITH_SPECIFIED_SOURCE( ' ', 'NONE', #62, .NOT_KNOWN. );
#130 = CLOSED_SHELL( '', ( #49, #57, #53, #39, #59, #51, #37, #41, #47, #43, #45, #61, #55 ) );
#131 = CARTESIAN_POINT( '', ( 0.000000000000000, 0.000000000000000, 0.000000000000000 ) );
#132 = DIRECTION( '', ( 0.000000000000000, 0.000000000000000, 1.00000000000000 ) );
#133 = DIRECTION( '', ( 1.00000000000000, 0.000000000000000, 0.000000000000000 ) );
#134 =  ( LENGTH_UNIT(  )NAMED_UNIT( #71 )SI_UNIT( .MILLI., .METRE. ) );
#135 = SURFACE_SIDE_STYLE( '', ( #185 ) );
#136 = EDGE_LOOP( '', ( #186, #187 ) );
#137 = AXIS2_PLACEMENT_3D( '', #188, #189, #190 );
#138 = SURFACE_SIDE_STYLE( '', ( #191 ) );
#139 = EDGE_LOOP( '', ( #192 ) );
#140 = EDGE_LOOP( '', ( #193 ) );
#141 = AXIS2_PLACEMENT_3D( '', #194, #195, #196 );
#142 = SURFACE_SIDE_STYLE( '', ( #197 ) );
#143 = EDGE_LOOP( '', ( #198 ) );
#144 = EDGE_LOOP( '', ( #199, #200, #201, #202 ) );
#145 = AXIS2_PLACEMENT_3D( '', #203, #204, #205 );
#146 = SURFACE_SIDE_STYLE( '', ( #206 ) );
#147 = EDGE_LOOP( '', ( #207, #208 ) );
#148 = AXIS2_PLACEMENT_3D( '', #209, #210, #211 );
#149 = SURFACE_SIDE_STYLE( '', ( #212 ) );
#150 = EDGE_LOOP( '', ( #213 ) );
#151 = EDGE_LOOP( '', ( #214 ) );
#152 = AXIS2_PLACEMENT_3D( '', #215, #216, #217 );
#153 = SURFACE_SIDE_STYLE( '', ( #218 ) );
#154 = EDGE_LOOP( '', ( #219 ) );
#155 = EDGE_LOOP( '', ( #220, #221, #222, #223 ) );
#156 = AXIS2_PLACEMENT_3D( '', #224, #225, #226 );
#157 = SURFACE_SIDE_STYLE( '', ( #227 ) );
#158 = VERTEX_LOOP( '', #228 );
#159 = EDGE_LOOP( '', ( #229, #230, #231, #232 ) );
#160 = AXIS2_PLACEMENT_3D( '', #233, #234, #235 );
#161 = SURFACE_SIDE_STYLE( '', ( #236 ) );
#162 = EDGE_LOOP( '', ( #237 ) );
#163 = AXIS2_PLACEMENT_3D( '', #238, #239, #240 );
#164 = SURFACE_SIDE_STYLE( '', ( #241 ) );
#165 = EDGE_LOOP( '', ( #242 ) );
#166 = EDGE_LOOP( '', ( #243 ) );
#167 = AXIS2_PLACEMENT_3D( '', #244, #245, #246 );
#168 = SURFACE_SIDE_STYLE( '', ( #247 ) );
#169 = EDGE_LOOP( '', ( #248 ) );
#170 = EDGE_LOOP( '', ( #249 ) );
#171 = AXIS2_PLACEMENT_3D( '', #250, #251, #252 );
#172 = SURFACE_SIDE_STYLE( '', ( #253 ) );
#173 = EDGE_LOOP( '', ( #254 ) );
#174 = EDGE_LOOP( '', ( #255, #256, #257, #258, #259, #260, #261, #262 ) );
#175 = AXIS2_PLACEMENT_3D( '', #263, #264, #265 );
#176 = SURFACE_SIDE_STYLE( '', ( #266 ) );
#177 = EDGE_LOOP( '', ( #267 ) );
#178 = EDGE_LOOP( '', ( #268 ) );
#179 = AXIS2_PLACEMENT_3D( '', #269, #270, #271 );
#180 = SURFACE_SIDE_STYLE( '', ( #272 ) );
#181 = EDGE_LOOP( '', ( #273 ) );
#182 = EDGE_LOOP( '', ( #274 ) );
#183 = AXIS2_PLACEMENT_3D( '', #275, #276, #277 );
#185 = SURFACE_STYLE_FILL_AREA( #278 );
#186 = ORIENTED_EDGE( '', *, *, #279, .T. );
#187 = ORIENTED_EDGE( '', *, *, #280, .T. );
#188 = CARTESIAN_POINT( '', ( -5.00000000000000, 8.50000000000000, 5.00000000000000 ) );
#189 = DIRECTION( '', ( 0.000000000000000, 1.00000000000000, 0.000000000000000 ) );
#190 = DIRECTION( '', ( 0.000000000000000, -0.000000000000000, 1.00000000000000 ) );
#191 = SURFACE_STYLE_FILL_AREA( #281 );
#192 = ORIENTED_EDGE( '', *, *, #282, .F. );
#193 = ORIENTED_EDGE( '', *, *, #283, .T. );
#194 = CARTESIAN_POINT( '', ( 0.000000000000000, 0.000000000000000, 0.000000000000000 ) );
#195 = DIRECTION( '', ( -0.000000000000000, -1.00000000000000, -0.000000000000000 ) );
#196 = DIRECTION( '', ( 0.000000000000000, 0.000000000000000, -1.00000000000000 ) );
#197 = SURFACE_STYLE_FILL_AREA( #284 );
#198 = ORIENTED_EDGE( '', *, *, #285, .T. );
#199 = ORIENTED_EDGE( '', *, *, #286, .T. );
#200 = ORIENTED_EDGE( '', *, *, #279, .F. );
#201 = ORIENTED_EDGE( '', *, *, #287, .T. );
#202 = ORIENTED_EDGE( '', *, *, #288, .F. );
#203 = CARTESIAN_POINT( '', ( -3.00000000000000, 8.50000000000000, 5.00000000000000 ) );
#204 = DIRECTION( '', ( -1.00000000000000, 0.000000000000000, 0.000000000000000 ) );
#205 = DIRECTION( '', ( 0.000000000000000, 0.000000000000000, 1.00000000000000 ) );
#206 = SURFACE_STYLE_FILL_AREA( #289 );
#207 = ORIENTED_EDGE( '', *, *, #290, .F. );
#208 = ORIENTED_EDGE( '', *, *, #291, .T. );
#209 = CARTESIAN_POINT( '', ( 3.00000000000000, 8.50000000000000, 5.00000000000000 ) );
#210 = DIRECTION( '', ( 0.000000000000000, 1.00000000000000, 0.000000000000000 ) );
#211 = DIRECTION( '', ( 0.000000000000000, -0.000000000000000, 1.00000000000000 ) );
#212 = SURFACE_STYLE_FILL_AREA( #292 );
#213 = ORIENTED_EDGE( '', *, *, #293, .T. );
#214 = ORIENTED_EDGE( '', *, *, #285, .F. );
#215 = CARTESIAN_POINT( '', ( -3.00000000000000, 16.0000000000000, 0.000000000000000 ) );
#216 = DIRECTION( '', ( -1.00000000000000, 0.000000000000000, -0.000000000000000 ) );
#217 = DIRECTION( '', ( 0.000000000000000, 0.000000000000000, 1.00000000000000 ) );
#218 = SURFACE_STYLE_FILL_AREA( #294 );
#219 = ORIENTED_EDGE( '', *, *, #295, .F. );
#220 = ORIENTED_EDGE( '', *, *, #296, .T. );
#221 = ORIENTED_EDGE( '', *, *, #290, .T. );
#222 = ORIENTED_EDGE( '', *, *, #297, .T. );
#223 = ORIENTED_EDGE( '', *, *, #298, .F. );
#224 = CARTESIAN_POINT( '', ( 3.00000000000000, 21.0000000000000, 5.00000000000000 ) );
#225 = DIRECTION( '', ( 1.00000000000000, 0.000000000000000, -0.000000000000000 ) );
#226 = DIRECTION( '', ( -0.000000000000000, 0.000000000000000, -1.00000000000000 ) );
#227 = SURFACE_STYLE_FILL_AREA( #299 );
#228 = VERTEX_POINT( '', #300 );
#229 = ORIENTED_EDGE( '', *, *, #301, .F. );
#230 = ORIENTED_EDGE( '', *, *, #288, .T. );
#231 = ORIENTED_EDGE( '', *, *, #302, .F. );
#232 = ORIENTED_EDGE( '', *, *, #298, .T. );
#233 = CARTESIAN_POINT( '', ( 8.67361737988404E-16, 16.0000000000000, 0.000000000000000 ) );
#234 = DIRECTION( '', ( 0.000000000000000, -1.00000000000000, 0.000000000000000 ) );
#235 = DIRECTION( '', ( 1.00000000000000, 0.000000000000000, 0.000000000000000 ) );
#236 = SURFACE_STYLE_FILL_AREA( #303 );
#237 = ORIENTED_EDGE( '', *, *, #304, .T. );
#238 = CARTESIAN_POINT( '', ( 2.06700000000000, 8.00000000000000, 0.000000000000000 ) );
#239 = DIRECTION( '', ( 0.000000000000000, 1.00000000000000, 0.000000000000000 ) );
#240 = DIRECTION( '', ( 0.000000000000000, -0.000000000000000, 1.00000000000000 ) );
#241 = SURFACE_STYLE_FILL_AREA( #305 );
#242 = ORIENTED_EDGE( '', *, *, #283, .F. );
#243 = ORIENTED_EDGE( '', *, *, #306, .T. );
#244 = CARTESIAN_POINT( '', ( 5.00000000000000, 0.000000000000000, 0.000000000000000 ) );
#245 = DIRECTION( '', ( 0.000000000000000, 1.00000000000000, 0.000000000000000 ) );
#246 = DIRECTION( '', ( 0.000000000000000, -0.000000000000000, 1.00000000000000 ) );
#247 = SURFACE_STYLE_FILL_AREA( #307 );
#248 = ORIENTED_EDGE( '', *, *, #295, .T. );
#249 = ORIENTED_EDGE( '', *, *, #308, .F. );
#250 = CARTESIAN_POINT( '', ( 2.50000000000000, 16.0000000000000, 0.000000000000000 ) );
#251 = DIRECTION( '', ( 1.00000000000000, -0.000000000000000, -0.000000000000000 ) );
#252 = DIRECTION( '', ( -0.000000000000000, 0.000000000000000, -1.00000000000000 ) );
#253 = SURFACE_STYLE_FILL_AREA( #309 );
#254 = ORIENTED_EDGE( '', *, *, #306, .F. );
#255 = ORIENTED_EDGE( '', *, *, #280, .F. );
#256 = ORIENTED_EDGE( '', *, *, #286, .F. );
#257 = ORIENTED_EDGE( '', *, *, #301, .T. );
#258 = ORIENTED_EDGE( '', *, *, #297, .F. );
#259 = ORIENTED_EDGE( '', *, *, #291, .F. );
#260 = ORIENTED_EDGE( '', *, *, #296, .F. );
#261 = ORIENTED_EDGE( '', *, *, #302, .T. );
#262 = ORIENTED_EDGE( '', *, *, #287, .F. );
#263 = CARTESIAN_POINT( '', ( 0.000000000000000, 0.000000000000000, 0.000000000000000 ) );
#264 = DIRECTION( '', ( -0.000000000000000, 1.00000000000000, 0.000000000000000 ) );
#265 = DIRECTION( '', ( 0.000000000000000, 0.000000000000000, -1.00000000000000 ) );
#266 = SURFACE_STYLE_FILL_AREA( #310 );
#267 = ORIENTED_EDGE( '', *, *, #304, .F. );
#268 = ORIENTED_EDGE( '', *, *, #282, .T. );
#269 = CARTESIAN_POINT( '', ( 0.000000000000000, 0.000000000000000, 0.000000000000000 ) );
#270 = DIRECTION( '', ( -0.000000000000000, 1.00000000000000, 0.000000000000000 ) );
#271 = DIRECTION( '', ( 0.000000000000000, 0.000000000000000, -1.00000000000000 ) );
#272 = SURFACE_STYLE_FILL_AREA( #311 );
#273 = ORIENTED_EDGE( '', *, *, #308, .T. );
#274 = ORIENTED_EDGE( '', *, *, #293, .F. );
#275 = CARTESIAN_POINT( '', ( 3.00000000000000, 16.0000000000000, 0.000000000000000 ) );
#276 = DIRECTION( '', ( -1.00000000000000, -0.000000000000000, 0.000000000000000 ) );
#277 = DIRECTION( '', ( -0.000000000000000, 0.000000000000000, -1.00000000000000 ) );
#278 = FILL_AREA_STYLE( '', ( #312 ) );
#279 = EDGE_CURVE( '', #313, #314, #315, .T. );
#280 = EDGE_CURVE( '', #314, #313, #316, .T. );
#281 = FILL_AREA_STYLE( '', ( #317 ) );
#282 = EDGE_CURVE( '', #318, #318, #319, .T. );
#283 = EDGE_CURVE( '', #320, #320, #321, .T. );
#284 = FILL_AREA_STYLE( '', ( #322 ) );
#285 = EDGE_CURVE( '', #323, #323, #324, .T. );
#286 = EDGE_CURVE( '', #325, #314, #326, .T. );
#287 = EDGE_CURVE( '', #313, #327, #328, .F. );
#288 = EDGE_CURVE( '', #325, #327, #329, .F. );
#289 = FILL_AREA_STYLE( '', ( #330 ) );
#290 = EDGE_CURVE( '', #331, #332, #333, .T. );
#291 = EDGE_CURVE( '', #331, #332, #334, .T. );
#292 = FILL_AREA_STYLE( '', ( #335 ) );
#293 = EDGE_CURVE( '', #336, #336, #337, .T. );
#294 = FILL_AREA_STYLE( '', ( #338 ) );
#295 = EDGE_CURVE( '', #339, #339, #340, .T. );
#296 = EDGE_CURVE( '', #341, #331, #342, .T. );
#297 = EDGE_CURVE( '', #332, #343, #344, .F. );
#298 = EDGE_CURVE( '', #341, #343, #345, .F. );
#299 = FILL_AREA_STYLE( '', ( #346 ) );
#300 = CARTESIAN_POINT( '', ( 1.17352343777524E-15, 21.0000000000000, 0.000000000000000 ) );
#301 = EDGE_CURVE( '', #325, #343, #347, .T. );
#302 = EDGE_CURVE( '', #341, #327, #348, .T. );
#303 = FILL_AREA_STYLE( '', ( #349 ) );
#304 = EDGE_CURVE( '', #350, #350, #351, .T. );
#305 = FILL_AREA_STYLE( '', ( #352 ) );
#306 = EDGE_CURVE( '', #353, #353, #354, .T. );
#307 = FILL_AREA_STYLE( '', ( #355 ) );
#308 = EDGE_CURVE( '', #356, #356, #357, .T. );
#309 = FILL_AREA_STYLE( '', ( #358 ) );
#310 = FILL_AREA_STYLE( '', ( #359 ) );
#311 = FILL_AREA_STYLE( '', ( #360 ) );
#312 = FILL_AREA_STYLE_COLOUR( '', #361 );
#313 = VERTEX_POINT( '', #362 );
#314 = VERTEX_POINT( '', #363 );
#315 = LINE( '', #364, #365 );
#316 = CIRCLE( '', #366, 5.00000000000000 );
#317 = FILL_AREA_STYLE_COLOUR( '', #367 );
#318 = VERTEX_POINT( '', #368 );
#319 = CIRCLE( '', #369, 2.06700000000000 );
#320 = VERTEX_POINT( '', #370 );
#321 = CIRCLE( '', #371, 2.50000000000000 );
#322 = FILL_AREA_STYLE_COLOUR( '', #372 );
#323 = VERTEX_POINT( '', #373 );
#324 = CIRCLE( '', #374, 3.55000000000000 );
#325 = VERTEX_POINT( '', #375 );
#326 = LINE( '', #376, #377 );
#327 = VERTEX_POINT( '', #378 );
#328 = LINE( '', #379, #380 );
#329 = CIRCLE( '', #381, 4.00000000000000 );
#330 = FILL_AREA_STYLE_COLOUR( '', #382 );
#331 = VERTEX_POINT( '', #383 );
#332 = VERTEX_POINT( '', #384 );
#333 = LINE( '', #385, #386 );
#334 = CIRCLE( '', #387, 5.00000000000000 );
#335 = FILL_AREA_STYLE_COLOUR( '', #388 );
#336 = VERTEX_POINT( '', #389 );
#337 = CIRCLE( '', #390, 3.05000000000000 );
#338 = FILL_AREA_STYLE_COLOUR( '', #391 );
#339 = VERTEX_POINT( '', #392 );
#340 = CIRCLE( '', #393, 3.55000000000000 );
#341 = VERTEX_POINT( '', #394 );
#342 = LINE( '', #395, #396 );
#343 = VERTEX_POINT( '', #397 );
#344 = LINE( '', #398, #399 );
#345 = CIRCLE( '', #400, 4.00000000000000 );
#346 = FILL_AREA_STYLE_COLOUR( '', #401 );
#347 = CIRCLE( '', #402, 5.00000000000000 );
#348 = CIRCLE( '', #403, 5.00000000000000 );
#349 = FILL_AREA_STYLE_COLOUR( '', #404 );
#350 = VERTEX_POINT( '', #405 );
#351 = CIRCLE( '', #406, 2.06700000000000 );
#352 = FILL_AREA_STYLE_COLOUR( '', #407 );
#353 = VERTEX_POINT( '', #408 );
#354 = CIRCLE( '', #409, 5.00000000000000 );
#355 = FILL_AREA_STYLE_COLOUR( '', #410 );
#356 = VERTEX_POINT( '', #411 );
#357 = CIRCLE( '', #412, 3.05000000000000 );
#358 = FILL_AREA_STYLE_COLOUR( '', #413 );
#359 = FILL_AREA_STYLE_COLOUR( '', #414 );
#360 = FILL_AREA_STYLE_COLOUR( '', #415 );
#361 = COLOUR_RGB( '', 0.689999997600000, 0.689999997600000, 0.689999997600000 );
#362 = CARTESIAN_POINT( '', ( -3.00000000000000, 8.50000000000000, 4.00000000000000 ) );
#363 = CARTESIAN_POINT( '', ( -3.00000000000000, 8.50000000000000, -4.00000000000000 ) );
#364 = CARTESIAN_POINT( '', ( -3.00000000000000, 8.50000000000000, 5.00000000000000 ) );
#365 = VECTOR( '', #416, 1000.00000000000 );
#366 = AXIS2_PLACEMENT_3D( '', #417, #418, #419 );
#367 = COLOUR_RGB( '', 0.689999997600000, 0.689999997600000, 0.689999997600000 );
#368 = CARTESIAN_POINT( '', ( 0.000000000000000, 0.433000000000000, -2.06700000000000 ) );
#369 = AXIS2_PLACEMENT_3D( '', #420, #421, #422 );
#370 = CARTESIAN_POINT( '', ( 0.000000000000000, 0.000000000000000, -2.50000000000000 ) );
#371 = AXIS2_PLACEMENT_3D( '', #423, #424, #425 );
#372 = COLOUR_RGB( '', 0.689999997600000, 0.689999997600000, 0.689999997600000 );
#373 = CARTESIAN_POINT( '', ( -3.00000000000000, 16.0000000000000, -3.55000000000000 ) );
#374 = AXIS2_PLACEMENT_3D( '', #426, #427, #428 );
#375 = CARTESIAN_POINT( '', ( -3.00000000000000, 16.0000000000000, -4.00000000000000 ) );
#376 = CARTESIAN_POINT( '', ( -3.00000000000000, 0.000000000000000, -4.00000000000000 ) );
#377 = VECTOR( '', #429, 1000.00000000000 );
#378 = CARTESIAN_POINT( '', ( -3.00000000000000, 16.0000000000000, 4.00000000000000 ) );
#379 = CARTESIAN_POINT( '', ( -3.00000000000000, 0.000000000000000, 4.00000000000000 ) );
#380 = VECTOR( '', #430, 1000.00000000000 );
#381 = AXIS2_PLACEMENT_3D( '', #431, #432, #433 );
#382 = COLOUR_RGB( '', 0.689999997600000, 0.689999997600000, 0.689999997600000 );
#383 = CARTESIAN_POINT( '', ( 3.00000000000000, 8.50000000000000, 4.00000000000000 ) );
#384 = CARTESIAN_POINT( '', ( 3.00000000000000, 8.50000000000000, -4.00000000000000 ) );
#385 = CARTESIAN_POINT( '', ( 3.00000000000000, 8.50000000000000, 5.00000000000000 ) );
#386 = VECTOR( '', #434, 1000.00000000000 );
#387 = AXIS2_PLACEMENT_3D( '', #435, #436, #437 );
#388 = COLOUR_RGB( '', 0.689999997600000, 0.689999997600000, 0.689999997600000 );
#389 = CARTESIAN_POINT( '', ( -2.50000000000000, 16.0000000000000, -3.05000000000000 ) );
#390 = AXIS2_PLACEMENT_3D( '', #438, #439, #440 );
#391 = COLOUR_RGB( '', 0.689999997600000, 0.689999997600000, 0.689999997600000 );
#392 = CARTESIAN_POINT( '', ( 3.00000000000000, 16.0000000000000, -3.55000000000000 ) );
#393 = AXIS2_PLACEMENT_3D( '', #441, #442, #443 );
#394 = CARTESIAN_POINT( '', ( 3.00000000000000, 16.0000000000000, 4.00000000000000 ) );
#395 = CARTESIAN_POINT( '', ( 3.00000000000000, 0.000000000000000, 4.00000000000000 ) );
#396 = VECTOR( '', #444, 1000.00000000000 );
#397 = CARTESIAN_POINT( '', ( 3.00000000000000, 16.0000000000000, -4.00000000000000 ) );
#398 = CARTESIAN_POINT( '', ( 3.00000000000000, 0.000000000000000, -4.00000000000000 ) );
#399 = VECTOR( '', #445, 1000.00000000000 );
#400 = AXIS2_PLACEMENT_3D( '', #446, #447, #448 );
#401 = COLOUR_RGB( '', 0.689999997600000, 0.689999997600000, 0.689999997600000 );
#402 = AXIS2_PLACEMENT_3D( '', #449, #450, #451 );
#403 = AXIS2_PLACEMENT_3D( '', #452, #453, #454 );
#404 = COLOUR_RGB( '', 0.689999997600000, 0.689999997600000, 0.689999997600000 );
#405 = CARTESIAN_POINT( '', ( 0.000000000000000, 8.00000000000000, -2.06700000000000 ) );
#406 = AXIS2_PLACEMENT_3D( '', #455, #456, #457 );
#407 = COLOUR_RGB( '', 0.689999997600000, 0.689999997600000, 0.689999997600000 );
#408 = CARTESIAN_POINT( '', ( 0.000000000000000, 0.000000000000000, -5.00000000000000 ) );
#409 = AXIS2_PLACEMENT_3D( '', #458, #459, #460 );
#410 = COLOUR_RGB( '', 0.689999997600000, 0.689999997600000, 0.689999997600000 );
#411 = CARTESIAN_POINT( '', ( 2.50000000000000, 16.0000000000000, -3.05000000000000 ) );
#412 = AXIS2_PLACEMENT_3D( '', #461, #462, #463 );
#413 = COLOUR_RGB( '', 0.689999997600000, 0.689999997600000, 0.689999997600000 );
#414 = COLOUR_RGB( '', 0.689999997600000, 0.689999997600000, 0.689999997600000 );
#415 = COLOUR_RGB( '', 0.689999997600000, 0.689999997600000, 0.689999997600000 );
#416 = DIRECTION( '', ( -0.000000000000000, -0.000000000000000, -1.00000000000000 ) );
#417 = CARTESIAN_POINT( '', ( 0.000000000000000, 8.50000000000000, 0.000000000000000 ) );
#418 = DIRECTION( '', ( 0.000000000000000, 1.00000000000000, 0.000000000000000 ) );
#419 = DIRECTION( '', ( 0.000000000000000, -0.000000000000000, 1.00000000000000 ) );
#420 = CARTESIAN_POINT( '', ( 0.000000000000000, 0.433000000000000, 0.000000000000000 ) );
#421 = DIRECTION( '', ( 0.000000000000000, -1.00000000000000, -0.000000000000000 ) );
#422 = DIRECTION( '', ( 0.000000000000000, 0.000000000000000, -1.00000000000000 ) );
#423 = CARTESIAN_POINT( '', ( 0.000000000000000, 0.000000000000000, 0.000000000000000 ) );
#424 = DIRECTION( '', ( 0.000000000000000, -1.00000000000000, -0.000000000000000 ) );
#425 = DIRECTION( '', ( 0.000000000000000, 0.000000000000000, -1.00000000000000 ) );
#426 = CARTESIAN_POINT( '', ( -3.00000000000000, 16.0000000000000, 0.000000000000000 ) );
#427 = DIRECTION( '', ( 1.00000000000000, 0.000000000000000, -0.000000000000000 ) );
#428 = DIRECTION( '', ( -0.000000000000000, 0.000000000000000, -1.00000000000000 ) );
#429 = DIRECTION( '', ( -0.000000000000000, -1.00000000000000, -0.000000000000000 ) );
#430 = DIRECTION( '', ( -0.000000000000000, -1.00000000000000, -0.000000000000000 ) );
#431 = CARTESIAN_POINT( '', ( -3.00000000000000, 16.0000000000000, 0.000000000000000 ) );
#432 = DIRECTION( '', ( -1.00000000000000, 0.000000000000000, 0.000000000000000 ) );
#433 = DIRECTION( '', ( 0.000000000000000, 0.000000000000000, 1.00000000000000 ) );
#434 = DIRECTION( '', ( -0.000000000000000, -0.000000000000000, -1.00000000000000 ) );
#435 = CARTESIAN_POINT( '', ( 0.000000000000000, 8.50000000000000, 0.000000000000000 ) );
#436 = DIRECTION( '', ( 0.000000000000000, 1.00000000000000, 0.000000000000000 ) );
#437 = DIRECTION( '', ( 0.000000000000000, -0.000000000000000, 1.00000000000000 ) );
#438 = CARTESIAN_POINT( '', ( -2.50000000000000, 16.0000000000000, 0.000000000000000 ) );
#439 = DIRECTION( '', ( 1.00000000000000, 0.000000000000000, -0.000000000000000 ) );
#440 = DIRECTION( '', ( -0.000000000000000, 0.000000000000000, -1.00000000000000 ) );
#441 = CARTESIAN_POINT( '', ( 3.00000000000000, 16.0000000000000, 0.000000000000000 ) );
#442 = DIRECTION( '', ( 1.00000000000000, 0.000000000000000, -0.000000000000000 ) );
#443 = DIRECTION( '', ( -0.000000000000000, 0.000000000000000, -1.00000000000000 ) );
#444 = DIRECTION( '', ( -0.000000000000000, -1.00000000000000, -0.000000000000000 ) );
#445 = DIRECTION( '', ( -0.000000000000000, -1.00000000000000, -0.000000000000000 ) );
#446 = CARTESIAN_POINT( '', ( 3.00000000000000, 16.0000000000000, 0.000000000000000 ) );
#447 = DIRECTION( '', ( 1.00000000000000, 0.000000000000000, -0.000000000000000 ) );
#448 = DIRECTION( '', ( -0.000000000000000, 0.000000000000000, -1.00000000000000 ) );
#449 = CARTESIAN_POINT( '', ( 0.000000000000000, 16.0000000000000, 0.000000000000000 ) );
#450 = DIRECTION( '', ( 0.000000000000000, -1.00000000000000, -0.000000000000000 ) );
#451 = DIRECTION( '', ( 0.000000000000000, 0.000000000000000, -1.00000000000000 ) );
#452 = CARTESIAN_POINT( '', ( 0.000000000000000, 16.0000000000000, 0.000000000000000 ) );
#453 = DIRECTION( '', ( 0.000000000000000, -1.00000000000000, -0.000000000000000 ) );
#454 = DIRECTION( '', ( 0.000000000000000, 0.000000000000000, -1.00000000000000 ) );
#455 = CARTESIAN_POINT( '', ( 0.000000000000000, 8.00000000000000, 0.000000000000000 ) );
#456 = DIRECTION( '', ( 0.000000000000000, -1.00000000000000, -0.000000000000000 ) );
#457 = DIRECTION( '', ( 0.000000000000000, 0.000000000000000, -1.00000000000000 ) );
#458 = CARTESIAN_POINT( '', ( 0.000000000000000, 0.000000000000000, 0.000000000000000 ) );
#459 = DIRECTION( '', ( 0.000000000000000, -1.00000000000000, -0.000000000000000 ) );
#460 = DIRECTION( '', ( 0.000000000000000, 0.000000000000000, -1.00000000000000 ) );
#461 = CARTESIAN_POINT( '', ( 2.50000000000000, 16.0000000000000, 0.000000000000000 ) );
#462 = DIRECTION( '', ( 1.00000000000000, 0.000000000000000, -0.000000000000000 ) );
#463 = DIRECTION( '', ( -0.000000000000000, 0.000000000000000, -1.00000000000000 ) );
ENDSEC;
END-ISO-10303-21;
