ISO-10303-21;
HEADER;
FILE_DESCRIPTION( ( 'STEP AP214' ), '1' );
FILE_NAME( '//goodhand-server/Shared Folders/GoodHand Data/Kipp CAD/K0391/K0391.12X80.stp', '2020-12-07T10:17:45', ( '' ), ( '' ), ' ', 'PARTsolutions', ' ' );
FILE_SCHEMA( ( 'AUTOMOTIVE_DESIGN { 1 0 10303 214 1 1 1 1 }' ) );
ENDSEC;
DATA;
#1 = MECHANICAL_DESIGN_GEOMETRIC_PRESENTATION_REPRESENTATION( ' ', ( #10, #11, #12, #13, #14, #15, #16, #17, #18, #19, #20, #21, #22 ), #6 );
#2 = PRODUCT_DEFINITION_CONTEXT( '', #23, 'design' );
#3 = APPLICATION_PROTOCOL_DEFINITION( 'international standard', 'automotive_design', 2001, #23 );
#4 = PRODUCT_CATEGORY_RELATIONSHIP( 'NONE', 'NONE', #24, #25 );
#5 = SHAPE_DEFINITION_REPRESENTATION( #26, #27 );
#6 =  ( GEOMETRIC_REPRESENTATION_CONTEXT( 3 )GLOBAL_UNCERTAINTY_ASSIGNED_CONTEXT( ( #30 ) )GLOBAL_UNIT_ASSIGNED_CONTEXT( ( #32, #33, #34 ) )REPRESENTATION_CONTEXT( 'NONE', 'WORKSPACE' ) );
#10 = STYLED_ITEM( '', ( #36 ), #37 );
#11 = STYLED_ITEM( '', ( #38 ), #39 );
#12 = STYLED_ITEM( '', ( #40 ), #41 );
#13 = STYLED_ITEM( '', ( #42 ), #43 );
#14 = STYLED_ITEM( '', ( #44 ), #45 );
#15 = STYLED_ITEM( '', ( #46 ), #47 );
#16 = STYLED_ITEM( '', ( #48 ), #49 );
#17 = STYLED_ITEM( '', ( #50 ), #51 );
#18 = STYLED_ITEM( '', ( #52 ), #53 );
#19 = STYLED_ITEM( '', ( #54 ), #55 );
#20 = STYLED_ITEM( '', ( #56 ), #57 );
#21 = STYLED_ITEM( '', ( #58 ), #59 );
#22 = STYLED_ITEM( '', ( #60 ), #61 );
#23 = APPLICATION_CONTEXT( 'core data for automotive mechanical design processes' );
#24 = PRODUCT_CATEGORY( 'part', 'NONE' );
#25 = PRODUCT_RELATED_PRODUCT_CATEGORY( 'detail', ' ', ( #62 ) );
#26 = PRODUCT_DEFINITION_SHAPE( 'NONE', 'NONE', #63 );
#27 = ADVANCED_BREP_SHAPE_REPRESENTATION( '_K0391.12X80', ( #64, #65 ), #6 );
#30 = UNCERTAINTY_MEASURE_WITH_UNIT( LENGTH_MEASURE( 0.00100000000000000 ), #32, '', '' );
#32 =  ( CONVERSION_BASED_UNIT( 'MILLIMETRE', #68 )LENGTH_UNIT(  )NAMED_UNIT( #71 ) );
#33 =  ( NAMED_UNIT( #73 )PLANE_ANGLE_UNIT(  )SI_UNIT( $, .RADIAN. ) );
#34 =  ( NAMED_UNIT( #73 )SI_UNIT( $, .STERADIAN. )SOLID_ANGLE_UNIT(  ) );
#36 = PRESENTATION_STYLE_ASSIGNMENT( ( #79 ) );
#37 = ADVANCED_FACE( '', ( #80, #81 ), #82, .T. );
#38 = PRESENTATION_STYLE_ASSIGNMENT( ( #83 ) );
#39 = ADVANCED_FACE( '', ( #84 ), #85, .T. );
#40 = PRESENTATION_STYLE_ASSIGNMENT( ( #86 ) );
#41 = ADVANCED_FACE( '', ( #87 ), #88, .F. );
#42 = PRESENTATION_STYLE_ASSIGNMENT( ( #89 ) );
#43 = ADVANCED_FACE( '', ( #90, #91 ), #92, .F. );
#44 = PRESENTATION_STYLE_ASSIGNMENT( ( #93 ) );
#45 = ADVANCED_FACE( '', ( #94, #95 ), #96, .T. );
#46 = PRESENTATION_STYLE_ASSIGNMENT( ( #97 ) );
#47 = ADVANCED_FACE( '', ( #98 ), #99, .T. );
#48 = PRESENTATION_STYLE_ASSIGNMENT( ( #100 ) );
#49 = ADVANCED_FACE( '', ( #101, #102 ), #103, .T. );
#50 = PRESENTATION_STYLE_ASSIGNMENT( ( #104 ) );
#51 = ADVANCED_FACE( '', ( #105, #106 ), #107, .T. );
#52 = PRESENTATION_STYLE_ASSIGNMENT( ( #108 ) );
#53 = ADVANCED_FACE( '', ( #109 ), #110, .T. );
#54 = PRESENTATION_STYLE_ASSIGNMENT( ( #111 ) );
#55 = ADVANCED_FACE( '', ( #112 ), #113, .T. );
#56 = PRESENTATION_STYLE_ASSIGNMENT( ( #114 ) );
#57 = ADVANCED_FACE( '', ( #115 ), #116, .T. );
#58 = PRESENTATION_STYLE_ASSIGNMENT( ( #117 ) );
#59 = ADVANCED_FACE( '', ( #118 ), #119, .T. );
#60 = PRESENTATION_STYLE_ASSIGNMENT( ( #120 ) );
#61 = ADVANCED_FACE( '', ( #121, #122 ), #123, .T. );
#62 = PRODUCT( '_K0391.12X80', '_K0391.12X80', 'PART-_K0391.12X80-DESC', ( #124 ) );
#63 = PRODUCT_DEFINITION( 'NONE', 'NONE', #125, #2 );
#64 = MANIFOLD_SOLID_BREP( '_K0391.12X80', #126 );
#65 = AXIS2_PLACEMENT_3D( '', #127, #128, #129 );
#68 = LENGTH_MEASURE_WITH_UNIT( LENGTH_MEASURE( 1.00000000000000 ), #130 );
#71 = DIMENSIONAL_EXPONENTS( 1.00000000000000, 0.000000000000000, 0.000000000000000, 0.000000000000000, 0.000000000000000, 0.000000000000000, 0.000000000000000 );
#73 = DIMENSIONAL_EXPONENTS( 0.000000000000000, 0.000000000000000, 0.000000000000000, 0.000000000000000, 0.000000000000000, 0.000000000000000, 0.000000000000000 );
#79 = SURFACE_STYLE_USAGE( .BOTH., #131 );
#80 = FACE_BOUND( '', #132, .T. );
#81 = FACE_OUTER_BOUND( '', #133, .T. );
#82 = CONICAL_SURFACE( '', #134, 6.00000000000000, 0.813428203400000 );
#83 = SURFACE_STYLE_USAGE( .BOTH., #135 );
#84 = FACE_OUTER_BOUND( '', #136, .T. );
#85 = PLANE( '', #137 );
#86 = SURFACE_STYLE_USAGE( .BOTH., #138 );
#87 = FACE_OUTER_BOUND( '', #139, .T. );
#88 = PLANE( '', #140 );
#89 = SURFACE_STYLE_USAGE( .BOTH., #141 );
#90 = FACE_OUTER_BOUND( '', #142, .T. );
#91 = FACE_BOUND( '', #143, .T. );
#92 = PLANE( '', #144 );
#93 = SURFACE_STYLE_USAGE( .BOTH., #145 );
#94 = FACE_BOUND( '', #146, .T. );
#95 = FACE_OUTER_BOUND( '', #147, .T. );
#96 = SPHERICAL_SURFACE( '', #148, 4.00000000000000 );
#97 = SURFACE_STYLE_USAGE( .BOTH., #149 );
#98 = FACE_OUTER_BOUND( '', #150, .T. );
#99 = PLANE( '', #151 );
#100 = SURFACE_STYLE_USAGE( .BOTH., #152 );
#101 = FACE_OUTER_BOUND( '', #153, .T. );
#102 = FACE_BOUND( '', #154, .T. );
#103 = CONICAL_SURFACE( '', #155, 4.92650000000000, 0.785398163400000 );
#104 = SURFACE_STYLE_USAGE( .BOTH., #156 );
#105 = FACE_OUTER_BOUND( '', #157, .T. );
#106 = FACE_OUTER_BOUND( '', #158, .T. );
#107 = CYLINDRICAL_SURFACE( '', #159, 3.25000000000000 );
#108 = SURFACE_STYLE_USAGE( .BOTH., #160 );
#109 = FACE_OUTER_BOUND( '', #161, .T. );
#110 = PLANE( '', #162 );
#111 = SURFACE_STYLE_USAGE( .BOTH., #163 );
#112 = FACE_OUTER_BOUND( '', #164, .T. );
#113 = PLANE( '', #165 );
#114 = SURFACE_STYLE_USAGE( .BOTH., #166 );
#115 = FACE_OUTER_BOUND( '', #167, .T. );
#116 = PLANE( '', #168 );
#117 = SURFACE_STYLE_USAGE( .BOTH., #169 );
#118 = FACE_OUTER_BOUND( '', #170, .T. );
#119 = PLANE( '', #171 );
#120 = SURFACE_STYLE_USAGE( .BOTH., #172 );
#121 = FACE_OUTER_BOUND( '', #173, .T. );
#122 = FACE_OUTER_BOUND( '', #174, .T. );
#123 = CYLINDRICAL_SURFACE( '', #175, 6.00000000000000 );
#124 = PRODUCT_CONTEXT( '', #23, 'mechanical' );
#125 = PRODUCT_DEFINITION_FORMATION_WITH_SPECIFIED_SOURCE( ' ', 'NONE', #62, .NOT_KNOWN. );
#126 = CLOSED_SHELL( '', ( #49, #43, #47, #55, #53, #45, #51, #37, #61, #59, #57, #39, #41 ) );
#127 = CARTESIAN_POINT( '', ( 0.000000000000000, 0.000000000000000, 0.000000000000000 ) );
#128 = DIRECTION( '', ( 0.000000000000000, 0.000000000000000, 1.00000000000000 ) );
#129 = DIRECTION( '', ( 1.00000000000000, 0.000000000000000, 0.000000000000000 ) );
#130 =  ( LENGTH_UNIT(  )NAMED_UNIT( #71 )SI_UNIT( .MILLI., .METRE. ) );
#131 = SURFACE_SIDE_STYLE( '', ( #177 ) );
#132 = EDGE_LOOP( '', ( #178 ) );
#133 = EDGE_LOOP( '', ( #179 ) );
#134 = AXIS2_PLACEMENT_3D( '', #180, #181, #182 );
#135 = SURFACE_SIDE_STYLE( '', ( #183 ) );
#136 = EDGE_LOOP( '', ( #184, #185, #186, #187 ) );
#137 = AXIS2_PLACEMENT_3D( '', #188, #189, #190 );
#138 = SURFACE_SIDE_STYLE( '', ( #191 ) );
#139 = EDGE_LOOP( '', ( #192, #193, #194, #195, #196, #197 ) );
#140 = AXIS2_PLACEMENT_3D( '', #198, #199, #200 );
#141 = SURFACE_SIDE_STYLE( '', ( #201 ) );
#142 = EDGE_LOOP( '', ( #202 ) );
#143 = EDGE_LOOP( '', ( #203, #204, #205, #206, #207, #208 ) );
#144 = AXIS2_PLACEMENT_3D( '', #209, #210, #211 );
#145 = SURFACE_SIDE_STYLE( '', ( #212 ) );
#146 = VERTEX_LOOP( '', #213 );
#147 = EDGE_LOOP( '', ( #214 ) );
#148 = AXIS2_PLACEMENT_3D( '', #215, #216, #217 );
#149 = SURFACE_SIDE_STYLE( '', ( #218 ) );
#150 = EDGE_LOOP( '', ( #219, #220, #221, #222 ) );
#151 = AXIS2_PLACEMENT_3D( '', #223, #224, #225 );
#152 = SURFACE_SIDE_STYLE( '', ( #226 ) );
#153 = EDGE_LOOP( '', ( #227 ) );
#154 = EDGE_LOOP( '', ( #228 ) );
#155 = AXIS2_PLACEMENT_3D( '', #229, #230, #231 );
#156 = SURFACE_SIDE_STYLE( '', ( #232 ) );
#157 = EDGE_LOOP( '', ( #233 ) );
#158 = EDGE_LOOP( '', ( #234 ) );
#159 = AXIS2_PLACEMENT_3D( '', #235, #236, #237 );
#160 = SURFACE_SIDE_STYLE( '', ( #238 ) );
#161 = EDGE_LOOP( '', ( #239, #240, #241, #242 ) );
#162 = AXIS2_PLACEMENT_3D( '', #243, #244, #245 );
#163 = SURFACE_SIDE_STYLE( '', ( #246 ) );
#164 = EDGE_LOOP( '', ( #247, #248, #249, #250 ) );
#165 = AXIS2_PLACEMENT_3D( '', #251, #252, #253 );
#166 = SURFACE_SIDE_STYLE( '', ( #254 ) );
#167 = EDGE_LOOP( '', ( #255, #256, #257, #258 ) );
#168 = AXIS2_PLACEMENT_3D( '', #259, #260, #261 );
#169 = SURFACE_SIDE_STYLE( '', ( #262 ) );
#170 = EDGE_LOOP( '', ( #263, #264, #265, #266 ) );
#171 = AXIS2_PLACEMENT_3D( '', #267, #268, #269 );
#172 = SURFACE_SIDE_STYLE( '', ( #270 ) );
#173 = EDGE_LOOP( '', ( #271 ) );
#174 = EDGE_LOOP( '', ( #272 ) );
#175 = AXIS2_PLACEMENT_3D( '', #273, #274, #275 );
#177 = SURFACE_STYLE_FILL_AREA( #276 );
#178 = ORIENTED_EDGE( '', *, *, #277, .F. );
#179 = ORIENTED_EDGE( '', *, *, #278, .T. );
#180 = CARTESIAN_POINT( '', ( 70.2000000000000, 0.000000000000000, 0.000000000000000 ) );
#181 = DIRECTION( '', ( -1.00000000000000, 0.000000000000000, -0.000000000000000 ) );
#182 = DIRECTION( '', ( 0.000000000000000, 0.000000000000000, 1.00000000000000 ) );
#183 = SURFACE_STYLE_FILL_AREA( #279 );
#184 = ORIENTED_EDGE( '', *, *, #280, .F. );
#185 = ORIENTED_EDGE( '', *, *, #281, .F. );
#186 = ORIENTED_EDGE( '', *, *, #282, .T. );
#187 = ORIENTED_EDGE( '', *, *, #283, .T. );
#188 = CARTESIAN_POINT( '', ( 6.00000000000000, 3.46410161513775, 0.000000000000000 ) );
#189 = DIRECTION( '', ( 0.000000000000000, -0.866025403784439, -0.500000000000000 ) );
#190 = DIRECTION( '', ( 0.000000000000000, 0.500000000000000, -0.866025403784439 ) );
#191 = SURFACE_STYLE_FILL_AREA( #284 );
#192 = ORIENTED_EDGE( '', *, *, #285, .F. );
#193 = ORIENTED_EDGE( '', *, *, #282, .F. );
#194 = ORIENTED_EDGE( '', *, *, #286, .F. );
#195 = ORIENTED_EDGE( '', *, *, #287, .F. );
#196 = ORIENTED_EDGE( '', *, *, #288, .F. );
#197 = ORIENTED_EDGE( '', *, *, #289, .F. );
#198 = CARTESIAN_POINT( '', ( 6.00000000000000, 0.000000000000000, 0.000000000000000 ) );
#199 = DIRECTION( '', ( 1.00000000000000, 0.000000000000000, 0.000000000000000 ) );
#200 = DIRECTION( '', ( 0.000000000000000, 0.000000000000000, -1.00000000000000 ) );
#201 = SURFACE_STYLE_FILL_AREA( #290 );
#202 = ORIENTED_EDGE( '', *, *, #291, .F. );
#203 = ORIENTED_EDGE( '', *, *, #292, .T. );
#204 = ORIENTED_EDGE( '', *, *, #293, .T. );
#205 = ORIENTED_EDGE( '', *, *, #294, .T. );
#206 = ORIENTED_EDGE( '', *, *, #295, .T. );
#207 = ORIENTED_EDGE( '', *, *, #296, .T. );
#208 = ORIENTED_EDGE( '', *, *, #280, .T. );
#209 = CARTESIAN_POINT( '', ( 0.000000000000000, 0.000000000000000, 0.000000000000000 ) );
#210 = DIRECTION( '', ( 1.00000000000000, 0.000000000000000, -0.000000000000000 ) );
#211 = DIRECTION( '', ( -0.000000000000000, 0.000000000000000, -1.00000000000000 ) );
#212 = SURFACE_STYLE_FILL_AREA( #297 );
#213 = VERTEX_POINT( '', #298 );
#214 = ORIENTED_EDGE( '', *, *, #299, .T. );
#215 = CARTESIAN_POINT( '', ( 76.0000000000000, -9.54097911787244E-15, 0.000000000000000 ) );
#216 = DIRECTION( '', ( 1.00000000000000, 0.000000000000000, 0.000000000000000 ) );
#217 = DIRECTION( '', ( 0.000000000000000, 1.00000000000000, 0.000000000000000 ) );
#218 = SURFACE_STYLE_FILL_AREA( #300 );
#219 = ORIENTED_EDGE( '', *, *, #293, .F. );
#220 = ORIENTED_EDGE( '', *, *, #301, .F. );
#221 = ORIENTED_EDGE( '', *, *, #289, .T. );
#222 = ORIENTED_EDGE( '', *, *, #302, .T. );
#223 = CARTESIAN_POINT( '', ( 6.00000000000000, -1.73205080756888, 3.00000000000000 ) );
#224 = DIRECTION( '', ( 0.000000000000000, 0.866025403784439, -0.500000000000000 ) );
#225 = DIRECTION( '', ( 0.000000000000000, 0.500000000000000, 0.866025403784439 ) );
#226 = SURFACE_STYLE_FILL_AREA( #303 );
#227 = ORIENTED_EDGE( '', *, *, #304, .F. );
#228 = ORIENTED_EDGE( '', *, *, #291, .T. );
#229 = CARTESIAN_POINT( '', ( 0.000000000000000, 0.000000000000000, 0.000000000000000 ) );
#230 = DIRECTION( '', ( 1.00000000000000, -0.000000000000000, -0.000000000000000 ) );
#231 = DIRECTION( '', ( -0.000000000000000, 0.000000000000000, -1.00000000000000 ) );
#232 = SURFACE_STYLE_FILL_AREA( #305 );
#233 = ORIENTED_EDGE( '', *, *, #299, .F. );
#234 = ORIENTED_EDGE( '', *, *, #277, .T. );
#235 = CARTESIAN_POINT( '', ( 80.0000000000000, 0.000000000000000, 0.000000000000000 ) );
#236 = DIRECTION( '', ( -1.00000000000000, -0.000000000000000, 0.000000000000000 ) );
#237 = DIRECTION( '', ( -0.000000000000000, 0.000000000000000, -1.00000000000000 ) );
#238 = SURFACE_STYLE_FILL_AREA( #306 );
#239 = ORIENTED_EDGE( '', *, *, #292, .F. );
#240 = ORIENTED_EDGE( '', *, *, #283, .F. );
#241 = ORIENTED_EDGE( '', *, *, #285, .T. );
#242 = ORIENTED_EDGE( '', *, *, #301, .T. );
#243 = CARTESIAN_POINT( '', ( 6.00000000000000, 1.73205080756888, 3.00000000000000 ) );
#244 = DIRECTION( '', ( 0.000000000000000, 0.000000000000000, -1.00000000000000 ) );
#245 = DIRECTION( '', ( -1.00000000000000, 0.000000000000000, 0.000000000000000 ) );
#246 = SURFACE_STYLE_FILL_AREA( #307 );
#247 = ORIENTED_EDGE( '', *, *, #294, .F. );
#248 = ORIENTED_EDGE( '', *, *, #302, .F. );
#249 = ORIENTED_EDGE( '', *, *, #288, .T. );
#250 = ORIENTED_EDGE( '', *, *, #308, .T. );
#251 = CARTESIAN_POINT( '', ( 6.00000000000000, -3.46410161513775, 0.000000000000000 ) );
#252 = DIRECTION( '', ( -0.000000000000000, 0.866025403784439, 0.500000000000000 ) );
#253 = DIRECTION( '', ( 0.000000000000000, -0.500000000000000, 0.866025403784439 ) );
#254 = SURFACE_STYLE_FILL_AREA( #309 );
#255 = ORIENTED_EDGE( '', *, *, #296, .F. );
#256 = ORIENTED_EDGE( '', *, *, #310, .F. );
#257 = ORIENTED_EDGE( '', *, *, #286, .T. );
#258 = ORIENTED_EDGE( '', *, *, #281, .T. );
#259 = CARTESIAN_POINT( '', ( 6.00000000000000, 1.73205080756888, -3.00000000000000 ) );
#260 = DIRECTION( '', ( 0.000000000000000, -0.866025403784439, 0.500000000000000 ) );
#261 = DIRECTION( '', ( 0.000000000000000, -0.500000000000000, -0.866025403784439 ) );
#262 = SURFACE_STYLE_FILL_AREA( #311 );
#263 = ORIENTED_EDGE( '', *, *, #295, .F. );
#264 = ORIENTED_EDGE( '', *, *, #308, .F. );
#265 = ORIENTED_EDGE( '', *, *, #287, .T. );
#266 = ORIENTED_EDGE( '', *, *, #310, .T. );
#267 = CARTESIAN_POINT( '', ( 6.00000000000000, -1.73205080756888, -3.00000000000000 ) );
#268 = DIRECTION( '', ( 0.000000000000000, 0.000000000000000, 1.00000000000000 ) );
#269 = DIRECTION( '', ( 1.00000000000000, 0.000000000000000, -0.000000000000000 ) );
#270 = SURFACE_STYLE_FILL_AREA( #312 );
#271 = ORIENTED_EDGE( '', *, *, #278, .F. );
#272 = ORIENTED_EDGE( '', *, *, #304, .T. );
#273 = CARTESIAN_POINT( '', ( 80.0000000000000, 0.000000000000000, 0.000000000000000 ) );
#274 = DIRECTION( '', ( -1.00000000000000, -0.000000000000000, 0.000000000000000 ) );
#275 = DIRECTION( '', ( -0.000000000000000, 0.000000000000000, -1.00000000000000 ) );
#276 = FILL_AREA_STYLE( '', ( #313 ) );
#277 = EDGE_CURVE( '', #314, #314, #315, .T. );
#278 = EDGE_CURVE( '', #316, #316, #317, .T. );
#279 = FILL_AREA_STYLE( '', ( #318 ) );
#280 = EDGE_CURVE( '', #319, #320, #321, .T. );
#281 = EDGE_CURVE( '', #322, #319, #323, .T. );
#282 = EDGE_CURVE( '', #322, #324, #325, .T. );
#283 = EDGE_CURVE( '', #324, #320, #326, .T. );
#284 = FILL_AREA_STYLE( '', ( #327 ) );
#285 = EDGE_CURVE( '', #324, #328, #329, .T. );
#286 = EDGE_CURVE( '', #330, #322, #331, .T. );
#287 = EDGE_CURVE( '', #332, #330, #333, .T. );
#288 = EDGE_CURVE( '', #334, #332, #335, .T. );
#289 = EDGE_CURVE( '', #328, #334, #336, .T. );
#290 = FILL_AREA_STYLE( '', ( #337 ) );
#291 = EDGE_CURVE( '', #338, #338, #339, .T. );
#292 = EDGE_CURVE( '', #320, #340, #341, .T. );
#293 = EDGE_CURVE( '', #340, #342, #343, .T. );
#294 = EDGE_CURVE( '', #342, #344, #345, .T. );
#295 = EDGE_CURVE( '', #344, #346, #347, .T. );
#296 = EDGE_CURVE( '', #346, #319, #348, .T. );
#297 = FILL_AREA_STYLE( '', ( #349 ) );
#298 = CARTESIAN_POINT( '', ( 80.0000000000000, -9.29604975804297E-15, 0.000000000000000 ) );
#299 = EDGE_CURVE( '', #350, #350, #351, .T. );
#300 = FILL_AREA_STYLE( '', ( #352 ) );
#301 = EDGE_CURVE( '', #328, #340, #353, .T. );
#302 = EDGE_CURVE( '', #334, #342, #354, .T. );
#303 = FILL_AREA_STYLE( '', ( #355 ) );
#304 = EDGE_CURVE( '', #356, #356, #357, .T. );
#305 = FILL_AREA_STYLE( '', ( #358 ) );
#306 = FILL_AREA_STYLE( '', ( #359 ) );
#307 = FILL_AREA_STYLE( '', ( #360 ) );
#308 = EDGE_CURVE( '', #332, #344, #361, .T. );
#309 = FILL_AREA_STYLE( '', ( #362 ) );
#310 = EDGE_CURVE( '', #330, #346, #363, .T. );
#311 = FILL_AREA_STYLE( '', ( #364 ) );
#312 = FILL_AREA_STYLE( '', ( #365 ) );
#313 = FILL_AREA_STYLE_COLOUR( '', #366 );
#314 = VERTEX_POINT( '', #367 );
#315 = CIRCLE( '', #368, 3.25000000000000 );
#316 = VERTEX_POINT( '', #369 );
#317 = CIRCLE( '', #370, 6.00000000000000 );
#318 = FILL_AREA_STYLE_COLOUR( '', #371 );
#319 = VERTEX_POINT( '', #372 );
#320 = VERTEX_POINT( '', #373 );
#321 = LINE( '', #374, #375 );
#322 = VERTEX_POINT( '', #376 );
#323 = LINE( '', #377, #378 );
#324 = VERTEX_POINT( '', #379 );
#325 = LINE( '', #380, #381 );
#326 = LINE( '', #382, #383 );
#327 = FILL_AREA_STYLE_COLOUR( '', #384 );
#328 = VERTEX_POINT( '', #385 );
#329 = LINE( '', #386, #387 );
#330 = VERTEX_POINT( '', #388 );
#331 = LINE( '', #389, #390 );
#332 = VERTEX_POINT( '', #391 );
#333 = LINE( '', #392, #393 );
#334 = VERTEX_POINT( '', #394 );
#335 = LINE( '', #395, #396 );
#336 = LINE( '', #397, #398 );
#337 = FILL_AREA_STYLE_COLOUR( '', #399 );
#338 = VERTEX_POINT( '', #400 );
#339 = CIRCLE( '', #401, 4.92650000000000 );
#340 = VERTEX_POINT( '', #402 );
#341 = LINE( '', #403, #404 );
#342 = VERTEX_POINT( '', #405 );
#343 = LINE( '', #406, #407 );
#344 = VERTEX_POINT( '', #408 );
#345 = LINE( '', #409, #410 );
#346 = VERTEX_POINT( '', #411 );
#347 = LINE( '', #412, #413 );
#348 = LINE( '', #414, #415 );
#349 = FILL_AREA_STYLE_COLOUR( '', #416 );
#350 = VERTEX_POINT( '', #417 );
#351 = CIRCLE( '', #418, 3.25000000000000 );
#352 = FILL_AREA_STYLE_COLOUR( '', #419 );
#353 = LINE( '', #420, #421 );
#354 = LINE( '', #422, #423 );
#355 = FILL_AREA_STYLE_COLOUR( '', #424 );
#356 = VERTEX_POINT( '', #425 );
#357 = CIRCLE( '', #426, 6.00000000000000 );
#358 = FILL_AREA_STYLE_COLOUR( '', #427 );
#359 = FILL_AREA_STYLE_COLOUR( '', #428 );
#360 = FILL_AREA_STYLE_COLOUR( '', #429 );
#361 = LINE( '', #430, #431 );
#362 = FILL_AREA_STYLE_COLOUR( '', #432 );
#363 = LINE( '', #433, #434 );
#364 = FILL_AREA_STYLE_COLOUR( '', #435 );
#365 = FILL_AREA_STYLE_COLOUR( '', #436 );
#366 = COLOUR_RGB( '', 0.689999997600000, 0.689999997600000, 0.689999997600000 );
#367 = CARTESIAN_POINT( '', ( 72.8000000000000, 0.000000000000000, -3.25000000000000 ) );
#368 = AXIS2_PLACEMENT_3D( '', #437, #438, #439 );
#369 = CARTESIAN_POINT( '', ( 70.2000000000000, 0.000000000000000, -6.00000000000001 ) );
#370 = AXIS2_PLACEMENT_3D( '', #440, #441, #442 );
#371 = COLOUR_RGB( '', 0.689999997600000, 0.689999997600000, 0.689999997600000 );
#372 = CARTESIAN_POINT( '', ( 0.000000000000000, 3.46410161513775, 0.000000000000000 ) );
#373 = CARTESIAN_POINT( '', ( 0.000000000000000, 1.73205080756888, 3.00000000000000 ) );
#374 = CARTESIAN_POINT( '', ( 0.000000000000000, 3.46410161513775, 0.000000000000000 ) );
#375 = VECTOR( '', #443, 1000.00000000000 );
#376 = CARTESIAN_POINT( '', ( 6.00000000000000, 3.46410161513775, 0.000000000000000 ) );
#377 = CARTESIAN_POINT( '', ( 6.00000000000000, 3.46410161513775, 0.000000000000000 ) );
#378 = VECTOR( '', #444, 1000.00000000000 );
#379 = CARTESIAN_POINT( '', ( 6.00000000000000, 1.73205080756888, 3.00000000000000 ) );
#380 = CARTESIAN_POINT( '', ( 6.00000000000000, 3.46410161513775, 0.000000000000000 ) );
#381 = VECTOR( '', #445, 1000.00000000000 );
#382 = CARTESIAN_POINT( '', ( 6.00000000000000, 1.73205080756888, 3.00000000000000 ) );
#383 = VECTOR( '', #446, 1000.00000000000 );
#384 = COLOUR_RGB( '', 0.689999997600000, 0.689999997600000, 0.689999997600000 );
#385 = CARTESIAN_POINT( '', ( 6.00000000000000, -1.73205080756888, 3.00000000000000 ) );
#386 = CARTESIAN_POINT( '', ( 6.00000000000000, 1.73205080756888, 3.00000000000000 ) );
#387 = VECTOR( '', #447, 1000.00000000000 );
#388 = CARTESIAN_POINT( '', ( 6.00000000000000, 1.73205080756888, -3.00000000000000 ) );
#389 = CARTESIAN_POINT( '', ( 6.00000000000000, 1.73205080756888, -3.00000000000000 ) );
#390 = VECTOR( '', #448, 1000.00000000000 );
#391 = CARTESIAN_POINT( '', ( 6.00000000000000, -1.73205080756888, -3.00000000000000 ) );
#392 = CARTESIAN_POINT( '', ( 6.00000000000000, -1.73205080756888, -3.00000000000000 ) );
#393 = VECTOR( '', #449, 1000.00000000000 );
#394 = CARTESIAN_POINT( '', ( 6.00000000000000, -3.46410161513775, 0.000000000000000 ) );
#395 = CARTESIAN_POINT( '', ( 6.00000000000000, -3.46410161513775, 0.000000000000000 ) );
#396 = VECTOR( '', #450, 1000.00000000000 );
#397 = CARTESIAN_POINT( '', ( 6.00000000000000, -1.73205080756888, 3.00000000000000 ) );
#398 = VECTOR( '', #451, 1000.00000000000 );
#399 = COLOUR_RGB( '', 0.689999997600000, 0.689999997600000, 0.689999997600000 );
#400 = CARTESIAN_POINT( '', ( 0.000000000000000, 0.000000000000000, -4.92650000000000 ) );
#401 = AXIS2_PLACEMENT_3D( '', #452, #453, #454 );
#402 = CARTESIAN_POINT( '', ( 0.000000000000000, -1.73205080756888, 3.00000000000000 ) );
#403 = CARTESIAN_POINT( '', ( 0.000000000000000, 1.73205080756888, 3.00000000000000 ) );
#404 = VECTOR( '', #455, 1000.00000000000 );
#405 = CARTESIAN_POINT( '', ( 0.000000000000000, -3.46410161513775, 0.000000000000000 ) );
#406 = CARTESIAN_POINT( '', ( 0.000000000000000, -1.73205080756888, 3.00000000000000 ) );
#407 = VECTOR( '', #456, 1000.00000000000 );
#408 = CARTESIAN_POINT( '', ( 0.000000000000000, -1.73205080756888, -3.00000000000000 ) );
#409 = CARTESIAN_POINT( '', ( 0.000000000000000, -3.46410161513775, 0.000000000000000 ) );
#410 = VECTOR( '', #457, 1000.00000000000 );
#411 = CARTESIAN_POINT( '', ( 0.000000000000000, 1.73205080756888, -3.00000000000000 ) );
#412 = CARTESIAN_POINT( '', ( 0.000000000000000, -1.73205080756888, -3.00000000000000 ) );
#413 = VECTOR( '', #458, 1000.00000000000 );
#414 = CARTESIAN_POINT( '', ( 0.000000000000000, 1.73205080756888, -3.00000000000000 ) );
#415 = VECTOR( '', #459, 1000.00000000000 );
#416 = COLOUR_RGB( '', 0.689999997600000, 0.689999997600000, 0.689999997600000 );
#417 = CARTESIAN_POINT( '', ( 73.6681552367278, 0.000000000000000, -3.25000000000000 ) );
#418 = AXIS2_PLACEMENT_3D( '', #460, #461, #462 );
#419 = COLOUR_RGB( '', 0.689999997600000, 0.689999997600000, 0.689999997600000 );
#420 = CARTESIAN_POINT( '', ( 6.00000000000000, -1.73205080756888, 3.00000000000000 ) );
#421 = VECTOR( '', #463, 1000.00000000000 );
#422 = CARTESIAN_POINT( '', ( 6.00000000000000, -3.46410161513775, 0.000000000000000 ) );
#423 = VECTOR( '', #464, 1000.00000000000 );
#424 = COLOUR_RGB( '', 0.689999997600000, 0.689999997600000, 0.689999997600000 );
#425 = CARTESIAN_POINT( '', ( 1.07350000000001, 0.000000000000000, -6.00000000000001 ) );
#426 = AXIS2_PLACEMENT_3D( '', #465, #466, #467 );
#427 = COLOUR_RGB( '', 0.689999997600000, 0.689999997600000, 0.689999997600000 );
#428 = COLOUR_RGB( '', 0.689999997600000, 0.689999997600000, 0.689999997600000 );
#429 = COLOUR_RGB( '', 0.689999997600000, 0.689999997600000, 0.689999997600000 );
#430 = CARTESIAN_POINT( '', ( 6.00000000000000, -1.73205080756888, -3.00000000000000 ) );
#431 = VECTOR( '', #468, 1000.00000000000 );
#432 = COLOUR_RGB( '', 0.689999997600000, 0.689999997600000, 0.689999997600000 );
#433 = CARTESIAN_POINT( '', ( 6.00000000000000, 1.73205080756888, -3.00000000000000 ) );
#434 = VECTOR( '', #469, 1000.00000000000 );
#435 = COLOUR_RGB( '', 0.689999997600000, 0.689999997600000, 0.689999997600000 );
#436 = COLOUR_RGB( '', 0.689999997600000, 0.689999997600000, 0.689999997600000 );
#437 = CARTESIAN_POINT( '', ( 72.8000000000000, 0.000000000000000, 0.000000000000000 ) );
#438 = DIRECTION( '', ( 1.00000000000000, 0.000000000000000, -0.000000000000000 ) );
#439 = DIRECTION( '', ( -0.000000000000000, 0.000000000000000, -1.00000000000000 ) );
#440 = CARTESIAN_POINT( '', ( 70.2000000000000, 0.000000000000000, 0.000000000000000 ) );
#441 = DIRECTION( '', ( 1.00000000000000, 0.000000000000000, -0.000000000000000 ) );
#442 = DIRECTION( '', ( -0.000000000000000, 0.000000000000000, -1.00000000000000 ) );
#443 = DIRECTION( '', ( 0.000000000000000, -0.500000000000000, 0.866025403784439 ) );
#444 = DIRECTION( '', ( -1.00000000000000, -0.000000000000000, -0.000000000000000 ) );
#445 = DIRECTION( '', ( 0.000000000000000, -0.500000000000000, 0.866025403784439 ) );
#446 = DIRECTION( '', ( -1.00000000000000, -0.000000000000000, -0.000000000000000 ) );
#447 = DIRECTION( '', ( 0.000000000000000, -1.00000000000000, 0.000000000000000 ) );
#448 = DIRECTION( '', ( 0.000000000000000, 0.500000000000000, 0.866025403784439 ) );
#449 = DIRECTION( '', ( 0.000000000000000, 1.00000000000000, 0.000000000000000 ) );
#450 = DIRECTION( '', ( 0.000000000000000, 0.500000000000000, -0.866025403784439 ) );
#451 = DIRECTION( '', ( 0.000000000000000, -0.500000000000000, -0.866025403784439 ) );
#452 = CARTESIAN_POINT( '', ( 0.000000000000000, 0.000000000000000, 0.000000000000000 ) );
#453 = DIRECTION( '', ( 1.00000000000000, 0.000000000000000, -0.000000000000000 ) );
#454 = DIRECTION( '', ( -0.000000000000000, 0.000000000000000, -1.00000000000000 ) );
#455 = DIRECTION( '', ( 0.000000000000000, -1.00000000000000, 0.000000000000000 ) );
#456 = DIRECTION( '', ( 0.000000000000000, -0.500000000000000, -0.866025403784439 ) );
#457 = DIRECTION( '', ( 0.000000000000000, 0.500000000000000, -0.866025403784439 ) );
#458 = DIRECTION( '', ( 0.000000000000000, 1.00000000000000, 0.000000000000000 ) );
#459 = DIRECTION( '', ( 0.000000000000000, 0.500000000000000, 0.866025403784439 ) );
#460 = CARTESIAN_POINT( '', ( 73.6681552367278, 0.000000000000000, 0.000000000000000 ) );
#461 = DIRECTION( '', ( 1.00000000000000, 0.000000000000000, -0.000000000000000 ) );
#462 = DIRECTION( '', ( -0.000000000000000, 0.000000000000000, -1.00000000000000 ) );
#463 = DIRECTION( '', ( -1.00000000000000, -0.000000000000000, -0.000000000000000 ) );
#464 = DIRECTION( '', ( -1.00000000000000, -0.000000000000000, -0.000000000000000 ) );
#465 = CARTESIAN_POINT( '', ( 1.07350000000001, 0.000000000000000, 0.000000000000000 ) );
#466 = DIRECTION( '', ( 1.00000000000000, 0.000000000000000, -0.000000000000000 ) );
#467 = DIRECTION( '', ( -0.000000000000000, 0.000000000000000, -1.00000000000000 ) );
#468 = DIRECTION( '', ( -1.00000000000000, -0.000000000000000, -0.000000000000000 ) );
#469 = DIRECTION( '', ( -1.00000000000000, -0.000000000000000, -0.000000000000000 ) );
ENDSEC;
END-ISO-10303-21;
