ISO-10303-21;
HEADER;
FILE_DESCRIPTION( ( 'STEP AP214' ), '1' );
FILE_NAME( '//goodhand-server/Shared Folders/GoodHand Data/Kipp CAD/K0170/K0170.206008.stp', '2020-11-26T10:50:28', ( '' ), ( '' ), ' ', 'PARTsolutions', ' ' );
FILE_SCHEMA( ( 'AUTOMOTIVE_DESIGN { 1 0 10303 214 1 1 1 1 }' ) );
ENDSEC;
DATA;
#1 = MECHANICAL_DESIGN_GEOMETRIC_PRESENTATION_REPRESENTATION( ' ', ( #10, #11, #12, #13, #14, #15, #16, #17, #18, #19, #20, #21, #22 ), #6 );
#2 = PRODUCT_DEFINITION_CONTEXT( '', #23, 'design' );
#3 = APPLICATION_PROTOCOL_DEFINITION( 'international standard', 'automotive_design', 2001, #23 );
#4 = PRODUCT_CATEGORY_RELATIONSHIP( 'NONE', 'NONE', #24, #25 );
#5 = SHAPE_DEFINITION_REPRESENTATION( #26, #27 );
#6 =  ( GEOMETRIC_REPRESENTATION_CONTEXT( 3 )GLOBAL_UNCERTAINTY_ASSIGNED_CONTEXT( ( #30 ) )GLOBAL_UNIT_ASSIGNED_CONTEXT( ( #32, #33, #34 ) )REPRESENTATION_CONTEXT( 'NONE', 'WORKSPACE' ) );
#10 = STYLED_ITEM( '', ( #36 ), #37 );
#11 = STYLED_ITEM( '', ( #38 ), #39 );
#12 = STYLED_ITEM( '', ( #40 ), #41 );
#13 = STYLED_ITEM( '', ( #42 ), #43 );
#14 = STYLED_ITEM( '', ( #44 ), #45 );
#15 = STYLED_ITEM( '', ( #46 ), #47 );
#16 = STYLED_ITEM( '', ( #48 ), #49 );
#17 = STYLED_ITEM( '', ( #50 ), #51 );
#18 = STYLED_ITEM( '', ( #52 ), #53 );
#19 = STYLED_ITEM( '', ( #54 ), #55 );
#20 = STYLED_ITEM( '', ( #56 ), #57 );
#21 = STYLED_ITEM( '', ( #58 ), #59 );
#22 = STYLED_ITEM( '', ( #60 ), #61 );
#23 = APPLICATION_CONTEXT( 'core data for automotive mechanical design processes' );
#24 = PRODUCT_CATEGORY( 'part', 'NONE' );
#25 = PRODUCT_RELATED_PRODUCT_CATEGORY( 'detail', ' ', ( #62 ) );
#26 = PRODUCT_DEFINITION_SHAPE( 'NONE', 'NONE', #63 );
#27 = ADVANCED_BREP_SHAPE_REPRESENTATION( '_K0170.206008', ( #64, #65 ), #6 );
#30 = UNCERTAINTY_MEASURE_WITH_UNIT( LENGTH_MEASURE( 0.00100000000000000 ), #32, '', '' );
#32 =  ( CONVERSION_BASED_UNIT( 'MILLIMETRE', #68 )LENGTH_UNIT(  )NAMED_UNIT( #71 ) );
#33 =  ( NAMED_UNIT( #73 )PLANE_ANGLE_UNIT(  )SI_UNIT( $, .RADIAN. ) );
#34 =  ( NAMED_UNIT( #73 )SI_UNIT( $, .STERADIAN. )SOLID_ANGLE_UNIT(  ) );
#36 = PRESENTATION_STYLE_ASSIGNMENT( ( #79 ) );
#37 = ADVANCED_FACE( '', ( #80 ), #81, .F. );
#38 = PRESENTATION_STYLE_ASSIGNMENT( ( #82 ) );
#39 = ADVANCED_FACE( '', ( #83 ), #84, .T. );
#40 = PRESENTATION_STYLE_ASSIGNMENT( ( #85 ) );
#41 = ADVANCED_FACE( '', ( #86, #87 ), #88, .T. );
#42 = PRESENTATION_STYLE_ASSIGNMENT( ( #89 ) );
#43 = ADVANCED_FACE( '', ( #90, #91 ), #92, .T. );
#44 = PRESENTATION_STYLE_ASSIGNMENT( ( #93 ) );
#45 = ADVANCED_FACE( '', ( #94, #95 ), #96, .T. );
#46 = PRESENTATION_STYLE_ASSIGNMENT( ( #97 ) );
#47 = ADVANCED_FACE( '', ( #98, #99 ), #100, .F. );
#48 = PRESENTATION_STYLE_ASSIGNMENT( ( #101 ) );
#49 = ADVANCED_FACE( '', ( #102 ), #103, .F. );
#50 = PRESENTATION_STYLE_ASSIGNMENT( ( #104 ) );
#51 = ADVANCED_FACE( '', ( #105, #106 ), #107, .T. );
#52 = PRESENTATION_STYLE_ASSIGNMENT( ( #108 ) );
#53 = ADVANCED_FACE( '', ( #109 ), #110, .T. );
#54 = PRESENTATION_STYLE_ASSIGNMENT( ( #111 ) );
#55 = ADVANCED_FACE( '', ( #112, #113 ), #114, .T. );
#56 = PRESENTATION_STYLE_ASSIGNMENT( ( #115 ) );
#57 = ADVANCED_FACE( '', ( #116 ), #117, .F. );
#58 = PRESENTATION_STYLE_ASSIGNMENT( ( #118 ) );
#59 = ADVANCED_FACE( '', ( #119, #120 ), #121, .T. );
#60 = PRESENTATION_STYLE_ASSIGNMENT( ( #122 ) );
#61 = ADVANCED_FACE( '', ( #123, #124 ), #125, .T. );
#62 = PRODUCT( '_K0170.206008', '_K0170.206008', 'PART-_K0170.206008-DESC', ( #126 ) );
#63 = PRODUCT_DEFINITION( 'NONE', 'NONE', #127, #2 );
#64 = MANIFOLD_SOLID_BREP( '_K0170.206008', #128 );
#65 = AXIS2_PLACEMENT_3D( '', #129, #130, #131 );
#68 = LENGTH_MEASURE_WITH_UNIT( LENGTH_MEASURE( 1.00000000000000 ), #132 );
#71 = DIMENSIONAL_EXPONENTS( 1.00000000000000, 0.000000000000000, 0.000000000000000, 0.000000000000000, 0.000000000000000, 0.000000000000000, 0.000000000000000 );
#73 = DIMENSIONAL_EXPONENTS( 0.000000000000000, 0.000000000000000, 0.000000000000000, 0.000000000000000, 0.000000000000000, 0.000000000000000, 0.000000000000000 );
#79 = SURFACE_STYLE_USAGE( .BOTH., #133 );
#80 = FACE_OUTER_BOUND( '', #134, .T. );
#81 = PLANE( '', #135 );
#82 = SURFACE_STYLE_USAGE( .BOTH., #136 );
#83 = FACE_OUTER_BOUND( '', #137, .T. );
#84 = PLANE( '', #138 );
#85 = SURFACE_STYLE_USAGE( .BOTH., #139 );
#86 = FACE_OUTER_BOUND( '', #140, .T. );
#87 = FACE_OUTER_BOUND( '', #141, .T. );
#88 = CYLINDRICAL_SURFACE( '', #142, 3.00000000000000 );
#89 = SURFACE_STYLE_USAGE( .BOTH., #143 );
#90 = FACE_OUTER_BOUND( '', #144, .T. );
#91 = FACE_OUTER_BOUND( '', #145, .T. );
#92 = TOROIDAL_SURFACE( '', #146, 8.50000000000000, 3.00000000000000 );
#93 = SURFACE_STYLE_USAGE( .BOTH., #147 );
#94 = FACE_OUTER_BOUND( '', #148, .T. );
#95 = FACE_BOUND( '', #149, .T. );
#96 = ( BOUNDED_SURFACE(  )B_SPLINE_SURFACE( 3, 3, ( ( #152, #153, #154, #155, #156, #157, #158 ), ( #159, #160, #161, #162, #163, #164, #165 ), ( #166, #167, #168, #169, #170, #171, #172 ), ( #173, #174, #175, #176, #177, #178, #179 ) ), .UNSPECIFIED., .F., .T., .F. )B_SPLINE_SURFACE_WITH_KNOTS( ( 4, 4 ), ( 4, 3, 4 ), ( 0.000000000000000, 6.28318530717959 ), ( 1.25591055740434, 1.39716026198008, 1.53840996655582 ), .UNSPECIFIED. )GEOMETRIC_REPRESENTATION_ITEM(  )RATIONAL_B_SPLINE_SURFACE( ( ( 1.00000000000000, 0.333333333333333, 0.333333333333333, 1.00000000000000, 0.333333333333333, 0.333333333333333, 1.00000000000000 ), ( 0.993360556899082, 0.331120185633027, 0.331120185633027, 0.993360556899082, 0.331120185633027, 0.331120185633027, 0.993360556899082 ), ( 0.993360556899082, 0.331120185633027, 0.331120185633027, 0.993360556899082, 0.331120185633027, 0.331120185633027, 0.993360556899082 ), ( 1.00000000000000, 0.333333333333333, 0.333333333333333, 1.00000000000000, 0.333333333333333, 0.333333333333333, 1.00000000000000 ) ) )REPRESENTATION_ITEM( '' )SURFACE(  ) );
#97 = SURFACE_STYLE_USAGE( .BOTH., #185 );
#98 = FACE_OUTER_BOUND( '', #186, .T. );
#99 = FACE_BOUND( '', #187, .T. );
#100 = PLANE( '', #188 );
#101 = SURFACE_STYLE_USAGE( .BOTH., #189 );
#102 = FACE_OUTER_BOUND( '', #190, .T. );
#103 = PLANE( '', #191 );
#104 = SURFACE_STYLE_USAGE( .BOTH., #192 );
#105 = FACE_OUTER_BOUND( '', #193, .T. );
#106 = FACE_BOUND( '', #194, .T. );
#107 = CONICAL_SURFACE( '', #195, 9.00000000000000, 0.0794502389000000 );
#108 = SURFACE_STYLE_USAGE( .BOTH., #196 );
#109 = FACE_OUTER_BOUND( '', #197, .T. );
#110 = PLANE( '', #198 );
#111 = SURFACE_STYLE_USAGE( .BOTH., #199 );
#112 = FACE_OUTER_BOUND( '', #200, .T. );
#113 = FACE_BOUND( '', #201, .T. );
#114 = CONICAL_SURFACE( '', #202, 2.38650000000000, 0.785398163400000 );
#115 = SURFACE_STYLE_USAGE( .BOTH., #203 );
#116 = FACE_OUTER_BOUND( '', #204, .T. );
#117 = PLANE( '', #205 );
#118 = SURFACE_STYLE_USAGE( .BOTH., #206 );
#119 = FACE_OUTER_BOUND( '', #207, .T. );
#120 = FACE_OUTER_BOUND( '', #208, .T. );
#121 = CYLINDRICAL_SURFACE( '', #209, 9.00000000000000 );
#122 = SURFACE_STYLE_USAGE( .BOTH., #210 );
#123 = FACE_OUTER_BOUND( '', #211, .T. );
#124 = FACE_OUTER_BOUND( '', #212, .T. );
#125 = CYLINDRICAL_SURFACE( '', #213, 11.5000000000000 );
#126 = PRODUCT_CONTEXT( '', #23, 'mechanical' );
#127 = PRODUCT_DEFINITION_FORMATION_WITH_SPECIFIED_SOURCE( ' ', 'NONE', #62, .NOT_KNOWN. );
#128 = CLOSED_SHELL( '', ( #49, #39, #53, #47, #59, #41, #55, #37, #51, #61, #43, #45, #57 ) );
#129 = CARTESIAN_POINT( '', ( 0.000000000000000, 0.000000000000000, 0.000000000000000 ) );
#130 = DIRECTION( '', ( 0.000000000000000, 0.000000000000000, 1.00000000000000 ) );
#131 = DIRECTION( '', ( 1.00000000000000, 0.000000000000000, 0.000000000000000 ) );
#132 =  ( LENGTH_UNIT(  )NAMED_UNIT( #71 )SI_UNIT( .MILLI., .METRE. ) );
#133 = SURFACE_SIDE_STYLE( '', ( #215 ) );
#134 = EDGE_LOOP( '', ( #216 ) );
#135 = AXIS2_PLACEMENT_3D( '', #217, #218, #219 );
#136 = SURFACE_SIDE_STYLE( '', ( #220 ) );
#137 = EDGE_LOOP( '', ( #221, #222, #223, #224 ) );
#138 = AXIS2_PLACEMENT_3D( '', #225, #226, #227 );
#139 = SURFACE_SIDE_STYLE( '', ( #228 ) );
#140 = EDGE_LOOP( '', ( #229 ) );
#141 = EDGE_LOOP( '', ( #230 ) );
#142 = AXIS2_PLACEMENT_3D( '', #231, #232, #233 );
#143 = SURFACE_SIDE_STYLE( '', ( #234 ) );
#144 = EDGE_LOOP( '', ( #235 ) );
#145 = EDGE_LOOP( '', ( #236 ) );
#146 = AXIS2_PLACEMENT_3D( '', #237, #238, #239 );
#147 = SURFACE_SIDE_STYLE( '', ( #240 ) );
#148 = EDGE_LOOP( '', ( #241 ) );
#149 = VERTEX_LOOP( '', #242 );
#152 = CARTESIAN_POINT( '', ( 68.0000000000000, 0.000000000000000, 2.16840434497101E-16 ) );
#153 = CARTESIAN_POINT( '', ( 68.0000000000000, -4.33680868994202E-16, 2.16840434497101E-16 ) );
#154 = CARTESIAN_POINT( '', ( 68.0000000000000, -4.33680868994202E-16, -2.16840434497101E-16 ) );
#155 = CARTESIAN_POINT( '', ( 68.0000000000000, 0.000000000000000, -2.16840434497101E-16 ) );
#156 = CARTESIAN_POINT( '', ( 68.0000000000000, 4.33680868994202E-16, -2.16840434497101E-16 ) );
#157 = CARTESIAN_POINT( '', ( 68.0000000000000, 4.33680868994202E-16, 2.16840434497101E-16 ) );
#158 = CARTESIAN_POINT( '', ( 68.0000000000000, 0.000000000000000, 2.16840434497101E-16 ) );
#159 = CARTESIAN_POINT( '', ( 67.8959817803656, 0.000000000000000, -3.21066797588164 ) );
#160 = CARTESIAN_POINT( '', ( 67.8959817803656, 6.42133595176329, -3.21066797588164 ) );
#161 = CARTESIAN_POINT( '', ( 67.8959817803656, 6.42133595176329, 3.21066797588164 ) );
#162 = CARTESIAN_POINT( '', ( 67.8959817803656, 0.000000000000000, 3.21066797588164 ) );
#163 = CARTESIAN_POINT( '', ( 67.8959817803656, -6.42133595176329, 3.21066797588164 ) );
#164 = CARTESIAN_POINT( '', ( 67.8959817803656, -6.42133595176329, -3.21066797588164 ) );
#165 = CARTESIAN_POINT( '', ( 67.8959817803656, 0.000000000000000, -3.21066797588164 ) );
#166 = CARTESIAN_POINT( '', ( 67.3410001074975, 0.000000000000000, -6.37471664556868 ) );
#167 = CARTESIAN_POINT( '', ( 67.3410001074975, 12.7494332911374, -6.37471664556868 ) );
#168 = CARTESIAN_POINT( '', ( 67.3410001074975, 12.7494332911374, 6.37471664556868 ) );
#169 = CARTESIAN_POINT( '', ( 67.3410001074975, 0.000000000000000, 6.37471664556868 ) );
#170 = CARTESIAN_POINT( '', ( 67.3410001074975, -12.7494332911374, 6.37471664556868 ) );
#171 = CARTESIAN_POINT( '', ( 67.3410001074975, -12.7494332911374, -6.37471664556868 ) );
#172 = CARTESIAN_POINT( '', ( 67.3410001074975, 0.000000000000000, -6.37471664556868 ) );
#173 = CARTESIAN_POINT( '', ( 66.3461092891128, 0.000000000000000, -9.42912344572836 ) );
#174 = CARTESIAN_POINT( '', ( 66.3461092891128, 18.8582468914567, -9.42912344572836 ) );
#175 = CARTESIAN_POINT( '', ( 66.3461092891128, 18.8582468914567, 9.42912344572836 ) );
#176 = CARTESIAN_POINT( '', ( 66.3461092891128, 0.000000000000000, 9.42912344572836 ) );
#177 = CARTESIAN_POINT( '', ( 66.3461092891128, -18.8582468914567, 9.42912344572836 ) );
#178 = CARTESIAN_POINT( '', ( 66.3461092891128, -18.8582468914567, -9.42912344572836 ) );
#179 = CARTESIAN_POINT( '', ( 66.3461092891128, 0.000000000000000, -9.42912344572836 ) );
#185 = SURFACE_SIDE_STYLE( '', ( #243 ) );
#186 = EDGE_LOOP( '', ( #244, #245, #246, #247 ) );
#187 = EDGE_LOOP( '', ( #248 ) );
#188 = AXIS2_PLACEMENT_3D( '', #249, #250, #251 );
#189 = SURFACE_SIDE_STYLE( '', ( #252 ) );
#190 = EDGE_LOOP( '', ( #253, #254 ) );
#191 = AXIS2_PLACEMENT_3D( '', #255, #256, #257 );
#192 = SURFACE_SIDE_STYLE( '', ( #258 ) );
#193 = EDGE_LOOP( '', ( #259 ) );
#194 = EDGE_LOOP( '', ( #260 ) );
#195 = AXIS2_PLACEMENT_3D( '', #261, #262, #263 );
#196 = SURFACE_SIDE_STYLE( '', ( #264 ) );
#197 = EDGE_LOOP( '', ( #265, #266, #267, #268 ) );
#198 = AXIS2_PLACEMENT_3D( '', #269, #270, #271 );
#199 = SURFACE_SIDE_STYLE( '', ( #272 ) );
#200 = EDGE_LOOP( '', ( #273 ) );
#201 = EDGE_LOOP( '', ( #274 ) );
#202 = AXIS2_PLACEMENT_3D( '', #275, #276, #277 );
#203 = SURFACE_SIDE_STYLE( '', ( #278 ) );
#204 = EDGE_LOOP( '', ( #279, #280 ) );
#205 = AXIS2_PLACEMENT_3D( '', #281, #282, #283 );
#206 = SURFACE_SIDE_STYLE( '', ( #284 ) );
#207 = EDGE_LOOP( '', ( #285 ) );
#208 = EDGE_LOOP( '', ( #286, #287, #288, #289, #290, #291, #292, #293 ) );
#209 = AXIS2_PLACEMENT_3D( '', #294, #295, #296 );
#210 = SURFACE_SIDE_STYLE( '', ( #297 ) );
#211 = EDGE_LOOP( '', ( #298 ) );
#212 = EDGE_LOOP( '', ( #299 ) );
#213 = AXIS2_PLACEMENT_3D( '', #300, #301, #302 );
#215 = SURFACE_STYLE_FILL_AREA( #303 );
#216 = ORIENTED_EDGE( '', *, *, #304, .F. );
#217 = CARTESIAN_POINT( '', ( -8.00000000000000, 0.000000000000000, 0.000000000000000 ) );
#218 = DIRECTION( '', ( 1.00000000000000, 0.000000000000000, -0.000000000000000 ) );
#219 = DIRECTION( '', ( -0.000000000000000, 0.000000000000000, -1.00000000000000 ) );
#220 = SURFACE_STYLE_FILL_AREA( #305 );
#221 = ORIENTED_EDGE( '', *, *, #306, .T. );
#222 = ORIENTED_EDGE( '', *, *, #307, .T. );
#223 = ORIENTED_EDGE( '', *, *, #308, .T. );
#224 = ORIENTED_EDGE( '', *, *, #309, .T. );
#225 = CARTESIAN_POINT( '', ( 5.99000000000000, -8.00000000000000, -23.0000000000000 ) );
#226 = DIRECTION( '', ( 0.000000000000000, -1.00000000000000, 0.000000000000000 ) );
#227 = DIRECTION( '', ( 0.000000000000000, 0.000000000000000, -1.00000000000000 ) );
#228 = SURFACE_STYLE_FILL_AREA( #310 );
#229 = ORIENTED_EDGE( '', *, *, #311, .F. );
#230 = ORIENTED_EDGE( '', *, *, #312, .T. );
#231 = CARTESIAN_POINT( '', ( 68.0000000000000, 0.000000000000000, 0.000000000000000 ) );
#232 = DIRECTION( '', ( -1.00000000000000, -0.000000000000000, 0.000000000000000 ) );
#233 = DIRECTION( '', ( -0.000000000000000, 0.000000000000000, -1.00000000000000 ) );
#234 = SURFACE_STYLE_FILL_AREA( #313 );
#235 = ORIENTED_EDGE( '', *, *, #314, .T. );
#236 = ORIENTED_EDGE( '', *, *, #315, .F. );
#237 = CARTESIAN_POINT( '', ( 63.4936139564965, 0.000000000000000, 0.000000000000000 ) );
#238 = DIRECTION( '', ( 1.00000000000000, 0.000000000000000, -0.000000000000000 ) );
#239 = DIRECTION( '', ( -0.000000000000000, 0.000000000000000, -1.00000000000000 ) );
#240 = SURFACE_STYLE_FILL_AREA( #316 );
#241 = ORIENTED_EDGE( '', *, *, #315, .T. );
#242 = VERTEX_POINT( '', #317 );
#243 = SURFACE_STYLE_FILL_AREA( #318 );
#244 = ORIENTED_EDGE( '', *, *, #319, .F. );
#245 = ORIENTED_EDGE( '', *, *, #320, .F. );
#246 = ORIENTED_EDGE( '', *, *, #309, .F. );
#247 = ORIENTED_EDGE( '', *, *, #321, .F. );
#248 = ORIENTED_EDGE( '', *, *, #311, .T. );
#249 = CARTESIAN_POINT( '', ( 0.000000000000000, 3.00000000000000, 0.000000000000000 ) );
#250 = DIRECTION( '', ( 1.00000000000000, 0.000000000000000, -0.000000000000000 ) );
#251 = DIRECTION( '', ( -0.000000000000000, 0.000000000000000, -1.00000000000000 ) );
#252 = SURFACE_STYLE_FILL_AREA( #322 );
#253 = ORIENTED_EDGE( '', *, *, #323, .F. );
#254 = ORIENTED_EDGE( '', *, *, #324, .F. );
#255 = CARTESIAN_POINT( '', ( 5.99000000000000, 0.000000000000000, 0.000000000000000 ) );
#256 = DIRECTION( '', ( 1.00000000000000, 0.000000000000000, 0.000000000000000 ) );
#257 = DIRECTION( '', ( 0.000000000000000, 0.000000000000000, -1.00000000000000 ) );
#258 = SURFACE_STYLE_FILL_AREA( #325 );
#259 = ORIENTED_EDGE( '', *, *, #326, .F. );
#260 = ORIENTED_EDGE( '', *, *, #327, .T. );
#261 = CARTESIAN_POINT( '', ( 6.00000000000000, 0.000000000000000, 0.000000000000000 ) );
#262 = DIRECTION( '', ( 1.00000000000000, -0.000000000000000, -0.000000000000000 ) );
#263 = DIRECTION( '', ( -0.000000000000000, 0.000000000000000, -1.00000000000000 ) );
#264 = SURFACE_STYLE_FILL_AREA( #328 );
#265 = ORIENTED_EDGE( '', *, *, #329, .T. );
#266 = ORIENTED_EDGE( '', *, *, #323, .T. );
#267 = ORIENTED_EDGE( '', *, *, #330, .T. );
#268 = ORIENTED_EDGE( '', *, *, #319, .T. );
#269 = CARTESIAN_POINT( '', ( 5.99000000000000, 8.00000000000000, 23.0000000000000 ) );
#270 = DIRECTION( '', ( -0.000000000000000, 1.00000000000000, 0.000000000000000 ) );
#271 = DIRECTION( '', ( 0.000000000000000, -0.000000000000000, 1.00000000000000 ) );
#272 = SURFACE_STYLE_FILL_AREA( #331 );
#273 = ORIENTED_EDGE( '', *, *, #312, .F. );
#274 = ORIENTED_EDGE( '', *, *, #304, .T. );
#275 = CARTESIAN_POINT( '', ( -8.00000000000001, 0.000000000000000, 0.000000000000000 ) );
#276 = DIRECTION( '', ( 1.00000000000000, -0.000000000000000, -0.000000000000000 ) );
#277 = DIRECTION( '', ( -0.000000000000000, 0.000000000000000, -1.00000000000000 ) );
#278 = SURFACE_STYLE_FILL_AREA( #332 );
#279 = ORIENTED_EDGE( '', *, *, #307, .F. );
#280 = ORIENTED_EDGE( '', *, *, #333, .F. );
#281 = CARTESIAN_POINT( '', ( 5.99000000000000, 0.000000000000000, 0.000000000000000 ) );
#282 = DIRECTION( '', ( 1.00000000000000, 0.000000000000000, -0.000000000000000 ) );
#283 = DIRECTION( '', ( -0.000000000000000, 0.000000000000000, -1.00000000000000 ) );
#284 = SURFACE_STYLE_FILL_AREA( #334 );
#285 = ORIENTED_EDGE( '', *, *, #327, .F. );
#286 = ORIENTED_EDGE( '', *, *, #306, .F. );
#287 = ORIENTED_EDGE( '', *, *, #320, .T. );
#288 = ORIENTED_EDGE( '', *, *, #330, .F. );
#289 = ORIENTED_EDGE( '', *, *, #324, .T. );
#290 = ORIENTED_EDGE( '', *, *, #329, .F. );
#291 = ORIENTED_EDGE( '', *, *, #321, .T. );
#292 = ORIENTED_EDGE( '', *, *, #308, .F. );
#293 = ORIENTED_EDGE( '', *, *, #333, .T. );
#294 = CARTESIAN_POINT( '', ( 68.0000000000000, 0.000000000000000, 0.000000000000000 ) );
#295 = DIRECTION( '', ( -1.00000000000000, -0.000000000000000, 0.000000000000000 ) );
#296 = DIRECTION( '', ( -0.000000000000000, 0.000000000000000, -1.00000000000000 ) );
#297 = SURFACE_STYLE_FILL_AREA( #335 );
#298 = ORIENTED_EDGE( '', *, *, #314, .F. );
#299 = ORIENTED_EDGE( '', *, *, #326, .T. );
#300 = CARTESIAN_POINT( '', ( 68.0000000000000, 0.000000000000000, 0.000000000000000 ) );
#301 = DIRECTION( '', ( -1.00000000000000, -0.000000000000000, 0.000000000000000 ) );
#302 = DIRECTION( '', ( -0.000000000000000, 0.000000000000000, -1.00000000000000 ) );
#303 = FILL_AREA_STYLE( '', ( #336 ) );
#304 = EDGE_CURVE( '', #337, #337, #338, .T. );
#305 = FILL_AREA_STYLE( '', ( #339 ) );
#306 = EDGE_CURVE( '', #340, #341, #342, .T. );
#307 = EDGE_CURVE( '', #341, #343, #344, .T. );
#308 = EDGE_CURVE( '', #343, #345, #346, .F. );
#309 = EDGE_CURVE( '', #345, #340, #347, .T. );
#310 = FILL_AREA_STYLE( '', ( #348 ) );
#311 = EDGE_CURVE( '', #349, #349, #350, .T. );
#312 = EDGE_CURVE( '', #351, #351, #352, .T. );
#313 = FILL_AREA_STYLE( '', ( #353 ) );
#314 = EDGE_CURVE( '', #354, #354, #355, .T. );
#315 = EDGE_CURVE( '', #356, #356, #357, .T. );
#316 = FILL_AREA_STYLE( '', ( #358 ) );
#317 = CARTESIAN_POINT( '', ( 68.0000000000000, 0.000000000000000, 0.000000000000000 ) );
#318 = FILL_AREA_STYLE( '', ( #359 ) );
#319 = EDGE_CURVE( '', #360, #361, #362, .T. );
#320 = EDGE_CURVE( '', #340, #360, #363, .T. );
#321 = EDGE_CURVE( '', #361, #345, #364, .T. );
#322 = FILL_AREA_STYLE( '', ( #365 ) );
#323 = EDGE_CURVE( '', #366, #367, #368, .T. );
#324 = EDGE_CURVE( '', #367, #366, #369, .T. );
#325 = FILL_AREA_STYLE( '', ( #370 ) );
#326 = EDGE_CURVE( '', #371, #371, #372, .T. );
#327 = EDGE_CURVE( '', #373, #373, #374, .T. );
#328 = FILL_AREA_STYLE( '', ( #375 ) );
#329 = EDGE_CURVE( '', #361, #366, #376, .T. );
#330 = EDGE_CURVE( '', #367, #360, #377, .F. );
#331 = FILL_AREA_STYLE( '', ( #378 ) );
#332 = FILL_AREA_STYLE( '', ( #379 ) );
#333 = EDGE_CURVE( '', #343, #341, #380, .T. );
#334 = FILL_AREA_STYLE( '', ( #381 ) );
#335 = FILL_AREA_STYLE( '', ( #382 ) );
#336 = FILL_AREA_STYLE_COLOUR( '', #383 );
#337 = VERTEX_POINT( '', #384 );
#338 = CIRCLE( '', #385, 2.38650000000000 );
#339 = FILL_AREA_STYLE_COLOUR( '', #386 );
#340 = VERTEX_POINT( '', #387 );
#341 = VERTEX_POINT( '', #388 );
#342 = LINE( '', #389, #390 );
#343 = VERTEX_POINT( '', #391 );
#344 = LINE( '', #392, #393 );
#345 = VERTEX_POINT( '', #394 );
#346 = LINE( '', #395, #396 );
#347 = LINE( '', #397, #398 );
#348 = FILL_AREA_STYLE_COLOUR( '', #399 );
#349 = VERTEX_POINT( '', #400 );
#350 = CIRCLE( '', #401, 3.00000000000000 );
#351 = VERTEX_POINT( '', #402 );
#352 = CIRCLE( '', #403, 3.00000000000000 );
#353 = FILL_AREA_STYLE_COLOUR( '', #404 );
#354 = VERTEX_POINT( '', #405 );
#355 = CIRCLE( '', #406, 11.5000000000000 );
#356 = VERTEX_POINT( '', #407 );
#357 = CIRCLE( '', #408, 9.42912344570000 );
#358 = FILL_AREA_STYLE_COLOUR( '', #409 );
#359 = FILL_AREA_STYLE_COLOUR( '', #410 );
#360 = VERTEX_POINT( '', #411 );
#361 = VERTEX_POINT( '', #412 );
#362 = LINE( '', #413, #414 );
#363 = CIRCLE( '', #415, 9.00000000000000 );
#364 = CIRCLE( '', #416, 9.00000000000000 );
#365 = FILL_AREA_STYLE_COLOUR( '', #417 );
#366 = VERTEX_POINT( '', #418 );
#367 = VERTEX_POINT( '', #419 );
#368 = LINE( '', #420, #421 );
#369 = CIRCLE( '', #422, 9.00000000000000 );
#370 = FILL_AREA_STYLE_COLOUR( '', #423 );
#371 = VERTEX_POINT( '', #424 );
#372 = CIRCLE( '', #425, 11.5000000000000 );
#373 = VERTEX_POINT( '', #426 );
#374 = CIRCLE( '', #427, 9.00000000000000 );
#375 = FILL_AREA_STYLE_COLOUR( '', #428 );
#376 = LINE( '', #429, #430 );
#377 = LINE( '', #431, #432 );
#378 = FILL_AREA_STYLE_COLOUR( '', #433 );
#379 = FILL_AREA_STYLE_COLOUR( '', #434 );
#380 = CIRCLE( '', #435, 9.00000000000000 );
#381 = FILL_AREA_STYLE_COLOUR( '', #436 );
#382 = FILL_AREA_STYLE_COLOUR( '', #437 );
#383 = COLOUR_RGB( '', 0.689999997600000, 0.689999997600000, 0.689999997600000 );
#384 = CARTESIAN_POINT( '', ( -8.00000000000001, 0.000000000000000, -2.38650000000000 ) );
#385 = AXIS2_PLACEMENT_3D( '', #438, #439, #440 );
#386 = COLOUR_RGB( '', 0.689999997600000, 0.689999997600000, 0.689999997600000 );
#387 = CARTESIAN_POINT( '', ( 0.000000000000000, -8.00000000000000, -4.12310562561766 ) );
#388 = CARTESIAN_POINT( '', ( 5.99000000000000, -8.00000000000000, -4.12310562561766 ) );
#389 = CARTESIAN_POINT( '', ( 68.0000000000000, -8.00000000000000, -4.12310562561766 ) );
#390 = VECTOR( '', #441, 1000.00000000000 );
#391 = CARTESIAN_POINT( '', ( 5.99000000000000, -8.00000000000000, 4.12310562561766 ) );
#392 = CARTESIAN_POINT( '', ( 5.99000000000000, -8.00000000000000, -23.0000000000000 ) );
#393 = VECTOR( '', #442, 1000.00000000000 );
#394 = CARTESIAN_POINT( '', ( 0.000000000000000, -8.00000000000000, 4.12310562561766 ) );
#395 = CARTESIAN_POINT( '', ( 68.0000000000000, -8.00000000000000, 4.12310562561766 ) );
#396 = VECTOR( '', #443, 1000.00000000000 );
#397 = CARTESIAN_POINT( '', ( 0.000000000000000, -8.00000000000000, 0.000000000000000 ) );
#398 = VECTOR( '', #444, 1000.00000000000 );
#399 = COLOUR_RGB( '', 0.689999997600000, 0.689999997600000, 0.689999997600000 );
#400 = CARTESIAN_POINT( '', ( 0.000000000000000, 0.000000000000000, -3.00000000000000 ) );
#401 = AXIS2_PLACEMENT_3D( '', #445, #446, #447 );
#402 = CARTESIAN_POINT( '', ( -7.38650000000000, 0.000000000000000, -3.00000000000000 ) );
#403 = AXIS2_PLACEMENT_3D( '', #448, #449, #450 );
#404 = COLOUR_RGB( '', 0.689999997600000, 0.689999997600000, 0.689999997600000 );
#405 = CARTESIAN_POINT( '', ( 63.4936139564965, 0.000000000000000, -11.5000000000000 ) );
#406 = AXIS2_PLACEMENT_3D( '', #451, #452, #453 );
#407 = CARTESIAN_POINT( '', ( 66.3461092891128, 0.000000000000000, -9.42912344572835 ) );
#408 = AXIS2_PLACEMENT_3D( '', #454, #455, #456 );
#409 = COLOUR_RGB( '', 0.689999997600000, 0.689999997600000, 0.689999997600000 );
#410 = COLOUR_RGB( '', 0.689999997600000, 0.689999997600000, 0.689999997600000 );
#411 = CARTESIAN_POINT( '', ( 0.000000000000000, 8.00000000000000, -4.12310562561766 ) );
#412 = CARTESIAN_POINT( '', ( 0.000000000000000, 8.00000000000000, 4.12310562561766 ) );
#413 = CARTESIAN_POINT( '', ( 0.000000000000000, 8.00000000000000, 0.000000000000000 ) );
#414 = VECTOR( '', #457, 1000.00000000000 );
#415 = AXIS2_PLACEMENT_3D( '', #458, #459, #460 );
#416 = AXIS2_PLACEMENT_3D( '', #461, #462, #463 );
#417 = COLOUR_RGB( '', 0.689999997600000, 0.689999997600000, 0.689999997600000 );
#418 = CARTESIAN_POINT( '', ( 5.99000000000000, 8.00000000000000, 4.12310562561766 ) );
#419 = CARTESIAN_POINT( '', ( 5.99000000000000, 8.00000000000000, -4.12310562561766 ) );
#420 = CARTESIAN_POINT( '', ( 5.99000000000000, 8.00000000000000, 23.0000000000000 ) );
#421 = VECTOR( '', #464, 1000.00000000000 );
#422 = AXIS2_PLACEMENT_3D( '', #465, #466, #467 );
#423 = COLOUR_RGB( '', 0.689999997600000, 0.689999997600000, 0.689999997600000 );
#424 = CARTESIAN_POINT( '', ( 37.4000000000000, 0.000000000000000, -11.5000000000000 ) );
#425 = AXIS2_PLACEMENT_3D( '', #468, #469, #470 );
#426 = CARTESIAN_POINT( '', ( 6.00000000000000, 0.000000000000000, -9.00000000000000 ) );
#427 = AXIS2_PLACEMENT_3D( '', #471, #472, #473 );
#428 = COLOUR_RGB( '', 0.689999997600000, 0.689999997600000, 0.689999997600000 );
#429 = CARTESIAN_POINT( '', ( 68.0000000000000, 8.00000000000000, 4.12310562561766 ) );
#430 = VECTOR( '', #474, 1000.00000000000 );
#431 = CARTESIAN_POINT( '', ( 68.0000000000000, 8.00000000000000, -4.12310562561766 ) );
#432 = VECTOR( '', #475, 1000.00000000000 );
#433 = COLOUR_RGB( '', 0.689999997600000, 0.689999997600000, 0.689999997600000 );
#434 = COLOUR_RGB( '', 0.689999997600000, 0.689999997600000, 0.689999997600000 );
#435 = AXIS2_PLACEMENT_3D( '', #476, #477, #478 );
#436 = COLOUR_RGB( '', 0.689999997600000, 0.689999997600000, 0.689999997600000 );
#437 = COLOUR_RGB( '', 0.689999997600000, 0.689999997600000, 0.689999997600000 );
#438 = CARTESIAN_POINT( '', ( -8.00000000000001, 0.000000000000000, 0.000000000000000 ) );
#439 = DIRECTION( '', ( 1.00000000000000, 0.000000000000000, -0.000000000000000 ) );
#440 = DIRECTION( '', ( -0.000000000000000, 0.000000000000000, -1.00000000000000 ) );
#441 = DIRECTION( '', ( 1.00000000000000, -0.000000000000000, -0.000000000000000 ) );
#442 = DIRECTION( '', ( 0.000000000000000, 0.000000000000000, 1.00000000000000 ) );
#443 = DIRECTION( '', ( 1.00000000000000, -0.000000000000000, -0.000000000000000 ) );
#444 = DIRECTION( '', ( 0.000000000000000, 0.000000000000000, -1.00000000000000 ) );
#445 = CARTESIAN_POINT( '', ( 0.000000000000000, 0.000000000000000, 0.000000000000000 ) );
#446 = DIRECTION( '', ( 1.00000000000000, 0.000000000000000, -0.000000000000000 ) );
#447 = DIRECTION( '', ( -0.000000000000000, 0.000000000000000, -1.00000000000000 ) );
#448 = CARTESIAN_POINT( '', ( -7.38650000000000, 0.000000000000000, 0.000000000000000 ) );
#449 = DIRECTION( '', ( 1.00000000000000, 0.000000000000000, -0.000000000000000 ) );
#450 = DIRECTION( '', ( -0.000000000000000, 0.000000000000000, -1.00000000000000 ) );
#451 = CARTESIAN_POINT( '', ( 63.4936139564965, 0.000000000000000, 0.000000000000000 ) );
#452 = DIRECTION( '', ( 1.00000000000000, 0.000000000000000, -0.000000000000000 ) );
#453 = DIRECTION( '', ( -0.000000000000000, 0.000000000000000, -1.00000000000000 ) );
#454 = CARTESIAN_POINT( '', ( 66.3461092891128, 0.000000000000000, 0.000000000000000 ) );
#455 = DIRECTION( '', ( 1.00000000000000, 0.000000000000000, -0.000000000000000 ) );
#456 = DIRECTION( '', ( -0.000000000000000, 0.000000000000000, -1.00000000000000 ) );
#457 = DIRECTION( '', ( 0.000000000000000, 0.000000000000000, 1.00000000000000 ) );
#458 = CARTESIAN_POINT( '', ( 0.000000000000000, 0.000000000000000, 0.000000000000000 ) );
#459 = DIRECTION( '', ( 1.00000000000000, 0.000000000000000, -0.000000000000000 ) );
#460 = DIRECTION( '', ( -0.000000000000000, 0.000000000000000, -1.00000000000000 ) );
#461 = CARTESIAN_POINT( '', ( 0.000000000000000, 0.000000000000000, 0.000000000000000 ) );
#462 = DIRECTION( '', ( 1.00000000000000, 0.000000000000000, -0.000000000000000 ) );
#463 = DIRECTION( '', ( -0.000000000000000, 0.000000000000000, -1.00000000000000 ) );
#464 = DIRECTION( '', ( 0.000000000000000, 0.000000000000000, -1.00000000000000 ) );
#465 = CARTESIAN_POINT( '', ( 5.99000000000000, 0.000000000000000, 0.000000000000000 ) );
#466 = DIRECTION( '', ( 1.00000000000000, 0.000000000000000, 0.000000000000000 ) );
#467 = DIRECTION( '', ( 0.000000000000000, 0.000000000000000, -1.00000000000000 ) );
#468 = CARTESIAN_POINT( '', ( 37.4000000000000, 0.000000000000000, 0.000000000000000 ) );
#469 = DIRECTION( '', ( 1.00000000000000, 0.000000000000000, -0.000000000000000 ) );
#470 = DIRECTION( '', ( -0.000000000000000, 0.000000000000000, -1.00000000000000 ) );
#471 = CARTESIAN_POINT( '', ( 6.00000000000000, 0.000000000000000, 0.000000000000000 ) );
#472 = DIRECTION( '', ( 1.00000000000000, 0.000000000000000, -0.000000000000000 ) );
#473 = DIRECTION( '', ( -0.000000000000000, 0.000000000000000, -1.00000000000000 ) );
#474 = DIRECTION( '', ( 1.00000000000000, -0.000000000000000, -0.000000000000000 ) );
#475 = DIRECTION( '', ( 1.00000000000000, -0.000000000000000, -0.000000000000000 ) );
#476 = CARTESIAN_POINT( '', ( 5.99000000000000, 0.000000000000000, 0.000000000000000 ) );
#477 = DIRECTION( '', ( 1.00000000000000, 0.000000000000000, -0.000000000000000 ) );
#478 = DIRECTION( '', ( -0.000000000000000, 0.000000000000000, -1.00000000000000 ) );
ENDSEC;
END-ISO-10303-21;
