ISO-10303-21;
HEADER;
FILE_DESCRIPTION( ( 'STEP AP214' ), '1' );
FILE_NAME( '//goodhand-server/Shared Folders/GoodHand Data/Kipp CAD/K0392/K0392.08.stp', '2020-12-07T10:23:22', ( '' ), ( '' ), ' ', 'PARTsolutions', ' ' );
FILE_SCHEMA( ( 'AUTOMOTIVE_DESIGN { 1 0 10303 214 1 1 1 1 }' ) );
ENDSEC;
DATA;
#1 = MECHANICAL_DESIGN_GEOMETRIC_PRESENTATION_REPRESENTATION( ' ', ( #10, #11, #12, #13, #14, #15, #16, #17, #18, #19, #20, #21, #22, #23, #24, #25, #26 ), #6 );
#2 = PRODUCT_DEFINITION_CONTEXT( '', #27, 'design' );
#3 = APPLICATION_PROTOCOL_DEFINITION( 'international standard', 'automotive_design', 2001, #27 );
#4 = PRODUCT_CATEGORY_RELATIONSHIP( 'NONE', 'NONE', #28, #29 );
#5 = SHAPE_DEFINITION_REPRESENTATION( #30, #31 );
#6 =  ( GEOMETRIC_REPRESENTATION_CONTEXT( 3 )GLOBAL_UNCERTAINTY_ASSIGNED_CONTEXT( ( #34 ) )GLOBAL_UNIT_ASSIGNED_CONTEXT( ( #36, #37, #38 ) )REPRESENTATION_CONTEXT( 'NONE', 'WORKSPACE' ) );
#10 = STYLED_ITEM( '', ( #40 ), #41 );
#11 = STYLED_ITEM( '', ( #42 ), #43 );
#12 = STYLED_ITEM( '', ( #44 ), #45 );
#13 = STYLED_ITEM( '', ( #46 ), #47 );
#14 = STYLED_ITEM( '', ( #48 ), #49 );
#15 = STYLED_ITEM( '', ( #50 ), #51 );
#16 = STYLED_ITEM( '', ( #52 ), #53 );
#17 = STYLED_ITEM( '', ( #54 ), #55 );
#18 = STYLED_ITEM( '', ( #56 ), #57 );
#19 = STYLED_ITEM( '', ( #58 ), #59 );
#20 = STYLED_ITEM( '', ( #60 ), #61 );
#21 = STYLED_ITEM( '', ( #62 ), #63 );
#22 = STYLED_ITEM( '', ( #64 ), #65 );
#23 = STYLED_ITEM( '', ( #66 ), #67 );
#24 = STYLED_ITEM( '', ( #68 ), #69 );
#25 = STYLED_ITEM( '', ( #70 ), #71 );
#26 = STYLED_ITEM( '', ( #72 ), #73 );
#27 = APPLICATION_CONTEXT( 'core data for automotive mechanical design processes' );
#28 = PRODUCT_CATEGORY( 'part', 'NONE' );
#29 = PRODUCT_RELATED_PRODUCT_CATEGORY( 'detail', ' ', ( #74 ) );
#30 = PRODUCT_DEFINITION_SHAPE( 'NONE', 'NONE', #75 );
#31 = ADVANCED_BREP_SHAPE_REPRESENTATION( '_K0392.08', ( #76, #77 ), #6 );
#34 = UNCERTAINTY_MEASURE_WITH_UNIT( LENGTH_MEASURE( 0.00100000000000000 ), #36, '', '' );
#36 =  ( CONVERSION_BASED_UNIT( 'MILLIMETRE', #80 )LENGTH_UNIT(  )NAMED_UNIT( #83 ) );
#37 =  ( NAMED_UNIT( #85 )PLANE_ANGLE_UNIT(  )SI_UNIT( $, .RADIAN. ) );
#38 =  ( NAMED_UNIT( #85 )SI_UNIT( $, .STERADIAN. )SOLID_ANGLE_UNIT(  ) );
#40 = PRESENTATION_STYLE_ASSIGNMENT( ( #91 ) );
#41 = ADVANCED_FACE( '', ( #92, #93 ), #94, .F. );
#42 = PRESENTATION_STYLE_ASSIGNMENT( ( #95 ) );
#43 = ADVANCED_FACE( '', ( #96 ), #97, .T. );
#44 = PRESENTATION_STYLE_ASSIGNMENT( ( #98 ) );
#45 = ADVANCED_FACE( '', ( #99, #100 ), #101, .F. );
#46 = PRESENTATION_STYLE_ASSIGNMENT( ( #102 ) );
#47 = ADVANCED_FACE( '', ( #103, #104 ), #105, .F. );
#48 = PRESENTATION_STYLE_ASSIGNMENT( ( #106 ) );
#49 = ADVANCED_FACE( '', ( #107, #108 ), #109, .T. );
#50 = PRESENTATION_STYLE_ASSIGNMENT( ( #110 ) );
#51 = ADVANCED_FACE( '', ( #111, #112, #113 ), #114, .F. );
#52 = PRESENTATION_STYLE_ASSIGNMENT( ( #115 ) );
#53 = ADVANCED_FACE( '', ( #116, #117 ), #118, .T. );
#54 = PRESENTATION_STYLE_ASSIGNMENT( ( #119 ) );
#55 = ADVANCED_FACE( '', ( #120, #121 ), #122, .T. );
#56 = PRESENTATION_STYLE_ASSIGNMENT( ( #123 ) );
#57 = ADVANCED_FACE( '', ( #124, #125 ), #126, .F. );
#58 = PRESENTATION_STYLE_ASSIGNMENT( ( #127 ) );
#59 = ADVANCED_FACE( '', ( #128, #129 ), #130, .F. );
#60 = PRESENTATION_STYLE_ASSIGNMENT( ( #131 ) );
#61 = ADVANCED_FACE( '', ( #132, #133 ), #134, .F. );
#62 = PRESENTATION_STYLE_ASSIGNMENT( ( #135 ) );
#63 = ADVANCED_FACE( '', ( #136, #137 ), #138, .F. );
#64 = PRESENTATION_STYLE_ASSIGNMENT( ( #139 ) );
#65 = ADVANCED_FACE( '', ( #140, #141 ), #142, .T. );
#66 = PRESENTATION_STYLE_ASSIGNMENT( ( #143 ) );
#67 = ADVANCED_FACE( '', ( #144, #145 ), #146, .F. );
#68 = PRESENTATION_STYLE_ASSIGNMENT( ( #147 ) );
#69 = ADVANCED_FACE( '', ( #148, #149 ), #150, .F. );
#70 = PRESENTATION_STYLE_ASSIGNMENT( ( #151 ) );
#71 = ADVANCED_FACE( '', ( #152, #153 ), #154, .T. );
#72 = PRESENTATION_STYLE_ASSIGNMENT( ( #155 ) );
#73 = ADVANCED_FACE( '', ( #156, #157 ), #158, .F. );
#74 = PRODUCT( '_K0392.08', '_K0392.08', 'PART-_K0392.08-DESC', ( #159 ) );
#75 = PRODUCT_DEFINITION( 'NONE', 'NONE', #160, #2 );
#76 = MANIFOLD_SOLID_BREP( '_K0392.08', #161 );
#77 = AXIS2_PLACEMENT_3D( '', #162, #163, #164 );
#80 = LENGTH_MEASURE_WITH_UNIT( LENGTH_MEASURE( 1.00000000000000 ), #165 );
#83 = DIMENSIONAL_EXPONENTS( 1.00000000000000, 0.000000000000000, 0.000000000000000, 0.000000000000000, 0.000000000000000, 0.000000000000000, 0.000000000000000 );
#85 = DIMENSIONAL_EXPONENTS( 0.000000000000000, 0.000000000000000, 0.000000000000000, 0.000000000000000, 0.000000000000000, 0.000000000000000, 0.000000000000000 );
#91 = SURFACE_STYLE_USAGE( .BOTH., #166 );
#92 = FACE_OUTER_BOUND( '', #167, .T. );
#93 = FACE_BOUND( '', #168, .T. );
#94 = PLANE( '', #169 );
#95 = SURFACE_STYLE_USAGE( .BOTH., #170 );
#96 = FACE_OUTER_BOUND( '', #171, .T. );
#97 = PLANE( '', #172 );
#98 = SURFACE_STYLE_USAGE( .BOTH., #173 );
#99 = FACE_BOUND( '', #174, .T. );
#100 = FACE_OUTER_BOUND( '', #175, .T. );
#101 = PLANE( '', #176 );
#102 = SURFACE_STYLE_USAGE( .BOTH., #177 );
#103 = FACE_OUTER_BOUND( '', #178, .T. );
#104 = FACE_BOUND( '', #179, .T. );
#105 = PLANE( '', #180 );
#106 = SURFACE_STYLE_USAGE( .BOTH., #181 );
#107 = FACE_OUTER_BOUND( '', #182, .T. );
#108 = FACE_OUTER_BOUND( '', #183, .T. );
#109 = CYLINDRICAL_SURFACE( '', #184, 6.00000000000000 );
#110 = SURFACE_STYLE_USAGE( .BOTH., #185 );
#111 = FACE_BOUND( '', #186, .T. );
#112 = FACE_OUTER_BOUND( '', #187, .T. );
#113 = FACE_OUTER_BOUND( '', #188, .T. );
#114 = TOROIDAL_SURFACE( '', #189, 3.35000000000000, 0.500000000000000 );
#115 = SURFACE_STYLE_USAGE( .BOTH., #190 );
#116 = FACE_OUTER_BOUND( '', #191, .T. );
#117 = FACE_OUTER_BOUND( '', #192, .T. );
#118 = CYLINDRICAL_SURFACE( '', #193, 8.00000000000000 );
#119 = SURFACE_STYLE_USAGE( .BOTH., #194 );
#120 = FACE_BOUND( '', #195, .T. );
#121 = FACE_OUTER_BOUND( '', #196, .T. );
#122 = CONICAL_SURFACE( '', #197, 8.00000000000000, 0.785398163400000 );
#123 = SURFACE_STYLE_USAGE( .BOTH., #198 );
#124 = FACE_BOUND( '', #199, .T. );
#125 = FACE_OUTER_BOUND( '', #200, .T. );
#126 = PLANE( '', #201 );
#127 = SURFACE_STYLE_USAGE( .BOTH., #202 );
#128 = FACE_OUTER_BOUND( '', #203, .T. );
#129 = FACE_OUTER_BOUND( '', #204, .T. );
#130 = CYLINDRICAL_SURFACE( '', #205, 3.50000000000000 );
#131 = SURFACE_STYLE_USAGE( .BOTH., #206 );
#132 = FACE_OUTER_BOUND( '', #207, .T. );
#133 = FACE_OUTER_BOUND( '', #208, .T. );
#134 = TOROIDAL_SURFACE( '', #209, 8.00000000000000, 2.00000000000000 );
#135 = SURFACE_STYLE_USAGE( .BOTH., #210 );
#136 = FACE_OUTER_BOUND( '', #211, .T. );
#137 = FACE_OUTER_BOUND( '', #212, .T. );
#138 = CYLINDRICAL_SURFACE( '', #213, 3.05000000000000 );
#139 = SURFACE_STYLE_USAGE( .BOTH., #214 );
#140 = FACE_OUTER_BOUND( '', #215, .T. );
#141 = FACE_BOUND( '', #216, .T. );
#142 = CONICAL_SURFACE( '', #217, 5.40000000000000, 0.785398163400000 );
#143 = SURFACE_STYLE_USAGE( .BOTH., #218 );
#144 = FACE_OUTER_BOUND( '', #219, .T. );
#145 = FACE_BOUND( '', #220, .T. );
#146 = CONICAL_SURFACE( '', #221, 857.167300702100, 1.02974425870000 );
#147 = SURFACE_STYLE_USAGE( .BOTH., #222 );
#148 = FACE_OUTER_BOUND( '', #223, .T. );
#149 = FACE_BOUND( '', #224, .T. );
#150 = CONICAL_SURFACE( '', #225, 3.05000000000000, 0.785398163400000 );
#151 = SURFACE_STYLE_USAGE( .BOTH., #226 );
#152 = FACE_OUTER_BOUND( '', #227, .T. );
#153 = FACE_BOUND( '', #228, .T. );
#154 = CONICAL_SURFACE( '', #229, 7.40000000000000, 0.785398163400000 );
#155 = SURFACE_STYLE_USAGE( .BOTH., #230 );
#156 = FACE_OUTER_BOUND( '', #231, .T. );
#157 = FACE_OUTER_BOUND( '', #232, .T. );
#158 = CYLINDRICAL_SURFACE( '', #233, 3.05000000000000 );
#159 = PRODUCT_CONTEXT( '', #27, 'mechanical' );
#160 = PRODUCT_DEFINITION_FORMATION_WITH_SPECIFIED_SOURCE( ' ', 'NONE', #74, .NOT_KNOWN. );
#161 = CLOSED_SHELL( '', ( #67, #73, #47, #51, #57, #63, #69, #41, #65, #49, #61, #71, #53, #55, #45, #43, #59 ) );
#162 = CARTESIAN_POINT( '', ( 0.000000000000000, 0.000000000000000, 0.000000000000000 ) );
#163 = DIRECTION( '', ( 0.000000000000000, 0.000000000000000, 1.00000000000000 ) );
#164 = DIRECTION( '', ( 1.00000000000000, 0.000000000000000, 0.000000000000000 ) );
#165 =  ( LENGTH_UNIT(  )NAMED_UNIT( #83 )SI_UNIT( .MILLI., .METRE. ) );
#166 = SURFACE_SIDE_STYLE( '', ( #235 ) );
#167 = EDGE_LOOP( '', ( #236 ) );
#168 = EDGE_LOOP( '', ( #237 ) );
#169 = AXIS2_PLACEMENT_3D( '', #238, #239, #240 );
#170 = SURFACE_SIDE_STYLE( '', ( #241 ) );
#171 = EDGE_LOOP( '', ( #242 ) );
#172 = AXIS2_PLACEMENT_3D( '', #243, #244, #245 );
#173 = SURFACE_SIDE_STYLE( '', ( #246 ) );
#174 = EDGE_LOOP( '', ( #247 ) );
#175 = EDGE_LOOP( '', ( #248 ) );
#176 = AXIS2_PLACEMENT_3D( '', #249, #250, #251 );
#177 = SURFACE_SIDE_STYLE( '', ( #252 ) );
#178 = EDGE_LOOP( '', ( #253 ) );
#179 = EDGE_LOOP( '', ( #254 ) );
#180 = AXIS2_PLACEMENT_3D( '', #255, #256, #257 );
#181 = SURFACE_SIDE_STYLE( '', ( #258 ) );
#182 = EDGE_LOOP( '', ( #259 ) );
#183 = EDGE_LOOP( '', ( #260 ) );
#184 = AXIS2_PLACEMENT_3D( '', #261, #262, #263 );
#185 = SURFACE_SIDE_STYLE( '', ( #264 ) );
#186 = VERTEX_LOOP( '', #265 );
#187 = EDGE_LOOP( '', ( #266 ) );
#188 = EDGE_LOOP( '', ( #267 ) );
#189 = AXIS2_PLACEMENT_3D( '', #268, #269, #270 );
#190 = SURFACE_SIDE_STYLE( '', ( #271 ) );
#191 = EDGE_LOOP( '', ( #272 ) );
#192 = EDGE_LOOP( '', ( #273 ) );
#193 = AXIS2_PLACEMENT_3D( '', #274, #275, #276 );
#194 = SURFACE_SIDE_STYLE( '', ( #277 ) );
#195 = EDGE_LOOP( '', ( #278 ) );
#196 = EDGE_LOOP( '', ( #279 ) );
#197 = AXIS2_PLACEMENT_3D( '', #280, #281, #282 );
#198 = SURFACE_SIDE_STYLE( '', ( #283 ) );
#199 = EDGE_LOOP( '', ( #284 ) );
#200 = EDGE_LOOP( '', ( #285 ) );
#201 = AXIS2_PLACEMENT_3D( '', #286, #287, #288 );
#202 = SURFACE_SIDE_STYLE( '', ( #289 ) );
#203 = EDGE_LOOP( '', ( #290 ) );
#204 = EDGE_LOOP( '', ( #291 ) );
#205 = AXIS2_PLACEMENT_3D( '', #292, #293, #294 );
#206 = SURFACE_SIDE_STYLE( '', ( #295 ) );
#207 = EDGE_LOOP( '', ( #296 ) );
#208 = EDGE_LOOP( '', ( #297 ) );
#209 = AXIS2_PLACEMENT_3D( '', #298, #299, #300 );
#210 = SURFACE_SIDE_STYLE( '', ( #301 ) );
#211 = EDGE_LOOP( '', ( #302 ) );
#212 = EDGE_LOOP( '', ( #303 ) );
#213 = AXIS2_PLACEMENT_3D( '', #304, #305, #306 );
#214 = SURFACE_SIDE_STYLE( '', ( #307 ) );
#215 = EDGE_LOOP( '', ( #308 ) );
#216 = EDGE_LOOP( '', ( #309 ) );
#217 = AXIS2_PLACEMENT_3D( '', #310, #311, #312 );
#218 = SURFACE_SIDE_STYLE( '', ( #313 ) );
#219 = EDGE_LOOP( '', ( #314 ) );
#220 = VERTEX_LOOP( '', #315 );
#221 = AXIS2_PLACEMENT_3D( '', #316, #317, #318 );
#222 = SURFACE_SIDE_STYLE( '', ( #319 ) );
#223 = EDGE_LOOP( '', ( #320 ) );
#224 = EDGE_LOOP( '', ( #321 ) );
#225 = AXIS2_PLACEMENT_3D( '', #322, #323, #324 );
#226 = SURFACE_SIDE_STYLE( '', ( #325 ) );
#227 = EDGE_LOOP( '', ( #326 ) );
#228 = EDGE_LOOP( '', ( #327 ) );
#229 = AXIS2_PLACEMENT_3D( '', #328, #329, #330 );
#230 = SURFACE_SIDE_STYLE( '', ( #331 ) );
#231 = EDGE_LOOP( '', ( #332 ) );
#232 = EDGE_LOOP( '', ( #333 ) );
#233 = AXIS2_PLACEMENT_3D( '', #334, #335, #336 );
#235 = SURFACE_STYLE_FILL_AREA( #337 );
#236 = ORIENTED_EDGE( '', *, *, #338, .F. );
#237 = ORIENTED_EDGE( '', *, *, #339, .T. );
#238 = CARTESIAN_POINT( '', ( 4.05000000000000, 9.00000000000000, 0.000000000000000 ) );
#239 = DIRECTION( '', ( 0.000000000000000, -1.00000000000000, -0.000000000000000 ) );
#240 = DIRECTION( '', ( 0.000000000000000, 0.000000000000000, -1.00000000000000 ) );
#241 = SURFACE_STYLE_FILL_AREA( #340 );
#242 = ORIENTED_EDGE( '', *, *, #341, .T. );
#243 = CARTESIAN_POINT( '', ( 0.000000000000000, 0.500000000000000, 0.000000000000000 ) );
#244 = DIRECTION( '', ( 0.000000000000000, -1.00000000000000, -0.000000000000000 ) );
#245 = DIRECTION( '', ( 0.000000000000000, 0.000000000000000, -1.00000000000000 ) );
#246 = SURFACE_STYLE_FILL_AREA( #342 );
#247 = ORIENTED_EDGE( '', *, *, #343, .F. );
#248 = ORIENTED_EDGE( '', *, *, #344, .T. );
#249 = CARTESIAN_POINT( '', ( 7.40000000000000, 0.000000000000000, 0.000000000000000 ) );
#250 = DIRECTION( '', ( 0.000000000000000, 1.00000000000000, 0.000000000000000 ) );
#251 = DIRECTION( '', ( 0.000000000000000, -0.000000000000000, 1.00000000000000 ) );
#252 = SURFACE_STYLE_FILL_AREA( #345 );
#253 = ORIENTED_EDGE( '', *, *, #346, .F. );
#254 = ORIENTED_EDGE( '', *, *, #347, .T. );
#255 = CARTESIAN_POINT( '', ( 3.05000000000000, 6.50000000000000, 0.000000000000000 ) );
#256 = DIRECTION( '', ( 0.000000000000000, -1.00000000000000, -0.000000000000000 ) );
#257 = DIRECTION( '', ( 0.000000000000000, 0.000000000000000, -1.00000000000000 ) );
#258 = SURFACE_STYLE_FILL_AREA( #348 );
#259 = ORIENTED_EDGE( '', *, *, #349, .F. );
#260 = ORIENTED_EDGE( '', *, *, #350, .T. );
#261 = CARTESIAN_POINT( '', ( 0.000000000000000, 0.000000000000000, 0.000000000000000 ) );
#262 = DIRECTION( '', ( -0.000000000000000, 1.00000000000000, 0.000000000000000 ) );
#263 = DIRECTION( '', ( 0.000000000000000, 0.000000000000000, -1.00000000000000 ) );
#264 = SURFACE_STYLE_FILL_AREA( #351 );
#265 = VERTEX_POINT( '', #352 );
#266 = ORIENTED_EDGE( '', *, *, #353, .F. );
#267 = ORIENTED_EDGE( '', *, *, #346, .T. );
#268 = CARTESIAN_POINT( '', ( 0.000000000000000, 7.00000000000000, 0.000000000000000 ) );
#269 = DIRECTION( '', ( 0.000000000000000, -1.00000000000000, -0.000000000000000 ) );
#270 = DIRECTION( '', ( 0.000000000000000, 0.000000000000000, -1.00000000000000 ) );
#271 = SURFACE_STYLE_FILL_AREA( #354 );
#272 = ORIENTED_EDGE( '', *, *, #355, .F. );
#273 = ORIENTED_EDGE( '', *, *, #356, .T. );
#274 = CARTESIAN_POINT( '', ( 0.000000000000000, 0.000000000000000, 0.000000000000000 ) );
#275 = DIRECTION( '', ( -0.000000000000000, 1.00000000000000, 0.000000000000000 ) );
#276 = DIRECTION( '', ( 0.000000000000000, 0.000000000000000, -1.00000000000000 ) );
#277 = SURFACE_STYLE_FILL_AREA( #357 );
#278 = ORIENTED_EDGE( '', *, *, #344, .F. );
#279 = ORIENTED_EDGE( '', *, *, #355, .T. );
#280 = CARTESIAN_POINT( '', ( 0.000000000000000, 0.599999999999999, 0.000000000000000 ) );
#281 = DIRECTION( '', ( -0.000000000000000, 1.00000000000000, 0.000000000000000 ) );
#282 = DIRECTION( '', ( 0.000000000000000, -0.000000000000000, 1.00000000000000 ) );
#283 = SURFACE_STYLE_FILL_AREA( #358 );
#284 = ORIENTED_EDGE( '', *, *, #359, .F. );
#285 = ORIENTED_EDGE( '', *, *, #353, .T. );
#286 = CARTESIAN_POINT( '', ( 3.35000000000000, 7.50000000000000, 0.000000000000000 ) );
#287 = DIRECTION( '', ( 0.000000000000000, 1.00000000000000, 0.000000000000000 ) );
#288 = DIRECTION( '', ( 0.000000000000000, -0.000000000000000, 1.00000000000000 ) );
#289 = SURFACE_STYLE_FILL_AREA( #360 );
#290 = ORIENTED_EDGE( '', *, *, #343, .T. );
#291 = ORIENTED_EDGE( '', *, *, #341, .F. );
#292 = CARTESIAN_POINT( '', ( 0.000000000000000, 0.000000000000000, 0.000000000000000 ) );
#293 = DIRECTION( '', ( -0.000000000000000, 1.00000000000000, 0.000000000000000 ) );
#294 = DIRECTION( '', ( 0.000000000000000, 0.000000000000000, -1.00000000000000 ) );
#295 = SURFACE_STYLE_FILL_AREA( #361 );
#296 = ORIENTED_EDGE( '', *, *, #362, .F. );
#297 = ORIENTED_EDGE( '', *, *, #349, .T. );
#298 = CARTESIAN_POINT( '', ( 0.000000000000000, 5.90787840283389, 0.000000000000000 ) );
#299 = DIRECTION( '', ( 0.000000000000000, -1.00000000000000, -0.000000000000000 ) );
#300 = DIRECTION( '', ( 0.000000000000000, 0.000000000000000, -1.00000000000000 ) );
#301 = SURFACE_STYLE_FILL_AREA( #363 );
#302 = ORIENTED_EDGE( '', *, *, #364, .F. );
#303 = ORIENTED_EDGE( '', *, *, #359, .T. );
#304 = CARTESIAN_POINT( '', ( 0.000000000000000, 0.000000000000000, 0.000000000000000 ) );
#305 = DIRECTION( '', ( -0.000000000000000, 1.00000000000000, 0.000000000000000 ) );
#306 = DIRECTION( '', ( 0.000000000000000, 0.000000000000000, -1.00000000000000 ) );
#307 = SURFACE_STYLE_FILL_AREA( #365 );
#308 = ORIENTED_EDGE( '', *, *, #350, .F. );
#309 = ORIENTED_EDGE( '', *, *, #338, .T. );
#310 = CARTESIAN_POINT( '', ( 0.000000000000000, 9.00000000000000, 0.000000000000000 ) );
#311 = DIRECTION( '', ( -0.000000000000000, -1.00000000000000, -0.000000000000000 ) );
#312 = DIRECTION( '', ( 0.000000000000000, 0.000000000000000, -1.00000000000000 ) );
#313 = SURFACE_STYLE_FILL_AREA( #366 );
#314 = ORIENTED_EDGE( '', *, *, #367, .F. );
#315 = VERTEX_POINT( '', #368 );
#316 = CARTESIAN_POINT( '', ( 0.000000000000000, 517.205450022020, 0.000000000000000 ) );
#317 = DIRECTION( '', ( -0.000000000000000, 1.00000000000000, 0.000000000000000 ) );
#318 = DIRECTION( '', ( 0.000000000000000, -0.000000000000000, 1.00000000000000 ) );
#319 = SURFACE_STYLE_FILL_AREA( #369 );
#320 = ORIENTED_EDGE( '', *, *, #339, .F. );
#321 = ORIENTED_EDGE( '', *, *, #364, .T. );
#322 = CARTESIAN_POINT( '', ( 0.000000000000000, 8.00000000000000, 0.000000000000000 ) );
#323 = DIRECTION( '', ( -0.000000000000000, 1.00000000000000, 0.000000000000000 ) );
#324 = DIRECTION( '', ( 0.000000000000000, -0.000000000000000, 1.00000000000000 ) );
#325 = SURFACE_STYLE_FILL_AREA( #370 );
#326 = ORIENTED_EDGE( '', *, *, #356, .F. );
#327 = ORIENTED_EDGE( '', *, *, #362, .T. );
#328 = CARTESIAN_POINT( '', ( 0.000000000000000, 4.00000000000000, 0.000000000000000 ) );
#329 = DIRECTION( '', ( -0.000000000000000, -1.00000000000000, -0.000000000000000 ) );
#330 = DIRECTION( '', ( 0.000000000000000, 0.000000000000000, -1.00000000000000 ) );
#331 = SURFACE_STYLE_FILL_AREA( #371 );
#332 = ORIENTED_EDGE( '', *, *, #347, .F. );
#333 = ORIENTED_EDGE( '', *, *, #367, .T. );
#334 = CARTESIAN_POINT( '', ( 0.000000000000000, 0.000000000000000, 0.000000000000000 ) );
#335 = DIRECTION( '', ( -0.000000000000000, 1.00000000000000, 0.000000000000000 ) );
#336 = DIRECTION( '', ( 0.000000000000000, 0.000000000000000, -1.00000000000000 ) );
#337 = FILL_AREA_STYLE( '', ( #372 ) );
#338 = EDGE_CURVE( '', #373, #373, #374, .T. );
#339 = EDGE_CURVE( '', #375, #375, #376, .T. );
#340 = FILL_AREA_STYLE( '', ( #377 ) );
#341 = EDGE_CURVE( '', #378, #378, #379, .T. );
#342 = FILL_AREA_STYLE( '', ( #380 ) );
#343 = EDGE_CURVE( '', #381, #381, #382, .T. );
#344 = EDGE_CURVE( '', #383, #383, #384, .T. );
#345 = FILL_AREA_STYLE( '', ( #385 ) );
#346 = EDGE_CURVE( '', #386, #386, #387, .T. );
#347 = EDGE_CURVE( '', #388, #388, #389, .T. );
#348 = FILL_AREA_STYLE( '', ( #390 ) );
#349 = EDGE_CURVE( '', #391, #391, #392, .T. );
#350 = EDGE_CURVE( '', #393, #393, #394, .T. );
#351 = FILL_AREA_STYLE( '', ( #395 ) );
#352 = CARTESIAN_POINT( '', ( 0.000000000000000, 7.00000000000000, -3.85000000000000 ) );
#353 = EDGE_CURVE( '', #396, #396, #397, .T. );
#354 = FILL_AREA_STYLE( '', ( #398 ) );
#355 = EDGE_CURVE( '', #399, #399, #400, .T. );
#356 = EDGE_CURVE( '', #401, #401, #402, .T. );
#357 = FILL_AREA_STYLE( '', ( #403 ) );
#358 = FILL_AREA_STYLE( '', ( #404 ) );
#359 = EDGE_CURVE( '', #405, #405, #406, .T. );
#360 = FILL_AREA_STYLE( '', ( #407 ) );
#361 = FILL_AREA_STYLE( '', ( #408 ) );
#362 = EDGE_CURVE( '', #409, #409, #410, .T. );
#363 = FILL_AREA_STYLE( '', ( #411 ) );
#364 = EDGE_CURVE( '', #412, #412, #413, .T. );
#365 = FILL_AREA_STYLE( '', ( #414 ) );
#366 = FILL_AREA_STYLE( '', ( #415 ) );
#367 = EDGE_CURVE( '', #416, #416, #417, .T. );
#368 = CARTESIAN_POINT( '', ( 0.000000000000000, 2.16737511196594, 0.000000000000000 ) );
#369 = FILL_AREA_STYLE( '', ( #418 ) );
#370 = FILL_AREA_STYLE( '', ( #419 ) );
#371 = FILL_AREA_STYLE( '', ( #420 ) );
#372 = FILL_AREA_STYLE_COLOUR( '', #421 );
#373 = VERTEX_POINT( '', #422 );
#374 = CIRCLE( '', #423, 5.40000000000000 );
#375 = VERTEX_POINT( '', #424 );
#376 = CIRCLE( '', #425, 4.05000000000000 );
#377 = FILL_AREA_STYLE_COLOUR( '', #426 );
#378 = VERTEX_POINT( '', #427 );
#379 = CIRCLE( '', #428, 3.50000000000000 );
#380 = FILL_AREA_STYLE_COLOUR( '', #429 );
#381 = VERTEX_POINT( '', #430 );
#382 = CIRCLE( '', #431, 3.50000000000000 );
#383 = VERTEX_POINT( '', #432 );
#384 = CIRCLE( '', #433, 7.40000000000000 );
#385 = FILL_AREA_STYLE_COLOUR( '', #434 );
#386 = VERTEX_POINT( '', #435 );
#387 = CIRCLE( '', #436, 3.35000000000000 );
#388 = VERTEX_POINT( '', #437 );
#389 = CIRCLE( '', #438, 3.05000000000000 );
#390 = FILL_AREA_STYLE_COLOUR( '', #439 );
#391 = VERTEX_POINT( '', #440 );
#392 = CIRCLE( '', #441, 6.00000000000000 );
#393 = VERTEX_POINT( '', #442 );
#394 = CIRCLE( '', #443, 6.00000000000000 );
#395 = FILL_AREA_STYLE_COLOUR( '', #444 );
#396 = VERTEX_POINT( '', #445 );
#397 = CIRCLE( '', #446, 3.35000000000000 );
#398 = FILL_AREA_STYLE_COLOUR( '', #447 );
#399 = VERTEX_POINT( '', #448 );
#400 = CIRCLE( '', #449, 8.00000000000000 );
#401 = VERTEX_POINT( '', #450 );
#402 = CIRCLE( '', #451, 8.00000000000000 );
#403 = FILL_AREA_STYLE_COLOUR( '', #452 );
#404 = FILL_AREA_STYLE_COLOUR( '', #453 );
#405 = VERTEX_POINT( '', #454 );
#406 = CIRCLE( '', #455, 3.05000000000000 );
#407 = FILL_AREA_STYLE_COLOUR( '', #456 );
#408 = FILL_AREA_STYLE_COLOUR( '', #457 );
#409 = VERTEX_POINT( '', #458 );
#410 = CIRCLE( '', #459, 7.40000000000000 );
#411 = FILL_AREA_STYLE_COLOUR( '', #460 );
#412 = VERTEX_POINT( '', #461 );
#413 = CIRCLE( '', #462, 3.05000000000000 );
#414 = FILL_AREA_STYLE_COLOUR( '', #463 );
#415 = FILL_AREA_STYLE_COLOUR( '', #464 );
#416 = VERTEX_POINT( '', #465 );
#417 = CIRCLE( '', #466, 3.05000000000000 );
#418 = FILL_AREA_STYLE_COLOUR( '', #467 );
#419 = FILL_AREA_STYLE_COLOUR( '', #468 );
#420 = FILL_AREA_STYLE_COLOUR( '', #469 );
#421 = COLOUR_RGB( '', 0.689999997600000, 0.689999997600000, 0.689999997600000 );
#422 = CARTESIAN_POINT( '', ( 0.000000000000000, 9.00000000000000, -5.40000000000000 ) );
#423 = AXIS2_PLACEMENT_3D( '', #470, #471, #472 );
#424 = CARTESIAN_POINT( '', ( 0.000000000000000, 9.00000000000000, -4.05000000000000 ) );
#425 = AXIS2_PLACEMENT_3D( '', #473, #474, #475 );
#426 = COLOUR_RGB( '', 0.689999997600000, 0.689999997600000, 0.689999997600000 );
#427 = CARTESIAN_POINT( '', ( 0.000000000000000, 0.500000000000000, -3.50000000000000 ) );
#428 = AXIS2_PLACEMENT_3D( '', #476, #477, #478 );
#429 = COLOUR_RGB( '', 0.689999997600000, 0.689999997600000, 0.689999997600000 );
#430 = CARTESIAN_POINT( '', ( 0.000000000000000, 0.000000000000000, -3.50000000000000 ) );
#431 = AXIS2_PLACEMENT_3D( '', #479, #480, #481 );
#432 = CARTESIAN_POINT( '', ( 0.000000000000000, 0.000000000000000, -7.40000000000000 ) );
#433 = AXIS2_PLACEMENT_3D( '', #482, #483, #484 );
#434 = COLOUR_RGB( '', 0.689999997600000, 0.689999997600000, 0.689999997600000 );
#435 = CARTESIAN_POINT( '', ( 0.000000000000000, 6.50000000000000, -3.35000000000000 ) );
#436 = AXIS2_PLACEMENT_3D( '', #485, #486, #487 );
#437 = CARTESIAN_POINT( '', ( 0.000000000000000, 6.50000000000000, -3.05000000000000 ) );
#438 = AXIS2_PLACEMENT_3D( '', #488, #489, #490 );
#439 = COLOUR_RGB( '', 0.689999997600000, 0.689999997600000, 0.689999997600000 );
#440 = CARTESIAN_POINT( '', ( 0.000000000000000, 5.90787840283389, -6.00000000000000 ) );
#441 = AXIS2_PLACEMENT_3D( '', #491, #492, #493 );
#442 = CARTESIAN_POINT( '', ( 0.000000000000000, 8.40000000000000, -6.00000000000000 ) );
#443 = AXIS2_PLACEMENT_3D( '', #494, #495, #496 );
#444 = COLOUR_RGB( '', 0.689999997600000, 0.689999997600000, 0.689999997600000 );
#445 = CARTESIAN_POINT( '', ( 0.000000000000000, 7.50000000000000, -3.35000000000000 ) );
#446 = AXIS2_PLACEMENT_3D( '', #497, #498, #499 );
#447 = COLOUR_RGB( '', 0.689999997600000, 0.689999997600000, 0.689999997600000 );
#448 = CARTESIAN_POINT( '', ( 0.000000000000000, 0.599999999999999, -8.00000000000000 ) );
#449 = AXIS2_PLACEMENT_3D( '', #500, #501, #502 );
#450 = CARTESIAN_POINT( '', ( 0.000000000000000, 3.40000000000000, -8.00000000000000 ) );
#451 = AXIS2_PLACEMENT_3D( '', #503, #504, #505 );
#452 = COLOUR_RGB( '', 0.689999997600000, 0.689999997600000, 0.689999997600000 );
#453 = COLOUR_RGB( '', 0.689999997600000, 0.689999997600000, 0.689999997600000 );
#454 = CARTESIAN_POINT( '', ( 0.000000000000000, 7.50000000000000, -3.05000000000000 ) );
#455 = AXIS2_PLACEMENT_3D( '', #506, #507, #508 );
#456 = COLOUR_RGB( '', 0.689999997600000, 0.689999997600000, 0.689999997600000 );
#457 = COLOUR_RGB( '', 0.689999997600000, 0.689999997600000, 0.689999997600000 );
#458 = CARTESIAN_POINT( '', ( 0.000000000000000, 4.00000000000000, -7.40000000000000 ) );
#459 = AXIS2_PLACEMENT_3D( '', #509, #510, #511 );
#460 = COLOUR_RGB( '', 0.689999997600000, 0.689999997600000, 0.689999997600000 );
#461 = CARTESIAN_POINT( '', ( 0.000000000000000, 8.00000000000000, -3.05000000000000 ) );
#462 = AXIS2_PLACEMENT_3D( '', #512, #513, #514 );
#463 = COLOUR_RGB( '', 0.689999997600000, 0.689999997600000, 0.689999997600000 );
#464 = COLOUR_RGB( '', 0.689999997600000, 0.689999997600000, 0.689999997600000 );
#465 = CARTESIAN_POINT( '', ( 0.000000000000000, 4.00000000000000, -3.05000000000000 ) );
#466 = AXIS2_PLACEMENT_3D( '', #515, #516, #517 );
#467 = COLOUR_RGB( '', 0.689999997600000, 0.689999997600000, 0.689999997600000 );
#468 = COLOUR_RGB( '', 0.689999997600000, 0.689999997600000, 0.689999997600000 );
#469 = COLOUR_RGB( '', 0.689999997600000, 0.689999997600000, 0.689999997600000 );
#470 = CARTESIAN_POINT( '', ( 0.000000000000000, 9.00000000000000, 0.000000000000000 ) );
#471 = DIRECTION( '', ( 0.000000000000000, -1.00000000000000, -0.000000000000000 ) );
#472 = DIRECTION( '', ( 0.000000000000000, 0.000000000000000, -1.00000000000000 ) );
#473 = CARTESIAN_POINT( '', ( 0.000000000000000, 9.00000000000000, 0.000000000000000 ) );
#474 = DIRECTION( '', ( 0.000000000000000, -1.00000000000000, -0.000000000000000 ) );
#475 = DIRECTION( '', ( 0.000000000000000, 0.000000000000000, -1.00000000000000 ) );
#476 = CARTESIAN_POINT( '', ( 0.000000000000000, 0.500000000000000, 0.000000000000000 ) );
#477 = DIRECTION( '', ( 0.000000000000000, -1.00000000000000, -0.000000000000000 ) );
#478 = DIRECTION( '', ( 0.000000000000000, 0.000000000000000, -1.00000000000000 ) );
#479 = CARTESIAN_POINT( '', ( 0.000000000000000, 0.000000000000000, 0.000000000000000 ) );
#480 = DIRECTION( '', ( 0.000000000000000, -1.00000000000000, -0.000000000000000 ) );
#481 = DIRECTION( '', ( 0.000000000000000, 0.000000000000000, -1.00000000000000 ) );
#482 = CARTESIAN_POINT( '', ( 0.000000000000000, 0.000000000000000, 0.000000000000000 ) );
#483 = DIRECTION( '', ( 0.000000000000000, -1.00000000000000, -0.000000000000000 ) );
#484 = DIRECTION( '', ( 0.000000000000000, 0.000000000000000, -1.00000000000000 ) );
#485 = CARTESIAN_POINT( '', ( 0.000000000000000, 6.50000000000000, 0.000000000000000 ) );
#486 = DIRECTION( '', ( 0.000000000000000, -1.00000000000000, -0.000000000000000 ) );
#487 = DIRECTION( '', ( 0.000000000000000, 0.000000000000000, -1.00000000000000 ) );
#488 = CARTESIAN_POINT( '', ( 0.000000000000000, 6.50000000000000, 0.000000000000000 ) );
#489 = DIRECTION( '', ( 0.000000000000000, -1.00000000000000, -0.000000000000000 ) );
#490 = DIRECTION( '', ( 0.000000000000000, 0.000000000000000, -1.00000000000000 ) );
#491 = CARTESIAN_POINT( '', ( 0.000000000000000, 5.90787840283389, 0.000000000000000 ) );
#492 = DIRECTION( '', ( 0.000000000000000, -1.00000000000000, -0.000000000000000 ) );
#493 = DIRECTION( '', ( 0.000000000000000, 0.000000000000000, -1.00000000000000 ) );
#494 = CARTESIAN_POINT( '', ( 0.000000000000000, 8.40000000000000, 0.000000000000000 ) );
#495 = DIRECTION( '', ( 0.000000000000000, -1.00000000000000, -0.000000000000000 ) );
#496 = DIRECTION( '', ( 0.000000000000000, 0.000000000000000, -1.00000000000000 ) );
#497 = CARTESIAN_POINT( '', ( 0.000000000000000, 7.50000000000000, 0.000000000000000 ) );
#498 = DIRECTION( '', ( 0.000000000000000, -1.00000000000000, -0.000000000000000 ) );
#499 = DIRECTION( '', ( 0.000000000000000, 0.000000000000000, -1.00000000000000 ) );
#500 = CARTESIAN_POINT( '', ( 0.000000000000000, 0.599999999999999, 0.000000000000000 ) );
#501 = DIRECTION( '', ( 0.000000000000000, -1.00000000000000, -0.000000000000000 ) );
#502 = DIRECTION( '', ( 0.000000000000000, 0.000000000000000, -1.00000000000000 ) );
#503 = CARTESIAN_POINT( '', ( 0.000000000000000, 3.40000000000000, 0.000000000000000 ) );
#504 = DIRECTION( '', ( 0.000000000000000, -1.00000000000000, -0.000000000000000 ) );
#505 = DIRECTION( '', ( 0.000000000000000, 0.000000000000000, -1.00000000000000 ) );
#506 = CARTESIAN_POINT( '', ( 0.000000000000000, 7.50000000000000, 0.000000000000000 ) );
#507 = DIRECTION( '', ( 0.000000000000000, -1.00000000000000, -0.000000000000000 ) );
#508 = DIRECTION( '', ( 0.000000000000000, 0.000000000000000, -1.00000000000000 ) );
#509 = CARTESIAN_POINT( '', ( 0.000000000000000, 4.00000000000000, 0.000000000000000 ) );
#510 = DIRECTION( '', ( 0.000000000000000, -1.00000000000000, -0.000000000000000 ) );
#511 = DIRECTION( '', ( 0.000000000000000, 0.000000000000000, -1.00000000000000 ) );
#512 = CARTESIAN_POINT( '', ( 0.000000000000000, 8.00000000000000, 0.000000000000000 ) );
#513 = DIRECTION( '', ( 0.000000000000000, -1.00000000000000, -0.000000000000000 ) );
#514 = DIRECTION( '', ( 0.000000000000000, 0.000000000000000, -1.00000000000000 ) );
#515 = CARTESIAN_POINT( '', ( 0.000000000000000, 4.00000000000000, 0.000000000000000 ) );
#516 = DIRECTION( '', ( 0.000000000000000, -1.00000000000000, -0.000000000000000 ) );
#517 = DIRECTION( '', ( 0.000000000000000, 0.000000000000000, -1.00000000000000 ) );
ENDSEC;
END-ISO-10303-21;
