ISO-10303-21;
HEADER;
FILE_DESCRIPTION( ( 'STEP AP214' ), '1' );
FILE_NAME( '//goodhand-server/Shared Folders/GoodHand Data/Kipp CAD/K1043/K1043.081.stp', '2020-12-10T09:25:08', ( '' ), ( '' ), ' ', 'PARTsolutions', ' ' );
FILE_SCHEMA( ( 'AUTOMOTIVE_DESIGN { 1 0 10303 214 1 1 1 1 }' ) );
ENDSEC;
DATA;
#1 = MECHANICAL_DESIGN_GEOMETRIC_PRESENTATION_REPRESENTATION( ' ', ( #10, #11, #12, #13, #14, #15, #16, #17, #18, #19, #20, #21 ), #6 );
#2 = PRODUCT_DEFINITION_CONTEXT( '', #22, 'design' );
#3 = APPLICATION_PROTOCOL_DEFINITION( 'international standard', 'automotive_design', 2001, #22 );
#4 = PRODUCT_CATEGORY_RELATIONSHIP( 'NONE', 'NONE', #23, #24 );
#5 = SHAPE_DEFINITION_REPRESENTATION( #25, #26 );
#6 =  ( GEOMETRIC_REPRESENTATION_CONTEXT( 3 )GLOBAL_UNCERTAINTY_ASSIGNED_CONTEXT( ( #29 ) )GLOBAL_UNIT_ASSIGNED_CONTEXT( ( #31, #32, #33 ) )REPRESENTATION_CONTEXT( 'NONE', 'WORKSPACE' ) );
#10 = STYLED_ITEM( '', ( #35 ), #36 );
#11 = STYLED_ITEM( '', ( #37 ), #38 );
#12 = STYLED_ITEM( '', ( #39 ), #40 );
#13 = STYLED_ITEM( '', ( #41 ), #42 );
#14 = STYLED_ITEM( '', ( #43 ), #44 );
#15 = STYLED_ITEM( '', ( #45 ), #46 );
#16 = STYLED_ITEM( '', ( #47 ), #48 );
#17 = STYLED_ITEM( '', ( #49 ), #50 );
#18 = STYLED_ITEM( '', ( #51 ), #52 );
#19 = STYLED_ITEM( '', ( #53 ), #54 );
#20 = STYLED_ITEM( '', ( #55 ), #56 );
#21 = STYLED_ITEM( '', ( #57 ), #58 );
#22 = APPLICATION_CONTEXT( 'core data for automotive mechanical design processes' );
#23 = PRODUCT_CATEGORY( 'part', 'NONE' );
#24 = PRODUCT_RELATED_PRODUCT_CATEGORY( 'detail', ' ', ( #59 ) );
#25 = PRODUCT_DEFINITION_SHAPE( 'NONE', 'NONE', #60 );
#26 = ADVANCED_BREP_SHAPE_REPRESENTATION( '_K1043.081', ( #61, #62 ), #6 );
#29 = UNCERTAINTY_MEASURE_WITH_UNIT( LENGTH_MEASURE( 0.00100000000000000 ), #31, '', '' );
#31 =  ( CONVERSION_BASED_UNIT( 'MILLIMETRE', #65 )LENGTH_UNIT(  )NAMED_UNIT( #68 ) );
#32 =  ( NAMED_UNIT( #70 )PLANE_ANGLE_UNIT(  )SI_UNIT( $, .RADIAN. ) );
#33 =  ( NAMED_UNIT( #70 )SI_UNIT( $, .STERADIAN. )SOLID_ANGLE_UNIT(  ) );
#35 = PRESENTATION_STYLE_ASSIGNMENT( ( #76 ) );
#36 = ADVANCED_FACE( '', ( #77 ), #78, .F. );
#37 = PRESENTATION_STYLE_ASSIGNMENT( ( #79 ) );
#38 = ADVANCED_FACE( '', ( #80, #81 ), #82, .F. );
#39 = PRESENTATION_STYLE_ASSIGNMENT( ( #83 ) );
#40 = ADVANCED_FACE( '', ( #84, #85 ), #86, .F. );
#41 = PRESENTATION_STYLE_ASSIGNMENT( ( #87 ) );
#42 = ADVANCED_FACE( '', ( #88, #89 ), #90, .F. );
#43 = PRESENTATION_STYLE_ASSIGNMENT( ( #91 ) );
#44 = ADVANCED_FACE( '', ( #92, #93 ), #94, .F. );
#45 = PRESENTATION_STYLE_ASSIGNMENT( ( #95 ) );
#46 = ADVANCED_FACE( '', ( #96, #97 ), #98, .F. );
#47 = PRESENTATION_STYLE_ASSIGNMENT( ( #99 ) );
#48 = ADVANCED_FACE( '', ( #100 ), #101, .F. );
#49 = PRESENTATION_STYLE_ASSIGNMENT( ( #102 ) );
#50 = ADVANCED_FACE( '', ( #103, #104 ), #105, .F. );
#51 = PRESENTATION_STYLE_ASSIGNMENT( ( #106 ) );
#52 = ADVANCED_FACE( '', ( #107, #108 ), #109, .F. );
#53 = PRESENTATION_STYLE_ASSIGNMENT( ( #110 ) );
#54 = ADVANCED_FACE( '', ( #111, #112 ), #113, .F. );
#55 = PRESENTATION_STYLE_ASSIGNMENT( ( #114 ) );
#56 = ADVANCED_FACE( '', ( #115 ), #116, .T. );
#57 = PRESENTATION_STYLE_ASSIGNMENT( ( #117 ) );
#58 = ADVANCED_FACE( '', ( #118 ), #119, .F. );
#59 = PRODUCT( '_K1043.081', '_K1043.081', 'PART-_K1043.081-DESC', ( #120 ) );
#60 = PRODUCT_DEFINITION( 'NONE', 'NONE', #121, #2 );
#61 = MANIFOLD_SOLID_BREP( '_K1043.081', #122 );
#62 = AXIS2_PLACEMENT_3D( '', #123, #124, #125 );
#65 = LENGTH_MEASURE_WITH_UNIT( LENGTH_MEASURE( 1.00000000000000 ), #126 );
#68 = DIMENSIONAL_EXPONENTS( 1.00000000000000, 0.000000000000000, 0.000000000000000, 0.000000000000000, 0.000000000000000, 0.000000000000000, 0.000000000000000 );
#70 = DIMENSIONAL_EXPONENTS( 0.000000000000000, 0.000000000000000, 0.000000000000000, 0.000000000000000, 0.000000000000000, 0.000000000000000, 0.000000000000000 );
#76 = SURFACE_STYLE_USAGE( .BOTH., #127 );
#77 = FACE_OUTER_BOUND( '', #128, .T. );
#78 = PLANE( '', #129 );
#79 = SURFACE_STYLE_USAGE( .BOTH., #130 );
#80 = FACE_OUTER_BOUND( '', #131, .T. );
#81 = FACE_OUTER_BOUND( '', #132, .T. );
#82 = CYLINDRICAL_SURFACE( '', #133, 4.20000000000000 );
#83 = SURFACE_STYLE_USAGE( .BOTH., #134 );
#84 = FACE_OUTER_BOUND( '', #135, .T. );
#85 = FACE_BOUND( '', #136, .T. );
#86 = CONICAL_SURFACE( '', #137, 4.20000000000000, 0.785398163400000 );
#87 = SURFACE_STYLE_USAGE( .BOTH., #138 );
#88 = FACE_BOUND( '', #139, .T. );
#89 = FACE_OUTER_BOUND( '', #140, .T. );
#90 = PLANE( '', #141 );
#91 = SURFACE_STYLE_USAGE( .BOTH., #142 );
#92 = FACE_OUTER_BOUND( '', #143, .T. );
#93 = FACE_OUTER_BOUND( '', #144, .T. );
#94 = CYLINDRICAL_SURFACE( '', #145, 4.20000000000000 );
#95 = SURFACE_STYLE_USAGE( .BOTH., #146 );
#96 = FACE_BOUND( '', #147, .T. );
#97 = FACE_OUTER_BOUND( '', #148, .T. );
#98 = PLANE( '', #149 );
#99 = SURFACE_STYLE_USAGE( .BOTH., #150 );
#100 = FACE_OUTER_BOUND( '', #151, .T. );
#101 = PLANE( '', #152 );
#102 = SURFACE_STYLE_USAGE( .BOTH., #153 );
#103 = FACE_BOUND( '', #154, .T. );
#104 = FACE_OUTER_BOUND( '', #155, .T. );
#105 = PLANE( '', #156 );
#106 = SURFACE_STYLE_USAGE( .BOTH., #157 );
#107 = FACE_BOUND( '', #158, .T. );
#108 = FACE_OUTER_BOUND( '', #159, .T. );
#109 = CONICAL_SURFACE( '', #160, 8.90000000000000, 0.785398163400000 );
#110 = SURFACE_STYLE_USAGE( .BOTH., #161 );
#111 = FACE_BOUND( '', #162, .T. );
#112 = FACE_OUTER_BOUND( '', #163, .T. );
#113 = PLANE( '', #164 );
#114 = SURFACE_STYLE_USAGE( .BOTH., #165 );
#115 = FACE_OUTER_BOUND( '', #166, .T. );
#116 = PLANE( '', #167 );
#117 = SURFACE_STYLE_USAGE( .BOTH., #168 );
#118 = FACE_OUTER_BOUND( '', #169, .T. );
#119 = PLANE( '', #170 );
#120 = PRODUCT_CONTEXT( '', #22, 'mechanical' );
#121 = PRODUCT_DEFINITION_FORMATION_WITH_SPECIFIED_SOURCE( ' ', 'NONE', #59, .NOT_KNOWN. );
#122 = CLOSED_SHELL( '', ( #54, #56, #50, #58, #46, #42, #48, #52, #44, #36, #38, #40 ) );
#123 = CARTESIAN_POINT( '', ( 0.000000000000000, 0.000000000000000, 0.000000000000000 ) );
#124 = DIRECTION( '', ( 0.000000000000000, 0.000000000000000, 1.00000000000000 ) );
#125 = DIRECTION( '', ( 1.00000000000000, 0.000000000000000, 0.000000000000000 ) );
#126 =  ( LENGTH_UNIT(  )NAMED_UNIT( #68 )SI_UNIT( .MILLI., .METRE. ) );
#127 = SURFACE_SIDE_STYLE( '', ( #172 ) );
#128 = EDGE_LOOP( '', ( #173, #174, #175, #176, #177, #178 ) );
#129 = AXIS2_PLACEMENT_3D( '', #179, #180, #181 );
#130 = SURFACE_SIDE_STYLE( '', ( #182 ) );
#131 = EDGE_LOOP( '', ( #183 ) );
#132 = EDGE_LOOP( '', ( #184 ) );
#133 = AXIS2_PLACEMENT_3D( '', #185, #186, #187 );
#134 = SURFACE_SIDE_STYLE( '', ( #188 ) );
#135 = EDGE_LOOP( '', ( #189 ) );
#136 = EDGE_LOOP( '', ( #190 ) );
#137 = AXIS2_PLACEMENT_3D( '', #191, #192, #193 );
#138 = SURFACE_SIDE_STYLE( '', ( #194 ) );
#139 = EDGE_LOOP( '', ( #195 ) );
#140 = EDGE_LOOP( '', ( #196, #197, #198, #199 ) );
#141 = AXIS2_PLACEMENT_3D( '', #200, #201, #202 );
#142 = SURFACE_SIDE_STYLE( '', ( #203 ) );
#143 = EDGE_LOOP( '', ( #204 ) );
#144 = EDGE_LOOP( '', ( #205 ) );
#145 = AXIS2_PLACEMENT_3D( '', #206, #207, #208 );
#146 = SURFACE_SIDE_STYLE( '', ( #209 ) );
#147 = EDGE_LOOP( '', ( #210 ) );
#148 = EDGE_LOOP( '', ( #211, #212, #213, #214 ) );
#149 = AXIS2_PLACEMENT_3D( '', #215, #216, #217 );
#150 = SURFACE_SIDE_STYLE( '', ( #218 ) );
#151 = EDGE_LOOP( '', ( #219, #220, #221, #222 ) );
#152 = AXIS2_PLACEMENT_3D( '', #223, #224, #225 );
#153 = SURFACE_SIDE_STYLE( '', ( #226 ) );
#154 = EDGE_LOOP( '', ( #227 ) );
#155 = EDGE_LOOP( '', ( #228, #229, #230, #231 ) );
#156 = AXIS2_PLACEMENT_3D( '', #232, #233, #234 );
#157 = SURFACE_SIDE_STYLE( '', ( #235 ) );
#158 = EDGE_LOOP( '', ( #236 ) );
#159 = EDGE_LOOP( '', ( #237 ) );
#160 = AXIS2_PLACEMENT_3D( '', #238, #239, #240 );
#161 = SURFACE_SIDE_STYLE( '', ( #241 ) );
#162 = EDGE_LOOP( '', ( #242 ) );
#163 = EDGE_LOOP( '', ( #243, #244, #245, #246 ) );
#164 = AXIS2_PLACEMENT_3D( '', #247, #248, #249 );
#165 = SURFACE_SIDE_STYLE( '', ( #250 ) );
#166 = EDGE_LOOP( '', ( #251, #252, #253, #254, #255, #256 ) );
#167 = AXIS2_PLACEMENT_3D( '', #257, #258, #259 );
#168 = SURFACE_SIDE_STYLE( '', ( #260 ) );
#169 = EDGE_LOOP( '', ( #261, #262, #263, #264 ) );
#170 = AXIS2_PLACEMENT_3D( '', #265, #266, #267 );
#172 = SURFACE_STYLE_FILL_AREA( #268 );
#173 = ORIENTED_EDGE( '', *, *, #269, .F. );
#174 = ORIENTED_EDGE( '', *, *, #270, .F. );
#175 = ORIENTED_EDGE( '', *, *, #271, .F. );
#176 = ORIENTED_EDGE( '', *, *, #272, .F. );
#177 = ORIENTED_EDGE( '', *, *, #273, .F. );
#178 = ORIENTED_EDGE( '', *, *, #274, .F. );
#179 = CARTESIAN_POINT( '', ( 0.000000000000000, 0.000000000000000, -20.0000000000000 ) );
#180 = DIRECTION( '', ( 0.000000000000000, 0.000000000000000, 1.00000000000000 ) );
#181 = DIRECTION( '', ( 1.00000000000000, 0.000000000000000, -0.000000000000000 ) );
#182 = SURFACE_STYLE_FILL_AREA( #275 );
#183 = ORIENTED_EDGE( '', *, *, #276, .T. );
#184 = ORIENTED_EDGE( '', *, *, #277, .F. );
#185 = CARTESIAN_POINT( '', ( 5.00000000000000, 20.0000000000000, 0.000000000000000 ) );
#186 = DIRECTION( '', ( -1.00000000000000, -0.000000000000000, 0.000000000000000 ) );
#187 = DIRECTION( '', ( -0.000000000000000, 0.000000000000000, -1.00000000000000 ) );
#188 = SURFACE_STYLE_FILL_AREA( #278 );
#189 = ORIENTED_EDGE( '', *, *, #279, .T. );
#190 = ORIENTED_EDGE( '', *, *, #276, .F. );
#191 = CARTESIAN_POINT( '', ( 0.300000000000001, 20.0000000000000, 0.000000000000000 ) );
#192 = DIRECTION( '', ( 1.00000000000000, -0.000000000000000, -0.000000000000000 ) );
#193 = DIRECTION( '', ( -0.000000000000000, 0.000000000000000, -1.00000000000000 ) );
#194 = SURFACE_STYLE_FILL_AREA( #280 );
#195 = ORIENTED_EDGE( '', *, *, #281, .F. );
#196 = ORIENTED_EDGE( '', *, *, #273, .T. );
#197 = ORIENTED_EDGE( '', *, *, #282, .F. );
#198 = ORIENTED_EDGE( '', *, *, #283, .F. );
#199 = ORIENTED_EDGE( '', *, *, #284, .T. );
#200 = CARTESIAN_POINT( '', ( 0.000000000000000, 0.000000000000000, 20.0000000000000 ) );
#201 = DIRECTION( '', ( 0.000000000000000, 1.00000000000000, 0.000000000000000 ) );
#202 = DIRECTION( '', ( 0.000000000000000, -0.000000000000000, 1.00000000000000 ) );
#203 = SURFACE_STYLE_FILL_AREA( #285 );
#204 = ORIENTED_EDGE( '', *, *, #281, .T. );
#205 = ORIENTED_EDGE( '', *, *, #286, .F. );
#206 = CARTESIAN_POINT( '', ( 20.0000000000000, 0.000000000000000, 0.000000000000000 ) );
#207 = DIRECTION( '', ( -0.000000000000000, 1.00000000000000, 0.000000000000000 ) );
#208 = DIRECTION( '', ( 0.000000000000000, 0.000000000000000, -1.00000000000000 ) );
#209 = SURFACE_STYLE_FILL_AREA( #287 );
#210 = ORIENTED_EDGE( '', *, *, #277, .T. );
#211 = ORIENTED_EDGE( '', *, *, #274, .T. );
#212 = ORIENTED_EDGE( '', *, *, #284, .F. );
#213 = ORIENTED_EDGE( '', *, *, #288, .F. );
#214 = ORIENTED_EDGE( '', *, *, #289, .T. );
#215 = CARTESIAN_POINT( '', ( 0.000000000000000, 40.0000000000000, 20.0000000000000 ) );
#216 = DIRECTION( '', ( 1.00000000000000, 0.000000000000000, -0.000000000000000 ) );
#217 = DIRECTION( '', ( -0.000000000000000, 0.000000000000000, -1.00000000000000 ) );
#218 = SURFACE_STYLE_FILL_AREA( #290 );
#219 = ORIENTED_EDGE( '', *, *, #272, .T. );
#220 = ORIENTED_EDGE( '', *, *, #291, .F. );
#221 = ORIENTED_EDGE( '', *, *, #292, .F. );
#222 = ORIENTED_EDGE( '', *, *, #282, .T. );
#223 = CARTESIAN_POINT( '', ( 40.0000000000000, 0.000000000000000, 20.0000000000000 ) );
#224 = DIRECTION( '', ( -1.00000000000000, 0.000000000000000, 0.000000000000000 ) );
#225 = DIRECTION( '', ( 0.000000000000000, 0.000000000000000, 1.00000000000000 ) );
#226 = SURFACE_STYLE_FILL_AREA( #293 );
#227 = ORIENTED_EDGE( '', *, *, #294, .T. );
#228 = ORIENTED_EDGE( '', *, *, #271, .T. );
#229 = ORIENTED_EDGE( '', *, *, #295, .F. );
#230 = ORIENTED_EDGE( '', *, *, #296, .F. );
#231 = ORIENTED_EDGE( '', *, *, #291, .T. );
#232 = CARTESIAN_POINT( '', ( 40.0000000000000, 5.00000000000000, 20.0000000000000 ) );
#233 = DIRECTION( '', ( 0.000000000000000, -1.00000000000000, 0.000000000000000 ) );
#234 = DIRECTION( '', ( 0.000000000000000, 0.000000000000000, -1.00000000000000 ) );
#235 = SURFACE_STYLE_FILL_AREA( #297 );
#236 = ORIENTED_EDGE( '', *, *, #286, .T. );
#237 = ORIENTED_EDGE( '', *, *, #294, .F. );
#238 = CARTESIAN_POINT( '', ( 20.0000000000000, 5.00000000000000, 0.000000000000000 ) );
#239 = DIRECTION( '', ( -0.000000000000000, 1.00000000000000, 0.000000000000000 ) );
#240 = DIRECTION( '', ( 0.000000000000000, -0.000000000000000, 1.00000000000000 ) );
#241 = SURFACE_STYLE_FILL_AREA( #298 );
#242 = ORIENTED_EDGE( '', *, *, #279, .F. );
#243 = ORIENTED_EDGE( '', *, *, #270, .T. );
#244 = ORIENTED_EDGE( '', *, *, #299, .F. );
#245 = ORIENTED_EDGE( '', *, *, #300, .F. );
#246 = ORIENTED_EDGE( '', *, *, #295, .T. );
#247 = CARTESIAN_POINT( '', ( 5.00000000000000, 5.00000000000000, 20.0000000000000 ) );
#248 = DIRECTION( '', ( -1.00000000000000, 0.000000000000000, 0.000000000000000 ) );
#249 = DIRECTION( '', ( 0.000000000000000, 0.000000000000000, 1.00000000000000 ) );
#250 = SURFACE_STYLE_FILL_AREA( #301 );
#251 = ORIENTED_EDGE( '', *, *, #302, .T. );
#252 = ORIENTED_EDGE( '', *, *, #288, .T. );
#253 = ORIENTED_EDGE( '', *, *, #283, .T. );
#254 = ORIENTED_EDGE( '', *, *, #292, .T. );
#255 = ORIENTED_EDGE( '', *, *, #296, .T. );
#256 = ORIENTED_EDGE( '', *, *, #300, .T. );
#257 = CARTESIAN_POINT( '', ( 0.000000000000000, 0.000000000000000, 20.0000000000000 ) );
#258 = DIRECTION( '', ( 0.000000000000000, 0.000000000000000, 1.00000000000000 ) );
#259 = DIRECTION( '', ( 1.00000000000000, 0.000000000000000, -0.000000000000000 ) );
#260 = SURFACE_STYLE_FILL_AREA( #303 );
#261 = ORIENTED_EDGE( '', *, *, #269, .T. );
#262 = ORIENTED_EDGE( '', *, *, #289, .F. );
#263 = ORIENTED_EDGE( '', *, *, #302, .F. );
#264 = ORIENTED_EDGE( '', *, *, #299, .T. );
#265 = CARTESIAN_POINT( '', ( 5.00000000000000, 40.0000000000000, 20.0000000000000 ) );
#266 = DIRECTION( '', ( 0.000000000000000, -1.00000000000000, 0.000000000000000 ) );
#267 = DIRECTION( '', ( 0.000000000000000, 0.000000000000000, -1.00000000000000 ) );
#268 = FILL_AREA_STYLE( '', ( #304 ) );
#269 = EDGE_CURVE( '', #305, #306, #307, .T. );
#270 = EDGE_CURVE( '', #308, #305, #309, .T. );
#271 = EDGE_CURVE( '', #310, #308, #311, .T. );
#272 = EDGE_CURVE( '', #312, #310, #313, .T. );
#273 = EDGE_CURVE( '', #314, #312, #315, .T. );
#274 = EDGE_CURVE( '', #306, #314, #316, .T. );
#275 = FILL_AREA_STYLE( '', ( #317 ) );
#276 = EDGE_CURVE( '', #318, #318, #319, .T. );
#277 = EDGE_CURVE( '', #320, #320, #321, .T. );
#278 = FILL_AREA_STYLE( '', ( #322 ) );
#279 = EDGE_CURVE( '', #323, #323, #324, .T. );
#280 = FILL_AREA_STYLE( '', ( #325 ) );
#281 = EDGE_CURVE( '', #326, #326, #327, .T. );
#282 = EDGE_CURVE( '', #328, #312, #329, .T. );
#283 = EDGE_CURVE( '', #330, #328, #331, .T. );
#284 = EDGE_CURVE( '', #330, #314, #332, .T. );
#285 = FILL_AREA_STYLE( '', ( #333 ) );
#286 = EDGE_CURVE( '', #334, #334, #335, .T. );
#287 = FILL_AREA_STYLE( '', ( #336 ) );
#288 = EDGE_CURVE( '', #337, #330, #338, .T. );
#289 = EDGE_CURVE( '', #337, #306, #339, .T. );
#290 = FILL_AREA_STYLE( '', ( #340 ) );
#291 = EDGE_CURVE( '', #341, #310, #342, .T. );
#292 = EDGE_CURVE( '', #328, #341, #343, .T. );
#293 = FILL_AREA_STYLE( '', ( #344 ) );
#294 = EDGE_CURVE( '', #345, #345, #346, .T. );
#295 = EDGE_CURVE( '', #347, #308, #348, .T. );
#296 = EDGE_CURVE( '', #341, #347, #349, .T. );
#297 = FILL_AREA_STYLE( '', ( #350 ) );
#298 = FILL_AREA_STYLE( '', ( #351 ) );
#299 = EDGE_CURVE( '', #352, #305, #353, .T. );
#300 = EDGE_CURVE( '', #347, #352, #354, .T. );
#301 = FILL_AREA_STYLE( '', ( #355 ) );
#302 = EDGE_CURVE( '', #352, #337, #356, .T. );
#303 = FILL_AREA_STYLE( '', ( #357 ) );
#304 = FILL_AREA_STYLE_COLOUR( '', #358 );
#305 = VERTEX_POINT( '', #359 );
#306 = VERTEX_POINT( '', #360 );
#307 = LINE( '', #361, #362 );
#308 = VERTEX_POINT( '', #363 );
#309 = LINE( '', #364, #365 );
#310 = VERTEX_POINT( '', #366 );
#311 = LINE( '', #367, #368 );
#312 = VERTEX_POINT( '', #369 );
#313 = LINE( '', #370, #371 );
#314 = VERTEX_POINT( '', #372 );
#315 = LINE( '', #373, #374 );
#316 = LINE( '', #375, #376 );
#317 = FILL_AREA_STYLE_COLOUR( '', #377 );
#318 = VERTEX_POINT( '', #378 );
#319 = CIRCLE( '', #379, 4.20000000000000 );
#320 = VERTEX_POINT( '', #380 );
#321 = CIRCLE( '', #381, 4.20000000000000 );
#322 = FILL_AREA_STYLE_COLOUR( '', #382 );
#323 = VERTEX_POINT( '', #383 );
#324 = CIRCLE( '', #384, 8.90000000000000 );
#325 = FILL_AREA_STYLE_COLOUR( '', #385 );
#326 = VERTEX_POINT( '', #386 );
#327 = CIRCLE( '', #387, 4.20000000000000 );
#328 = VERTEX_POINT( '', #388 );
#329 = LINE( '', #389, #390 );
#330 = VERTEX_POINT( '', #391 );
#331 = LINE( '', #392, #393 );
#332 = LINE( '', #394, #395 );
#333 = FILL_AREA_STYLE_COLOUR( '', #396 );
#334 = VERTEX_POINT( '', #397 );
#335 = CIRCLE( '', #398, 4.20000000000000 );
#336 = FILL_AREA_STYLE_COLOUR( '', #399 );
#337 = VERTEX_POINT( '', #400 );
#338 = LINE( '', #401, #402 );
#339 = LINE( '', #403, #404 );
#340 = FILL_AREA_STYLE_COLOUR( '', #405 );
#341 = VERTEX_POINT( '', #406 );
#342 = LINE( '', #407, #408 );
#343 = LINE( '', #409, #410 );
#344 = FILL_AREA_STYLE_COLOUR( '', #411 );
#345 = VERTEX_POINT( '', #412 );
#346 = CIRCLE( '', #413, 8.90000000000000 );
#347 = VERTEX_POINT( '', #414 );
#348 = LINE( '', #415, #416 );
#349 = LINE( '', #417, #418 );
#350 = FILL_AREA_STYLE_COLOUR( '', #419 );
#351 = FILL_AREA_STYLE_COLOUR( '', #420 );
#352 = VERTEX_POINT( '', #421 );
#353 = LINE( '', #422, #423 );
#354 = LINE( '', #424, #425 );
#355 = FILL_AREA_STYLE_COLOUR( '', #426 );
#356 = LINE( '', #427, #428 );
#357 = FILL_AREA_STYLE_COLOUR( '', #429 );
#358 = COLOUR_RGB( '', 0.689999997600000, 0.689999997600000, 0.689999997600000 );
#359 = CARTESIAN_POINT( '', ( 5.00000000000000, 40.0000000000000, -20.0000000000000 ) );
#360 = CARTESIAN_POINT( '', ( 0.000000000000000, 40.0000000000000, -20.0000000000000 ) );
#361 = CARTESIAN_POINT( '', ( 5.00000000000000, 40.0000000000000, -20.0000000000000 ) );
#362 = VECTOR( '', #430, 1000.00000000000 );
#363 = CARTESIAN_POINT( '', ( 5.00000000000000, 5.00000000000000, -20.0000000000000 ) );
#364 = CARTESIAN_POINT( '', ( 5.00000000000000, 5.00000000000000, -20.0000000000000 ) );
#365 = VECTOR( '', #431, 1000.00000000000 );
#366 = CARTESIAN_POINT( '', ( 40.0000000000000, 5.00000000000000, -20.0000000000000 ) );
#367 = CARTESIAN_POINT( '', ( 40.0000000000000, 5.00000000000000, -20.0000000000000 ) );
#368 = VECTOR( '', #432, 1000.00000000000 );
#369 = CARTESIAN_POINT( '', ( 40.0000000000000, 0.000000000000000, -20.0000000000000 ) );
#370 = CARTESIAN_POINT( '', ( 40.0000000000000, 0.000000000000000, -20.0000000000000 ) );
#371 = VECTOR( '', #433, 1000.00000000000 );
#372 = CARTESIAN_POINT( '', ( 0.000000000000000, 0.000000000000000, -20.0000000000000 ) );
#373 = CARTESIAN_POINT( '', ( 0.000000000000000, 0.000000000000000, -20.0000000000000 ) );
#374 = VECTOR( '', #434, 1000.00000000000 );
#375 = CARTESIAN_POINT( '', ( 0.000000000000000, 40.0000000000000, -20.0000000000000 ) );
#376 = VECTOR( '', #435, 1000.00000000000 );
#377 = COLOUR_RGB( '', 0.689999997600000, 0.689999997600000, 0.689999997600000 );
#378 = CARTESIAN_POINT( '', ( 0.300000000000001, 20.0000000000000, -4.20000000000000 ) );
#379 = AXIS2_PLACEMENT_3D( '', #436, #437, #438 );
#380 = CARTESIAN_POINT( '', ( 3.46944695195361E-15, 20.0000000000000, -4.20000000000000 ) );
#381 = AXIS2_PLACEMENT_3D( '', #439, #440, #441 );
#382 = COLOUR_RGB( '', 0.689999997600000, 0.689999997600000, 0.689999997600000 );
#383 = CARTESIAN_POINT( '', ( 5.00000000000000, 20.0000000000000, -8.90000000000000 ) );
#384 = AXIS2_PLACEMENT_3D( '', #442, #443, #444 );
#385 = COLOUR_RGB( '', 0.689999997600000, 0.689999997600000, 0.689999997600000 );
#386 = CARTESIAN_POINT( '', ( 20.0000000000000, 0.000000000000000, -4.20000000000000 ) );
#387 = AXIS2_PLACEMENT_3D( '', #445, #446, #447 );
#388 = CARTESIAN_POINT( '', ( 40.0000000000000, 0.000000000000000, 20.0000000000000 ) );
#389 = CARTESIAN_POINT( '', ( 40.0000000000000, 0.000000000000000, 20.0000000000000 ) );
#390 = VECTOR( '', #448, 1000.00000000000 );
#391 = CARTESIAN_POINT( '', ( 0.000000000000000, 0.000000000000000, 20.0000000000000 ) );
#392 = CARTESIAN_POINT( '', ( 0.000000000000000, 0.000000000000000, 20.0000000000000 ) );
#393 = VECTOR( '', #449, 1000.00000000000 );
#394 = CARTESIAN_POINT( '', ( 0.000000000000000, 0.000000000000000, 20.0000000000000 ) );
#395 = VECTOR( '', #450, 1000.00000000000 );
#396 = COLOUR_RGB( '', 0.689999997600000, 0.689999997600000, 0.689999997600000 );
#397 = CARTESIAN_POINT( '', ( 20.0000000000000, 0.299999999999999, -4.20000000000000 ) );
#398 = AXIS2_PLACEMENT_3D( '', #451, #452, #453 );
#399 = COLOUR_RGB( '', 0.689999997600000, 0.689999997600000, 0.689999997600000 );
#400 = CARTESIAN_POINT( '', ( 0.000000000000000, 40.0000000000000, 20.0000000000000 ) );
#401 = CARTESIAN_POINT( '', ( 0.000000000000000, 40.0000000000000, 20.0000000000000 ) );
#402 = VECTOR( '', #454, 1000.00000000000 );
#403 = CARTESIAN_POINT( '', ( 0.000000000000000, 40.0000000000000, 20.0000000000000 ) );
#404 = VECTOR( '', #455, 1000.00000000000 );
#405 = COLOUR_RGB( '', 0.689999997600000, 0.689999997600000, 0.689999997600000 );
#406 = CARTESIAN_POINT( '', ( 40.0000000000000, 5.00000000000000, 20.0000000000000 ) );
#407 = CARTESIAN_POINT( '', ( 40.0000000000000, 5.00000000000000, 20.0000000000000 ) );
#408 = VECTOR( '', #456, 1000.00000000000 );
#409 = CARTESIAN_POINT( '', ( 40.0000000000000, 0.000000000000000, 20.0000000000000 ) );
#410 = VECTOR( '', #457, 1000.00000000000 );
#411 = COLOUR_RGB( '', 0.689999997600000, 0.689999997600000, 0.689999997600000 );
#412 = CARTESIAN_POINT( '', ( 20.0000000000000, 5.00000000000000, -8.90000000000000 ) );
#413 = AXIS2_PLACEMENT_3D( '', #458, #459, #460 );
#414 = CARTESIAN_POINT( '', ( 5.00000000000000, 5.00000000000000, 20.0000000000000 ) );
#415 = CARTESIAN_POINT( '', ( 5.00000000000000, 5.00000000000000, 20.0000000000000 ) );
#416 = VECTOR( '', #461, 1000.00000000000 );
#417 = CARTESIAN_POINT( '', ( 40.0000000000000, 5.00000000000000, 20.0000000000000 ) );
#418 = VECTOR( '', #462, 1000.00000000000 );
#419 = COLOUR_RGB( '', 0.689999997600000, 0.689999997600000, 0.689999997600000 );
#420 = COLOUR_RGB( '', 0.689999997600000, 0.689999997600000, 0.689999997600000 );
#421 = CARTESIAN_POINT( '', ( 5.00000000000000, 40.0000000000000, 20.0000000000000 ) );
#422 = CARTESIAN_POINT( '', ( 5.00000000000000, 40.0000000000000, 20.0000000000000 ) );
#423 = VECTOR( '', #463, 1000.00000000000 );
#424 = CARTESIAN_POINT( '', ( 5.00000000000000, 5.00000000000000, 20.0000000000000 ) );
#425 = VECTOR( '', #464, 1000.00000000000 );
#426 = COLOUR_RGB( '', 0.689999997600000, 0.689999997600000, 0.689999997600000 );
#427 = CARTESIAN_POINT( '', ( 5.00000000000000, 40.0000000000000, 20.0000000000000 ) );
#428 = VECTOR( '', #465, 1000.00000000000 );
#429 = COLOUR_RGB( '', 0.689999997600000, 0.689999997600000, 0.689999997600000 );
#430 = DIRECTION( '', ( -1.00000000000000, 0.000000000000000, 0.000000000000000 ) );
#431 = DIRECTION( '', ( 0.000000000000000, 1.00000000000000, 0.000000000000000 ) );
#432 = DIRECTION( '', ( -1.00000000000000, 0.000000000000000, 0.000000000000000 ) );
#433 = DIRECTION( '', ( 0.000000000000000, 1.00000000000000, 0.000000000000000 ) );
#434 = DIRECTION( '', ( 1.00000000000000, 0.000000000000000, 0.000000000000000 ) );
#435 = DIRECTION( '', ( 0.000000000000000, -1.00000000000000, 0.000000000000000 ) );
#436 = CARTESIAN_POINT( '', ( 0.300000000000001, 20.0000000000000, 0.000000000000000 ) );
#437 = DIRECTION( '', ( 1.00000000000000, 0.000000000000000, -0.000000000000000 ) );
#438 = DIRECTION( '', ( -0.000000000000000, 0.000000000000000, -1.00000000000000 ) );
#439 = CARTESIAN_POINT( '', ( 3.46944695195361E-15, 20.0000000000000, 0.000000000000000 ) );
#440 = DIRECTION( '', ( 1.00000000000000, 0.000000000000000, -0.000000000000000 ) );
#441 = DIRECTION( '', ( -0.000000000000000, 0.000000000000000, -1.00000000000000 ) );
#442 = CARTESIAN_POINT( '', ( 5.00000000000000, 20.0000000000000, 0.000000000000000 ) );
#443 = DIRECTION( '', ( 1.00000000000000, 0.000000000000000, -0.000000000000000 ) );
#444 = DIRECTION( '', ( -0.000000000000000, 0.000000000000000, -1.00000000000000 ) );
#445 = CARTESIAN_POINT( '', ( 20.0000000000000, 0.000000000000000, 0.000000000000000 ) );
#446 = DIRECTION( '', ( 0.000000000000000, -1.00000000000000, -0.000000000000000 ) );
#447 = DIRECTION( '', ( 0.000000000000000, 0.000000000000000, -1.00000000000000 ) );
#448 = DIRECTION( '', ( -0.000000000000000, -0.000000000000000, -1.00000000000000 ) );
#449 = DIRECTION( '', ( 1.00000000000000, 0.000000000000000, 0.000000000000000 ) );
#450 = DIRECTION( '', ( -0.000000000000000, -0.000000000000000, -1.00000000000000 ) );
#451 = CARTESIAN_POINT( '', ( 20.0000000000000, 0.299999999999999, 0.000000000000000 ) );
#452 = DIRECTION( '', ( 0.000000000000000, -1.00000000000000, -0.000000000000000 ) );
#453 = DIRECTION( '', ( 0.000000000000000, 0.000000000000000, -1.00000000000000 ) );
#454 = DIRECTION( '', ( 0.000000000000000, -1.00000000000000, 0.000000000000000 ) );
#455 = DIRECTION( '', ( -0.000000000000000, -0.000000000000000, -1.00000000000000 ) );
#456 = DIRECTION( '', ( -0.000000000000000, -0.000000000000000, -1.00000000000000 ) );
#457 = DIRECTION( '', ( 0.000000000000000, 1.00000000000000, 0.000000000000000 ) );
#458 = CARTESIAN_POINT( '', ( 20.0000000000000, 5.00000000000000, 0.000000000000000 ) );
#459 = DIRECTION( '', ( 0.000000000000000, -1.00000000000000, -0.000000000000000 ) );
#460 = DIRECTION( '', ( 0.000000000000000, 0.000000000000000, -1.00000000000000 ) );
#461 = DIRECTION( '', ( -0.000000000000000, -0.000000000000000, -1.00000000000000 ) );
#462 = DIRECTION( '', ( -1.00000000000000, 0.000000000000000, 0.000000000000000 ) );
#463 = DIRECTION( '', ( -0.000000000000000, -0.000000000000000, -1.00000000000000 ) );
#464 = DIRECTION( '', ( 0.000000000000000, 1.00000000000000, 0.000000000000000 ) );
#465 = DIRECTION( '', ( -1.00000000000000, 0.000000000000000, 0.000000000000000 ) );
ENDSEC;
END-ISO-10303-21;
