ISO-10303-21;
HEADER;
FILE_DESCRIPTION( ( 'STEP AP214' ), '1' );
FILE_NAME( '//goodhand-server/Shared Folders/GoodHand Data/Kipp CAD/K0390/K0390.061X40.stp', '2020-12-07T10:15:22', ( '' ), ( '' ), ' ', 'PARTsolutions', ' ' );
FILE_SCHEMA( ( 'AUTOMOTIVE_DESIGN { 1 0 10303 214 1 1 1 1 }' ) );
ENDSEC;
DATA;
#1 = MECHANICAL_DESIGN_GEOMETRIC_PRESENTATION_REPRESENTATION( ' ', ( #10, #11, #12, #13, #14, #15, #16, #17, #18, #19, #20, #21, #22 ), #6 );
#2 = PRODUCT_DEFINITION_CONTEXT( '', #23, 'design' );
#3 = APPLICATION_PROTOCOL_DEFINITION( 'international standard', 'automotive_design', 2001, #23 );
#4 = PRODUCT_CATEGORY_RELATIONSHIP( 'NONE', 'NONE', #24, #25 );
#5 = SHAPE_DEFINITION_REPRESENTATION( #26, #27 );
#6 =  ( GEOMETRIC_REPRESENTATION_CONTEXT( 3 )GLOBAL_UNCERTAINTY_ASSIGNED_CONTEXT( ( #30 ) )GLOBAL_UNIT_ASSIGNED_CONTEXT( ( #32, #33, #34 ) )REPRESENTATION_CONTEXT( 'NONE', 'WORKSPACE' ) );
#10 = STYLED_ITEM( '', ( #36 ), #37 );
#11 = STYLED_ITEM( '', ( #38 ), #39 );
#12 = STYLED_ITEM( '', ( #40 ), #41 );
#13 = STYLED_ITEM( '', ( #42 ), #43 );
#14 = STYLED_ITEM( '', ( #44 ), #45 );
#15 = STYLED_ITEM( '', ( #46 ), #47 );
#16 = STYLED_ITEM( '', ( #48 ), #49 );
#17 = STYLED_ITEM( '', ( #50 ), #51 );
#18 = STYLED_ITEM( '', ( #52 ), #53 );
#19 = STYLED_ITEM( '', ( #54 ), #55 );
#20 = STYLED_ITEM( '', ( #56 ), #57 );
#21 = STYLED_ITEM( '', ( #58 ), #59 );
#22 = STYLED_ITEM( '', ( #60 ), #61 );
#23 = APPLICATION_CONTEXT( 'core data for automotive mechanical design processes' );
#24 = PRODUCT_CATEGORY( 'part', 'NONE' );
#25 = PRODUCT_RELATED_PRODUCT_CATEGORY( 'detail', ' ', ( #62 ) );
#26 = PRODUCT_DEFINITION_SHAPE( 'NONE', 'NONE', #63 );
#27 = ADVANCED_BREP_SHAPE_REPRESENTATION( '_K0390.061X40', ( #64, #65 ), #6 );
#30 = UNCERTAINTY_MEASURE_WITH_UNIT( LENGTH_MEASURE( 0.00100000000000000 ), #32, '', '' );
#32 =  ( CONVERSION_BASED_UNIT( 'MILLIMETRE', #68 )LENGTH_UNIT(  )NAMED_UNIT( #71 ) );
#33 =  ( NAMED_UNIT( #73 )PLANE_ANGLE_UNIT(  )SI_UNIT( $, .RADIAN. ) );
#34 =  ( NAMED_UNIT( #73 )SI_UNIT( $, .STERADIAN. )SOLID_ANGLE_UNIT(  ) );
#36 = PRESENTATION_STYLE_ASSIGNMENT( ( #79 ) );
#37 = ADVANCED_FACE( '', ( #80, #81 ), #82, .T. );
#38 = PRESENTATION_STYLE_ASSIGNMENT( ( #83 ) );
#39 = ADVANCED_FACE( '', ( #84, #85 ), #86, .T. );
#40 = PRESENTATION_STYLE_ASSIGNMENT( ( #87 ) );
#41 = ADVANCED_FACE( '', ( #88 ), #89, .T. );
#42 = PRESENTATION_STYLE_ASSIGNMENT( ( #90 ) );
#43 = ADVANCED_FACE( '', ( #91 ), #92, .F. );
#44 = PRESENTATION_STYLE_ASSIGNMENT( ( #93 ) );
#45 = ADVANCED_FACE( '', ( #94 ), #95, .F. );
#46 = PRESENTATION_STYLE_ASSIGNMENT( ( #96 ) );
#47 = ADVANCED_FACE( '', ( #97 ), #98, .F. );
#48 = PRESENTATION_STYLE_ASSIGNMENT( ( #99 ) );
#49 = ADVANCED_FACE( '', ( #100, #101 ), #102, .T. );
#50 = PRESENTATION_STYLE_ASSIGNMENT( ( #103 ) );
#51 = ADVANCED_FACE( '', ( #104, #105 ), #106, .T. );
#52 = PRESENTATION_STYLE_ASSIGNMENT( ( #107 ) );
#53 = ADVANCED_FACE( '', ( #108, #109 ), #110, .F. );
#54 = PRESENTATION_STYLE_ASSIGNMENT( ( #111 ) );
#55 = ADVANCED_FACE( '', ( #112 ), #113, .T. );
#56 = PRESENTATION_STYLE_ASSIGNMENT( ( #114 ) );
#57 = ADVANCED_FACE( '', ( #115 ), #116, .F. );
#58 = PRESENTATION_STYLE_ASSIGNMENT( ( #117 ) );
#59 = ADVANCED_FACE( '', ( #118, #119 ), #120, .T. );
#60 = PRESENTATION_STYLE_ASSIGNMENT( ( #121 ) );
#61 = ADVANCED_FACE( '', ( #122 ), #123, .T. );
#62 = PRODUCT( '_K0390.061X40', '_K0390.061X40', 'PART-_K0390.061X40-DESC', ( #124 ) );
#63 = PRODUCT_DEFINITION( 'NONE', 'NONE', #125, #2 );
#64 = MANIFOLD_SOLID_BREP( '_K0390.061X40', #126 );
#65 = AXIS2_PLACEMENT_3D( '', #127, #128, #129 );
#68 = LENGTH_MEASURE_WITH_UNIT( LENGTH_MEASURE( 1.00000000000000 ), #130 );
#71 = DIMENSIONAL_EXPONENTS( 1.00000000000000, 0.000000000000000, 0.000000000000000, 0.000000000000000, 0.000000000000000, 0.000000000000000, 0.000000000000000 );
#73 = DIMENSIONAL_EXPONENTS( 0.000000000000000, 0.000000000000000, 0.000000000000000, 0.000000000000000, 0.000000000000000, 0.000000000000000, 0.000000000000000 );
#79 = SURFACE_STYLE_USAGE( .BOTH., #131 );
#80 = FACE_BOUND( '', #132, .T. );
#81 = FACE_OUTER_BOUND( '', #133, .T. );
#82 = CONICAL_SURFACE( '', #134, 3.00000000000000, 1.04717525340000 );
#83 = SURFACE_STYLE_USAGE( .BOTH., #135 );
#84 = FACE_OUTER_BOUND( '', #136, .T. );
#85 = FACE_OUTER_BOUND( '', #137, .T. );
#86 = CYLINDRICAL_SURFACE( '', #138, 3.00000000000000 );
#87 = SURFACE_STYLE_USAGE( .BOTH., #139 );
#88 = FACE_OUTER_BOUND( '', #140, .T. );
#89 = PLANE( '', #141 );
#90 = SURFACE_STYLE_USAGE( .BOTH., #142 );
#91 = FACE_OUTER_BOUND( '', #143, .T. );
#92 = PLANE( '', #144 );
#93 = SURFACE_STYLE_USAGE( .BOTH., #145 );
#94 = FACE_OUTER_BOUND( '', #146, .T. );
#95 = PLANE( '', #147 );
#96 = SURFACE_STYLE_USAGE( .BOTH., #148 );
#97 = FACE_OUTER_BOUND( '', #149, .T. );
#98 = PLANE( '', #150 );
#99 = SURFACE_STYLE_USAGE( .BOTH., #151 );
#100 = FACE_OUTER_BOUND( '', #152, .T. );
#101 = FACE_OUTER_BOUND( '', #153, .T. );
#102 = CYLINDRICAL_SURFACE( '', #154, 2.00000000000000 );
#103 = SURFACE_STYLE_USAGE( .BOTH., #155 );
#104 = FACE_OUTER_BOUND( '', #156, .T. );
#105 = FACE_OUTER_BOUND( '', #157, .T. );
#106 = CYLINDRICAL_SURFACE( '', #158, 2.25000000000000 );
#107 = SURFACE_STYLE_USAGE( .BOTH., #159 );
#108 = FACE_OUTER_BOUND( '', #160, .T. );
#109 = FACE_BOUND( '', #161, .T. );
#110 = PLANE( '', #162 );
#111 = SURFACE_STYLE_USAGE( .BOTH., #163 );
#112 = FACE_OUTER_BOUND( '', #164, .T. );
#113 = CONICAL_SURFACE( '', #165, 2.38650000000000, 0.785398163400000 );
#114 = SURFACE_STYLE_USAGE( .BOTH., #166 );
#115 = FACE_OUTER_BOUND( '', #167, .T. );
#116 = PLANE( '', #168 );
#117 = SURFACE_STYLE_USAGE( .BOTH., #169 );
#118 = FACE_BOUND( '', #170, .T. );
#119 = FACE_OUTER_BOUND( '', #171, .T. );
#120 = SPHERICAL_SURFACE( '', #172, 3.77415000000000 );
#121 = SURFACE_STYLE_USAGE( .BOTH., #173 );
#122 = FACE_OUTER_BOUND( '', #174, .T. );
#123 = CONICAL_SURFACE( '', #175, 2.38650000000000, 0.785398163400000 );
#124 = PRODUCT_CONTEXT( '', #23, 'mechanical' );
#125 = PRODUCT_DEFINITION_FORMATION_WITH_SPECIFIED_SOURCE( ' ', 'NONE', #62, .NOT_KNOWN. );
#126 = CLOSED_SHELL( '', ( #47, #43, #59, #51, #53, #49, #37, #39, #55, #57, #61, #45, #41 ) );
#127 = CARTESIAN_POINT( '', ( 0.000000000000000, 0.000000000000000, 0.000000000000000 ) );
#128 = DIRECTION( '', ( 0.000000000000000, 0.000000000000000, 1.00000000000000 ) );
#129 = DIRECTION( '', ( 1.00000000000000, 0.000000000000000, 0.000000000000000 ) );
#130 =  ( LENGTH_UNIT(  )NAMED_UNIT( #71 )SI_UNIT( .MILLI., .METRE. ) );
#131 = SURFACE_SIDE_STYLE( '', ( #177 ) );
#132 = EDGE_LOOP( '', ( #178 ) );
#133 = EDGE_LOOP( '', ( #179 ) );
#134 = AXIS2_PLACEMENT_3D( '', #180, #181, #182 );
#135 = SURFACE_SIDE_STYLE( '', ( #183 ) );
#136 = EDGE_LOOP( '', ( #184 ) );
#137 = EDGE_LOOP( '', ( #185, #186, #187, #188, #189, #190, #191, #192 ) );
#138 = AXIS2_PLACEMENT_3D( '', #193, #194, #195 );
#139 = SURFACE_SIDE_STYLE( '', ( #196 ) );
#140 = EDGE_LOOP( '', ( #197, #198, #199, #200 ) );
#141 = AXIS2_PLACEMENT_3D( '', #201, #202, #203 );
#142 = SURFACE_SIDE_STYLE( '', ( #204 ) );
#143 = EDGE_LOOP( '', ( #205, #206, #207, #208, #209, #210 ) );
#144 = AXIS2_PLACEMENT_3D( '', #211, #212, #213 );
#145 = SURFACE_SIDE_STYLE( '', ( #214 ) );
#146 = EDGE_LOOP( '', ( #215, #216 ) );
#147 = AXIS2_PLACEMENT_3D( '', #217, #218, #219 );
#148 = SURFACE_SIDE_STYLE( '', ( #220 ) );
#149 = EDGE_LOOP( '', ( #221, #222, #223, #224, #225, #226 ) );
#150 = AXIS2_PLACEMENT_3D( '', #227, #228, #229 );
#151 = SURFACE_SIDE_STYLE( '', ( #230 ) );
#152 = EDGE_LOOP( '', ( #231 ) );
#153 = EDGE_LOOP( '', ( #232 ) );
#154 = AXIS2_PLACEMENT_3D( '', #233, #234, #235 );
#155 = SURFACE_SIDE_STYLE( '', ( #236 ) );
#156 = EDGE_LOOP( '', ( #237 ) );
#157 = EDGE_LOOP( '', ( #238 ) );
#158 = AXIS2_PLACEMENT_3D( '', #239, #240, #241 );
#159 = SURFACE_SIDE_STYLE( '', ( #242 ) );
#160 = EDGE_LOOP( '', ( #243 ) );
#161 = EDGE_LOOP( '', ( #244 ) );
#162 = AXIS2_PLACEMENT_3D( '', #245, #246, #247 );
#163 = SURFACE_SIDE_STYLE( '', ( #248 ) );
#164 = EDGE_LOOP( '', ( #249, #250, #251, #252 ) );
#165 = AXIS2_PLACEMENT_3D( '', #253, #254, #255 );
#166 = SURFACE_SIDE_STYLE( '', ( #256 ) );
#167 = EDGE_LOOP( '', ( #257, #258 ) );
#168 = AXIS2_PLACEMENT_3D( '', #259, #260, #261 );
#169 = SURFACE_SIDE_STYLE( '', ( #262 ) );
#170 = VERTEX_LOOP( '', #263 );
#171 = EDGE_LOOP( '', ( #264 ) );
#172 = AXIS2_PLACEMENT_3D( '', #265, #266, #267 );
#173 = SURFACE_SIDE_STYLE( '', ( #268 ) );
#174 = EDGE_LOOP( '', ( #269, #270, #271, #272 ) );
#175 = AXIS2_PLACEMENT_3D( '', #273, #274, #275 );
#177 = SURFACE_STYLE_FILL_AREA( #276 );
#178 = ORIENTED_EDGE( '', *, *, #277, .F. );
#179 = ORIENTED_EDGE( '', *, *, #278, .T. );
#180 = CARTESIAN_POINT( '', ( 34.0000000000000, -9.64873589805982E-16, 0.000000000000000 ) );
#181 = DIRECTION( '', ( -1.00000000000000, 6.12323399573677E-17, -0.000000000000000 ) );
#182 = DIRECTION( '', ( -6.12323399573677E-17, -1.00000000000000, 0.000000000000000 ) );
#183 = SURFACE_STYLE_FILL_AREA( #279 );
#184 = ORIENTED_EDGE( '', *, *, #278, .F. );
#185 = ORIENTED_EDGE( '', *, *, #280, .T. );
#186 = ORIENTED_EDGE( '', *, *, #281, .T. );
#187 = ORIENTED_EDGE( '', *, *, #282, .F. );
#188 = ORIENTED_EDGE( '', *, *, #283, .T. );
#189 = ORIENTED_EDGE( '', *, *, #284, .T. );
#190 = ORIENTED_EDGE( '', *, *, #285, .T. );
#191 = ORIENTED_EDGE( '', *, *, #286, .F. );
#192 = ORIENTED_EDGE( '', *, *, #287, .T. );
#193 = CARTESIAN_POINT( '', ( 40.0000000000000, -1.33226762955019E-15, 0.000000000000000 ) );
#194 = DIRECTION( '', ( -1.00000000000000, 6.12323399573677E-17, 0.000000000000000 ) );
#195 = DIRECTION( '', ( 6.12323399573677E-17, 1.00000000000000, 0.000000000000000 ) );
#196 = SURFACE_STYLE_FILL_AREA( #288 );
#197 = ORIENTED_EDGE( '', *, *, #282, .T. );
#198 = ORIENTED_EDGE( '', *, *, #289, .T. );
#199 = ORIENTED_EDGE( '', *, *, #286, .T. );
#200 = ORIENTED_EDGE( '', *, *, #290, .T. );
#201 = CARTESIAN_POINT( '', ( 3.00000000000000, 0.000000000000000, 0.000000000000000 ) );
#202 = DIRECTION( '', ( -1.00000000000000, 0.000000000000000, 0.000000000000000 ) );
#203 = DIRECTION( '', ( 0.000000000000000, 0.000000000000000, 1.00000000000000 ) );
#204 = SURFACE_STYLE_FILL_AREA( #291 );
#205 = ORIENTED_EDGE( '', *, *, #292, .T. );
#206 = ORIENTED_EDGE( '', *, *, #293, .F. );
#207 = ORIENTED_EDGE( '', *, *, #287, .F. );
#208 = ORIENTED_EDGE( '', *, *, #289, .F. );
#209 = ORIENTED_EDGE( '', *, *, #281, .F. );
#210 = ORIENTED_EDGE( '', *, *, #294, .F. );
#211 = CARTESIAN_POINT( '', ( 3.00000000000000, -0.899999999999999, -10.5000000000000 ) );
#212 = DIRECTION( '', ( 0.000000000000000, -1.00000000000000, 0.000000000000000 ) );
#213 = DIRECTION( '', ( 0.000000000000000, 0.000000000000000, -1.00000000000000 ) );
#214 = SURFACE_STYLE_FILL_AREA( #295 );
#215 = ORIENTED_EDGE( '', *, *, #296, .F. );
#216 = ORIENTED_EDGE( '', *, *, #297, .F. );
#217 = CARTESIAN_POINT( '', ( -7.30654896541290E-17, 1.11702596874452E-15, 0.000000000000000 ) );
#218 = DIRECTION( '', ( 1.00000000000000, -6.12323399573677E-17, -0.000000000000000 ) );
#219 = DIRECTION( '', ( 6.12323399573677E-17, 1.00000000000000, 0.000000000000000 ) );
#220 = SURFACE_STYLE_FILL_AREA( #298 );
#221 = ORIENTED_EDGE( '', *, *, #299, .F. );
#222 = ORIENTED_EDGE( '', *, *, #297, .T. );
#223 = ORIENTED_EDGE( '', *, *, #300, .F. );
#224 = ORIENTED_EDGE( '', *, *, #283, .F. );
#225 = ORIENTED_EDGE( '', *, *, #290, .F. );
#226 = ORIENTED_EDGE( '', *, *, #285, .F. );
#227 = CARTESIAN_POINT( '', ( 3.00000000000000, 0.900000000000001, 10.5000000000000 ) );
#228 = DIRECTION( '', ( 0.000000000000000, 1.00000000000000, 0.000000000000000 ) );
#229 = DIRECTION( '', ( 0.000000000000000, -0.000000000000000, 1.00000000000000 ) );
#230 = SURFACE_STYLE_FILL_AREA( #301 );
#231 = ORIENTED_EDGE( '', *, *, #302, .F. );
#232 = ORIENTED_EDGE( '', *, *, #277, .T. );
#233 = CARTESIAN_POINT( '', ( 40.0000000000000, -1.33226762955019E-15, 0.000000000000000 ) );
#234 = DIRECTION( '', ( -1.00000000000000, 6.12323399573677E-17, 0.000000000000000 ) );
#235 = DIRECTION( '', ( 6.12323399573677E-17, 1.00000000000000, 0.000000000000000 ) );
#236 = SURFACE_STYLE_FILL_AREA( #303 );
#237 = ORIENTED_EDGE( '', *, *, #304, .F. );
#238 = ORIENTED_EDGE( '', *, *, #305, .T. );
#239 = CARTESIAN_POINT( '', ( 40.0000000000000, -1.33226762955019E-15, 0.000000000000000 ) );
#240 = DIRECTION( '', ( -1.00000000000000, 6.12323399573676E-17, 0.000000000000000 ) );
#241 = DIRECTION( '', ( 6.12323399573676E-17, 1.00000000000000, 0.000000000000000 ) );
#242 = SURFACE_STYLE_FILL_AREA( #306 );
#243 = ORIENTED_EDGE( '', *, *, #305, .F. );
#244 = ORIENTED_EDGE( '', *, *, #302, .T. );
#245 = CARTESIAN_POINT( '', ( 37.5000000000000, 2.00000000000000, 0.000000000000000 ) );
#246 = DIRECTION( '', ( 1.00000000000000, -6.12323399573677E-17, -0.000000000000000 ) );
#247 = DIRECTION( '', ( 6.12323399573677E-17, 1.00000000000000, 0.000000000000000 ) );
#248 = SURFACE_STYLE_FILL_AREA( #307 );
#249 = ORIENTED_EDGE( '', *, *, #296, .T. );
#250 = ORIENTED_EDGE( '', *, *, #299, .T. );
#251 = ORIENTED_EDGE( '', *, *, #284, .F. );
#252 = ORIENTED_EDGE( '', *, *, #300, .T. );
#253 = CARTESIAN_POINT( '', ( 0.000000000000000, 1.11702596874452E-15, 0.000000000000000 ) );
#254 = DIRECTION( '', ( 1.00000000000000, -6.12323399573677E-17, -0.000000000000000 ) );
#255 = DIRECTION( '', ( 6.12323399573676E-17, 1.00000000000000, 0.000000000000000 ) );
#256 = SURFACE_STYLE_FILL_AREA( #308 );
#257 = ORIENTED_EDGE( '', *, *, #309, .F. );
#258 = ORIENTED_EDGE( '', *, *, #292, .F. );
#259 = CARTESIAN_POINT( '', ( -7.30654896541290E-17, 1.11702596874452E-15, 0.000000000000000 ) );
#260 = DIRECTION( '', ( 1.00000000000000, -6.12323399573677E-17, -0.000000000000000 ) );
#261 = DIRECTION( '', ( 6.12323399573677E-17, 1.00000000000000, 0.000000000000000 ) );
#262 = SURFACE_STYLE_FILL_AREA( #310 );
#263 = VERTEX_POINT( '', #311 );
#264 = ORIENTED_EDGE( '', *, *, #304, .T. );
#265 = CARTESIAN_POINT( '', ( 36.2258500000000, 1.40946282423116E-14, 0.000000000000000 ) );
#266 = DIRECTION( '', ( 1.00000000000000, 0.000000000000000, 0.000000000000000 ) );
#267 = DIRECTION( '', ( 0.000000000000000, -1.00000000000000, 0.000000000000000 ) );
#268 = SURFACE_STYLE_FILL_AREA( #312 );
#269 = ORIENTED_EDGE( '', *, *, #280, .F. );
#270 = ORIENTED_EDGE( '', *, *, #293, .T. );
#271 = ORIENTED_EDGE( '', *, *, #309, .T. );
#272 = ORIENTED_EDGE( '', *, *, #294, .T. );
#273 = CARTESIAN_POINT( '', ( 0.000000000000000, 1.11702596874452E-15, 0.000000000000000 ) );
#274 = DIRECTION( '', ( 1.00000000000000, -6.12323399573677E-17, -0.000000000000000 ) );
#275 = DIRECTION( '', ( 6.12323399573676E-17, 1.00000000000000, 0.000000000000000 ) );
#276 = FILL_AREA_STYLE( '', ( #313 ) );
#277 = EDGE_CURVE( '', #314, #314, #315, .T. );
#278 = EDGE_CURVE( '', #316, #316, #317, .T. );
#279 = FILL_AREA_STYLE( '', ( #318 ) );
#280 = EDGE_CURVE( '', #319, #320, #321, .T. );
#281 = EDGE_CURVE( '', #320, #322, #323, .T. );
#282 = EDGE_CURVE( '', #324, #322, #325, .T. );
#283 = EDGE_CURVE( '', #324, #326, #327, .F. );
#284 = EDGE_CURVE( '', #326, #328, #329, .T. );
#285 = EDGE_CURVE( '', #328, #330, #331, .T. );
#286 = EDGE_CURVE( '', #332, #330, #333, .T. );
#287 = EDGE_CURVE( '', #332, #319, #334, .F. );
#288 = FILL_AREA_STYLE( '', ( #335 ) );
#289 = EDGE_CURVE( '', #322, #332, #336, .T. );
#290 = EDGE_CURVE( '', #330, #324, #337, .T. );
#291 = FILL_AREA_STYLE( '', ( #338 ) );
#292 = EDGE_CURVE( '', #339, #340, #341, .T. );
#293 = EDGE_CURVE( '', #319, #340, #342, .T. );
#294 = EDGE_CURVE( '', #339, #320, #343, .T. );
#295 = FILL_AREA_STYLE( '', ( #344 ) );
#296 = EDGE_CURVE( '', #345, #346, #347, .T. );
#297 = EDGE_CURVE( '', #346, #345, #348, .T. );
#298 = FILL_AREA_STYLE( '', ( #349 ) );
#299 = EDGE_CURVE( '', #346, #328, #350, .T. );
#300 = EDGE_CURVE( '', #326, #345, #351, .T. );
#301 = FILL_AREA_STYLE( '', ( #352 ) );
#302 = EDGE_CURVE( '', #353, #353, #354, .T. );
#303 = FILL_AREA_STYLE( '', ( #355 ) );
#304 = EDGE_CURVE( '', #356, #356, #357, .T. );
#305 = EDGE_CURVE( '', #358, #358, #359, .T. );
#306 = FILL_AREA_STYLE( '', ( #360 ) );
#307 = FILL_AREA_STYLE( '', ( #361 ) );
#308 = FILL_AREA_STYLE( '', ( #362 ) );
#309 = EDGE_CURVE( '', #340, #339, #363, .T. );
#310 = FILL_AREA_STYLE( '', ( #364 ) );
#311 = CARTESIAN_POINT( '', ( 40.0000000000000, 1.36324281706114E-14, 0.000000000000000 ) );
#312 = FILL_AREA_STYLE( '', ( #365 ) );
#313 = FILL_AREA_STYLE_COLOUR( '', #366 );
#314 = VERTEX_POINT( '', #367 );
#315 = CIRCLE( '', #368, 2.00000000000000 );
#316 = VERTEX_POINT( '', #369 );
#317 = CIRCLE( '', #370, 3.00000000000000 );
#318 = FILL_AREA_STYLE_COLOUR( '', #371 );
#319 = VERTEX_POINT( '', #372 );
#320 = VERTEX_POINT( '', #373 );
#321 = CIRCLE( '', #374, 3.00000000000000 );
#322 = VERTEX_POINT( '', #375 );
#323 = LINE( '', #376, #377 );
#324 = VERTEX_POINT( '', #378 );
#325 = CIRCLE( '', #379, 3.00000000000000 );
#326 = VERTEX_POINT( '', #380 );
#327 = LINE( '', #381, #382 );
#328 = VERTEX_POINT( '', #383 );
#329 = CIRCLE( '', #384, 3.00000000000000 );
#330 = VERTEX_POINT( '', #385 );
#331 = LINE( '', #386, #387 );
#332 = VERTEX_POINT( '', #388 );
#333 = CIRCLE( '', #389, 3.00000000000000 );
#334 = LINE( '', #390, #391 );
#335 = FILL_AREA_STYLE_COLOUR( '', #392 );
#336 = LINE( '', #393, #394 );
#337 = LINE( '', #395, #396 );
#338 = FILL_AREA_STYLE_COLOUR( '', #397 );
#339 = VERTEX_POINT( '', #398 );
#340 = VERTEX_POINT( '', #399 );
#341 = LINE( '', #400, #401 );
#342 = B_SPLINE_CURVE_WITH_KNOTS( '', 3, ( #402, #403, #404, #405 ), .UNSPECIFIED., .F., .F., ( 4, 4 ), ( 0.00517174792821181, 0.00606665925501704 ), .UNSPECIFIED. );
#343 = B_SPLINE_CURVE_WITH_KNOTS( '', 3, ( #406, #407, #408, #409 ), .UNSPECIFIED., .F., .F., ( 4, 4 ), ( 0.0114683889299691, 0.0123621468805004 ), .UNSPECIFIED. );
#344 = FILL_AREA_STYLE_COLOUR( '', #410 );
#345 = VERTEX_POINT( '', #411 );
#346 = VERTEX_POINT( '', #412 );
#347 = CIRCLE( '', #413, 2.38650000000000 );
#348 = LINE( '', #414, #415 );
#349 = FILL_AREA_STYLE_COLOUR( '', #416 );
#350 = B_SPLINE_CURVE_WITH_KNOTS( '', 3, ( #417, #418, #419, #420 ), .UNSPECIFIED., .F., .F., ( 4, 4 ), ( 0.0114683889299691, 0.0123621468805004 ), .UNSPECIFIED. );
#351 = B_SPLINE_CURVE_WITH_KNOTS( '', 3, ( #421, #422, #423, #424 ), .UNSPECIFIED., .F., .F., ( 4, 4 ), ( 0.00517174792821181, 0.00606665925501704 ), .UNSPECIFIED. );
#352 = FILL_AREA_STYLE_COLOUR( '', #425 );
#353 = VERTEX_POINT( '', #426 );
#354 = CIRCLE( '', #427, 2.00000000000000 );
#355 = FILL_AREA_STYLE_COLOUR( '', #428 );
#356 = VERTEX_POINT( '', #429 );
#357 = CIRCLE( '', #430, 2.25000000000000 );
#358 = VERTEX_POINT( '', #431 );
#359 = CIRCLE( '', #432, 2.25000000000000 );
#360 = FILL_AREA_STYLE_COLOUR( '', #433 );
#361 = FILL_AREA_STYLE_COLOUR( '', #434 );
#362 = FILL_AREA_STYLE_COLOUR( '', #435 );
#363 = CIRCLE( '', #436, 2.38650000000000 );
#364 = FILL_AREA_STYLE_COLOUR( '', #437 );
#365 = FILL_AREA_STYLE_COLOUR( '', #438 );
#366 = COLOUR_RGB( '', 0.689999997600000, 0.689999997600000, 0.689999997600000 );
#367 = CARTESIAN_POINT( '', ( 34.5773800000000, 2.00000000000000, 0.000000000000000 ) );
#368 = AXIS2_PLACEMENT_3D( '', #439, #440, #441 );
#369 = CARTESIAN_POINT( '', ( 34.0000000000000, 3.00000000000000, 0.000000000000000 ) );
#370 = AXIS2_PLACEMENT_3D( '', #442, #443, #444 );
#371 = COLOUR_RGB( '', 0.689999997600000, 0.689999997600000, 0.689999997600000 );
#372 = CARTESIAN_POINT( '', ( 0.613500000000003, -0.899999999999997, 2.86181760425084 ) );
#373 = CARTESIAN_POINT( '', ( 0.613500000000003, -0.899999999999997, -2.86181760425084 ) );
#374 = AXIS2_PLACEMENT_3D( '', #445, #446, #447 );
#375 = CARTESIAN_POINT( '', ( 3.00000000000000, -0.899999999999999, -2.86181760425084 ) );
#376 = CARTESIAN_POINT( '', ( 40.0000000000000, -0.899999999999999, -2.86181760425084 ) );
#377 = VECTOR( '', #448, 1000.00000000000 );
#378 = CARTESIAN_POINT( '', ( 3.00000000000000, 0.900000000000001, -2.86181760425084 ) );
#379 = AXIS2_PLACEMENT_3D( '', #449, #450, #451 );
#380 = CARTESIAN_POINT( '', ( 0.613500000000003, 0.900000000000004, -2.86181760425084 ) );
#381 = CARTESIAN_POINT( '', ( 40.0000000000000, 0.900000000000001, -2.86181760425084 ) );
#382 = VECTOR( '', #452, 1000.00000000000 );
#383 = CARTESIAN_POINT( '', ( 0.613500000000003, 0.900000000000004, 2.86181760425084 ) );
#384 = AXIS2_PLACEMENT_3D( '', #453, #454, #455 );
#385 = CARTESIAN_POINT( '', ( 3.00000000000000, 0.900000000000001, 2.86181760425084 ) );
#386 = CARTESIAN_POINT( '', ( 40.0000000000000, 0.900000000000001, 2.86181760425084 ) );
#387 = VECTOR( '', #456, 1000.00000000000 );
#388 = CARTESIAN_POINT( '', ( 3.00000000000000, -0.899999999999999, 2.86181760425084 ) );
#389 = AXIS2_PLACEMENT_3D( '', #457, #458, #459 );
#390 = CARTESIAN_POINT( '', ( 40.0000000000000, -0.899999999999999, 2.86181760425084 ) );
#391 = VECTOR( '', #460, 1000.00000000000 );
#392 = COLOUR_RGB( '', 0.689999997600000, 0.689999997600000, 0.689999997600000 );
#393 = CARTESIAN_POINT( '', ( 3.00000000000000, -0.899999999999999, -10.5000000000000 ) );
#394 = VECTOR( '', #461, 1000.00000000000 );
#395 = CARTESIAN_POINT( '', ( 3.00000000000000, 0.900000000000001, 10.5000000000000 ) );
#396 = VECTOR( '', #462, 1000.00000000000 );
#397 = COLOUR_RGB( '', 0.689999997600000, 0.689999997600000, 0.689999997600000 );
#398 = CARTESIAN_POINT( '', ( 0.000000000000000, -0.899999999999999, -2.21029008277194 ) );
#399 = CARTESIAN_POINT( '', ( 0.000000000000000, -0.899999999999999, 2.21029008277194 ) );
#400 = CARTESIAN_POINT( '', ( 0.000000000000000, -0.899999999999999, -10.5000000000000 ) );
#401 = VECTOR( '', #463, 1000.00000000000 );
#402 = CARTESIAN_POINT( '', ( 0.613500000000002, -0.899999999999999, 2.86181760425084 ) );
#403 = CARTESIAN_POINT( '', ( 0.407595119446491, -0.899999999999999, 2.64597064015955 ) );
#404 = CARTESIAN_POINT( '', ( 0.202709233475277, -0.899999999999999, 2.42915980917548 ) );
#405 = CARTESIAN_POINT( '', ( 1.94814099686095E-17, -0.899999999999999, 2.21029008277194 ) );
#406 = CARTESIAN_POINT( '', ( -3.13332474668089E-16, -0.899999999999999, -2.21029008277194 ) );
#407 = CARTESIAN_POINT( '', ( 0.202635101633544, -0.899999999999999, -2.42907976735578 ) );
#408 = CARTESIAN_POINT( '', ( 0.407562831349363, -0.899999999999999, -2.64593679303693 ) );
#409 = CARTESIAN_POINT( '', ( 0.613500000000003, -0.899999999999999, -2.86181760425084 ) );
#410 = COLOUR_RGB( '', 0.689999997600000, 0.689999997600000, 0.689999997600000 );
#411 = CARTESIAN_POINT( '', ( 0.000000000000000, 0.900000000000001, -2.21029008277194 ) );
#412 = CARTESIAN_POINT( '', ( 0.000000000000000, 0.900000000000001, 2.21029008277194 ) );
#413 = AXIS2_PLACEMENT_3D( '', #464, #465, #466 );
#414 = CARTESIAN_POINT( '', ( 0.000000000000000, 0.900000000000001, 10.5000000000000 ) );
#415 = VECTOR( '', #467, 1000.00000000000 );
#416 = COLOUR_RGB( '', 0.689999997600000, 0.689999997600000, 0.689999997600000 );
#417 = CARTESIAN_POINT( '', ( -4.71675497576659E-16, 0.900000000000001, 2.21029008277194 ) );
#418 = CARTESIAN_POINT( '', ( 0.202635101633544, 0.900000000000001, 2.42907976735578 ) );
#419 = CARTESIAN_POINT( '', ( 0.407562831349363, 0.900000000000001, 2.64593679303693 ) );
#420 = CARTESIAN_POINT( '', ( 0.613500000000003, 0.900000000000001, 2.86181760425084 ) );
#421 = CARTESIAN_POINT( '', ( 0.613500000000003, 0.900000000000001, -2.86181760425084 ) );
#422 = CARTESIAN_POINT( '', ( 0.407595119446492, 0.900000000000001, -2.64597064015955 ) );
#423 = CARTESIAN_POINT( '', ( 0.202709233475278, 0.900000000000001, -2.42915980917548 ) );
#424 = CARTESIAN_POINT( '', ( 9.65343384610618E-16, 0.900000000000001, -2.21029008277194 ) );
#425 = COLOUR_RGB( '', 0.689999997600000, 0.689999997600000, 0.689999997600000 );
#426 = CARTESIAN_POINT( '', ( 37.5000000000000, 2.00000000000000, 0.000000000000000 ) );
#427 = AXIS2_PLACEMENT_3D( '', #468, #469, #470 );
#428 = COLOUR_RGB( '', 0.689999997600000, 0.689999997600000, 0.689999997600000 );
#429 = CARTESIAN_POINT( '', ( 39.2559833671144, 2.25000000000000, 0.000000000000000 ) );
#430 = AXIS2_PLACEMENT_3D( '', #471, #472, #473 );
#431 = CARTESIAN_POINT( '', ( 37.5000000000000, 2.25000000000000, 0.000000000000000 ) );
#432 = AXIS2_PLACEMENT_3D( '', #474, #475, #476 );
#433 = COLOUR_RGB( '', 0.689999997600000, 0.689999997600000, 0.689999997600000 );
#434 = COLOUR_RGB( '', 0.689999997600000, 0.689999997600000, 0.689999997600000 );
#435 = COLOUR_RGB( '', 0.689999997600000, 0.689999997600000, 0.689999997600000 );
#436 = AXIS2_PLACEMENT_3D( '', #477, #478, #479 );
#437 = COLOUR_RGB( '', 0.689999997600000, 0.689999997600000, 0.689999997600000 );
#438 = COLOUR_RGB( '', 0.689999997600000, 0.689999997600000, 0.689999997600000 );
#439 = CARTESIAN_POINT( '', ( 34.5773800000000, -1.00022791825057E-15, 0.000000000000000 ) );
#440 = DIRECTION( '', ( 1.00000000000000, -6.12323399573677E-17, -0.000000000000000 ) );
#441 = DIRECTION( '', ( 6.12323399573677E-17, 1.00000000000000, 0.000000000000000 ) );
#442 = CARTESIAN_POINT( '', ( 34.0000000000000, -9.64873589805982E-16, 0.000000000000000 ) );
#443 = DIRECTION( '', ( 1.00000000000000, -6.12323399573677E-17, -0.000000000000000 ) );
#444 = DIRECTION( '', ( 6.12323399573677E-17, 1.00000000000000, 0.000000000000000 ) );
#445 = CARTESIAN_POINT( '', ( 0.613500000000003, 1.07945992818067E-15, 0.000000000000000 ) );
#446 = DIRECTION( '', ( 1.00000000000000, -6.12323399573677E-17, -0.000000000000000 ) );
#447 = DIRECTION( '', ( 6.12323399573677E-17, 1.00000000000000, 0.000000000000000 ) );
#448 = DIRECTION( '', ( 1.00000000000000, -6.12323399573677E-17, -0.000000000000000 ) );
#449 = CARTESIAN_POINT( '', ( 3.00000000000000, 9.33328948872416E-16, 0.000000000000000 ) );
#450 = DIRECTION( '', ( -1.00000000000000, 0.000000000000000, 0.000000000000000 ) );
#451 = DIRECTION( '', ( 0.000000000000000, 0.000000000000000, 1.00000000000000 ) );
#452 = DIRECTION( '', ( 1.00000000000000, -6.12323399573677E-17, -0.000000000000000 ) );
#453 = CARTESIAN_POINT( '', ( 0.613500000000003, 1.07945992818067E-15, 0.000000000000000 ) );
#454 = DIRECTION( '', ( 1.00000000000000, -6.12323399573677E-17, -0.000000000000000 ) );
#455 = DIRECTION( '', ( 6.12323399573677E-17, 1.00000000000000, 0.000000000000000 ) );
#456 = DIRECTION( '', ( 1.00000000000000, -6.12323399573677E-17, -0.000000000000000 ) );
#457 = CARTESIAN_POINT( '', ( 3.00000000000000, 9.33328948872416E-16, 0.000000000000000 ) );
#458 = DIRECTION( '', ( -1.00000000000000, 0.000000000000000, 0.000000000000000 ) );
#459 = DIRECTION( '', ( 0.000000000000000, 0.000000000000000, 1.00000000000000 ) );
#460 = DIRECTION( '', ( 1.00000000000000, -6.12323399573677E-17, -0.000000000000000 ) );
#461 = DIRECTION( '', ( 0.000000000000000, 0.000000000000000, 1.00000000000000 ) );
#462 = DIRECTION( '', ( 0.000000000000000, 0.000000000000000, -1.00000000000000 ) );
#463 = DIRECTION( '', ( 0.000000000000000, 0.000000000000000, 1.00000000000000 ) );
#464 = CARTESIAN_POINT( '', ( 0.000000000000000, 1.11702596874452E-15, 0.000000000000000 ) );
#465 = DIRECTION( '', ( 1.00000000000000, -6.12323399573677E-17, -0.000000000000000 ) );
#466 = DIRECTION( '', ( 6.12323399573676E-17, 1.00000000000000, 0.000000000000000 ) );
#467 = DIRECTION( '', ( 0.000000000000000, 0.000000000000000, -1.00000000000000 ) );
#468 = CARTESIAN_POINT( '', ( 37.5000000000000, -1.17918677965677E-15, 0.000000000000000 ) );
#469 = DIRECTION( '', ( 1.00000000000000, -6.12323399573677E-17, -0.000000000000000 ) );
#470 = DIRECTION( '', ( 6.12323399573677E-17, 1.00000000000000, 0.000000000000000 ) );
#471 = CARTESIAN_POINT( '', ( 39.2559833671144, -1.28670975015140E-15, 0.000000000000000 ) );
#472 = DIRECTION( '', ( 1.00000000000000, -6.12323399573676E-17, -0.000000000000000 ) );
#473 = DIRECTION( '', ( 6.12323399573676E-17, 1.00000000000000, 0.000000000000000 ) );
#474 = CARTESIAN_POINT( '', ( 37.5000000000000, -1.17918677965677E-15, 0.000000000000000 ) );
#475 = DIRECTION( '', ( 1.00000000000000, -6.12323399573676E-17, -0.000000000000000 ) );
#476 = DIRECTION( '', ( 6.12323399573676E-17, 1.00000000000000, 0.000000000000000 ) );
#477 = CARTESIAN_POINT( '', ( 0.000000000000000, 1.11702596874452E-15, 0.000000000000000 ) );
#478 = DIRECTION( '', ( 1.00000000000000, -6.12323399573677E-17, -0.000000000000000 ) );
#479 = DIRECTION( '', ( 6.12323399573676E-17, 1.00000000000000, 0.000000000000000 ) );
ENDSEC;
END-ISO-10303-21;
