ISO-10303-21;
HEADER;
FILE_DESCRIPTION( ( 'STEP AP214' ), '1' );
FILE_NAME( '//goodhand-server/Shared Folders/GoodHand Data/Kipp CAD/K1154/K1154.1281430.stp', '2020-12-10T10:26:53', ( '' ), ( '' ), ' ', 'PARTsolutions', ' ' );
FILE_SCHEMA( ( 'AUTOMOTIVE_DESIGN { 1 0 10303 214 1 1 1 1 }' ) );
ENDSEC;
DATA;
#1 = MECHANICAL_DESIGN_GEOMETRIC_PRESENTATION_REPRESENTATION( ' ', ( #10, #11, #12, #13, #14, #15, #16, #17, #18, #19, #20 ), #6 );
#2 = PRODUCT_DEFINITION_CONTEXT( '', #21, 'design' );
#3 = APPLICATION_PROTOCOL_DEFINITION( 'international standard', 'automotive_design', 2001, #21 );
#4 = PRODUCT_CATEGORY_RELATIONSHIP( 'NONE', 'NONE', #22, #23 );
#5 = SHAPE_DEFINITION_REPRESENTATION( #24, #25 );
#6 =  ( GEOMETRIC_REPRESENTATION_CONTEXT( 3 )GLOBAL_UNCERTAINTY_ASSIGNED_CONTEXT( ( #28 ) )GLOBAL_UNIT_ASSIGNED_CONTEXT( ( #30, #31, #32 ) )REPRESENTATION_CONTEXT( 'NONE', 'WORKSPACE' ) );
#10 = STYLED_ITEM( '', ( #34 ), #35 );
#11 = STYLED_ITEM( '', ( #36 ), #37 );
#12 = STYLED_ITEM( '', ( #38 ), #39 );
#13 = STYLED_ITEM( '', ( #40 ), #41 );
#14 = STYLED_ITEM( '', ( #42 ), #43 );
#15 = STYLED_ITEM( '', ( #44 ), #45 );
#16 = STYLED_ITEM( '', ( #46 ), #47 );
#17 = STYLED_ITEM( '', ( #48 ), #49 );
#18 = STYLED_ITEM( '', ( #50 ), #51 );
#19 = STYLED_ITEM( '', ( #52 ), #53 );
#20 = STYLED_ITEM( '', ( #54 ), #55 );
#21 = APPLICATION_CONTEXT( 'core data for automotive mechanical design processes' );
#22 = PRODUCT_CATEGORY( 'part', 'NONE' );
#23 = PRODUCT_RELATED_PRODUCT_CATEGORY( 'detail', ' ', ( #56 ) );
#24 = PRODUCT_DEFINITION_SHAPE( 'NONE', 'NONE', #57 );
#25 = ADVANCED_BREP_SHAPE_REPRESENTATION( '_K1154.1281430', ( #58, #59 ), #6 );
#28 = UNCERTAINTY_MEASURE_WITH_UNIT( LENGTH_MEASURE( 0.00100000000000000 ), #30, '', '' );
#30 =  ( CONVERSION_BASED_UNIT( 'MILLIMETRE', #62 )LENGTH_UNIT(  )NAMED_UNIT( #65 ) );
#31 =  ( NAMED_UNIT( #67 )PLANE_ANGLE_UNIT(  )SI_UNIT( $, .RADIAN. ) );
#32 =  ( NAMED_UNIT( #67 )SI_UNIT( $, .STERADIAN. )SOLID_ANGLE_UNIT(  ) );
#34 = PRESENTATION_STYLE_ASSIGNMENT( ( #73 ) );
#35 = ADVANCED_FACE( '', ( #74, #75 ), #76, .F. );
#36 = PRESENTATION_STYLE_ASSIGNMENT( ( #77 ) );
#37 = ADVANCED_FACE( '', ( #78, #79 ), #80, .F. );
#38 = PRESENTATION_STYLE_ASSIGNMENT( ( #81 ) );
#39 = ADVANCED_FACE( '', ( #82, #83 ), #84, .F. );
#40 = PRESENTATION_STYLE_ASSIGNMENT( ( #85 ) );
#41 = ADVANCED_FACE( '', ( #86, #87 ), #88, .F. );
#42 = PRESENTATION_STYLE_ASSIGNMENT( ( #89 ) );
#43 = ADVANCED_FACE( '', ( #90, #91 ), #92, .T. );
#44 = PRESENTATION_STYLE_ASSIGNMENT( ( #93 ) );
#45 = ADVANCED_FACE( '', ( #94, #95 ), #96, .T. );
#46 = PRESENTATION_STYLE_ASSIGNMENT( ( #97 ) );
#47 = ADVANCED_FACE( '', ( #98 ), #99, .T. );
#48 = PRESENTATION_STYLE_ASSIGNMENT( ( #100 ) );
#49 = ADVANCED_FACE( '', ( #101, #102 ), #103, .T. );
#50 = PRESENTATION_STYLE_ASSIGNMENT( ( #104 ) );
#51 = ADVANCED_FACE( '', ( #105, #106, #107, #108, #109 ), #110, .F. );
#52 = PRESENTATION_STYLE_ASSIGNMENT( ( #111 ) );
#53 = ADVANCED_FACE( '', ( #112, #113, #114, #115 ), #116, .F. );
#54 = PRESENTATION_STYLE_ASSIGNMENT( ( #117 ) );
#55 = ADVANCED_FACE( '', ( #118, #119 ), #120, .T. );
#56 = PRODUCT( '_K1154.1281430', '_K1154.1281430', 'PART-_K1154.1281430-DESC', ( #121 ) );
#57 = PRODUCT_DEFINITION( 'NONE', 'NONE', #122, #2 );
#58 = MANIFOLD_SOLID_BREP( '_K1154.1281430', #123 );
#59 = AXIS2_PLACEMENT_3D( '', #124, #125, #126 );
#62 = LENGTH_MEASURE_WITH_UNIT( LENGTH_MEASURE( 1.00000000000000 ), #127 );
#65 = DIMENSIONAL_EXPONENTS( 1.00000000000000, 0.000000000000000, 0.000000000000000, 0.000000000000000, 0.000000000000000, 0.000000000000000, 0.000000000000000 );
#67 = DIMENSIONAL_EXPONENTS( 0.000000000000000, 0.000000000000000, 0.000000000000000, 0.000000000000000, 0.000000000000000, 0.000000000000000, 0.000000000000000 );
#73 = SURFACE_STYLE_USAGE( .BOTH., #128 );
#74 = FACE_OUTER_BOUND( '', #129, .T. );
#75 = FACE_OUTER_BOUND( '', #130, .T. );
#76 = CYLINDRICAL_SURFACE( '', #131, 1.00000000000000 );
#77 = SURFACE_STYLE_USAGE( .BOTH., #132 );
#78 = FACE_BOUND( '', #133, .T. );
#79 = FACE_OUTER_BOUND( '', #134, .T. );
#80 = CONICAL_SURFACE( '', #135, 10.7987500000000, 0.684081231800000 );
#81 = SURFACE_STYLE_USAGE( .BOTH., #136 );
#82 = FACE_OUTER_BOUND( '', #137, .T. );
#83 = FACE_OUTER_BOUND( '', #138, .T. );
#84 = CYLINDRICAL_SURFACE( '', #139, 1.00000000000000 );
#85 = SURFACE_STYLE_USAGE( .BOTH., #140 );
#86 = FACE_OUTER_BOUND( '', #141, .T. );
#87 = FACE_OUTER_BOUND( '', #142, .T. );
#88 = CYLINDRICAL_SURFACE( '', #143, 1.00000000000000 );
#89 = SURFACE_STYLE_USAGE( .BOTH., #144 );
#90 = FACE_BOUND( '', #145, .T. );
#91 = FACE_OUTER_BOUND( '', #146, .T. );
#92 = CONICAL_SURFACE( '', #147, 14.0000000000000, 0.684081231800000 );
#93 = SURFACE_STYLE_USAGE( .BOTH., #148 );
#94 = FACE_OUTER_BOUND( '', #149, .T. );
#95 = FACE_OUTER_BOUND( '', #150, .T. );
#96 = CYLINDRICAL_SURFACE( '', #151, 14.0000000000000 );
#97 = SURFACE_STYLE_USAGE( .BOTH., #152 );
#98 = FACE_OUTER_BOUND( '', #153, .T. );
#99 = PLANE( '', #154 );
#100 = SURFACE_STYLE_USAGE( .BOTH., #155 );
#101 = FACE_OUTER_BOUND( '', #156, .T. );
#102 = FACE_OUTER_BOUND( '', #157, .T. );
#103 = CYLINDRICAL_SURFACE( '', #158, 20.0000000000000 );
#104 = SURFACE_STYLE_USAGE( .BOTH., #159 );
#105 = FACE_OUTER_BOUND( '', #160, .T. );
#106 = FACE_BOUND( '', #161, .T. );
#107 = FACE_BOUND( '', #162, .T. );
#108 = FACE_BOUND( '', #163, .T. );
#109 = FACE_BOUND( '', #164, .T. );
#110 = PLANE( '', #165 );
#111 = SURFACE_STYLE_USAGE( .BOTH., #166 );
#112 = FACE_BOUND( '', #167, .T. );
#113 = FACE_BOUND( '', #168, .T. );
#114 = FACE_BOUND( '', #169, .T. );
#115 = FACE_OUTER_BOUND( '', #170, .T. );
#116 = PLANE( '', #171 );
#117 = SURFACE_STYLE_USAGE( .BOTH., #172 );
#118 = FACE_OUTER_BOUND( '', #173, .T. );
#119 = FACE_OUTER_BOUND( '', #174, .T. );
#120 = TOROIDAL_SURFACE( '', #175, 12.0000000000000, 1.55000000000000 );
#121 = PRODUCT_CONTEXT( '', #21, 'mechanical' );
#122 = PRODUCT_DEFINITION_FORMATION_WITH_SPECIFIED_SOURCE( ' ', 'NONE', #56, .NOT_KNOWN. );
#123 = CLOSED_SHELL( '', ( #51, #35, #53, #49, #45, #43, #37, #55, #47, #39, #41 ) );
#124 = CARTESIAN_POINT( '', ( 0.000000000000000, 0.000000000000000, 0.000000000000000 ) );
#125 = DIRECTION( '', ( 0.000000000000000, 0.000000000000000, 1.00000000000000 ) );
#126 = DIRECTION( '', ( 1.00000000000000, 0.000000000000000, 0.000000000000000 ) );
#127 =  ( LENGTH_UNIT(  )NAMED_UNIT( #65 )SI_UNIT( .MILLI., .METRE. ) );
#128 = SURFACE_SIDE_STYLE( '', ( #177 ) );
#129 = EDGE_LOOP( '', ( #178 ) );
#130 = EDGE_LOOP( '', ( #179 ) );
#131 = AXIS2_PLACEMENT_3D( '', #180, #181, #182 );
#132 = SURFACE_SIDE_STYLE( '', ( #183 ) );
#133 = EDGE_LOOP( '', ( #184 ) );
#134 = EDGE_LOOP( '', ( #185 ) );
#135 = AXIS2_PLACEMENT_3D( '', #186, #187, #188 );
#136 = SURFACE_SIDE_STYLE( '', ( #189 ) );
#137 = EDGE_LOOP( '', ( #190 ) );
#138 = EDGE_LOOP( '', ( #191 ) );
#139 = AXIS2_PLACEMENT_3D( '', #192, #193, #194 );
#140 = SURFACE_SIDE_STYLE( '', ( #195 ) );
#141 = EDGE_LOOP( '', ( #196 ) );
#142 = EDGE_LOOP( '', ( #197 ) );
#143 = AXIS2_PLACEMENT_3D( '', #198, #199, #200 );
#144 = SURFACE_SIDE_STYLE( '', ( #201 ) );
#145 = EDGE_LOOP( '', ( #202 ) );
#146 = EDGE_LOOP( '', ( #203 ) );
#147 = AXIS2_PLACEMENT_3D( '', #204, #205, #206 );
#148 = SURFACE_SIDE_STYLE( '', ( #207 ) );
#149 = EDGE_LOOP( '', ( #208 ) );
#150 = EDGE_LOOP( '', ( #209 ) );
#151 = AXIS2_PLACEMENT_3D( '', #210, #211, #212 );
#152 = SURFACE_SIDE_STYLE( '', ( #213 ) );
#153 = EDGE_LOOP( '', ( #214 ) );
#154 = AXIS2_PLACEMENT_3D( '', #215, #216, #217 );
#155 = SURFACE_SIDE_STYLE( '', ( #218 ) );
#156 = EDGE_LOOP( '', ( #219 ) );
#157 = EDGE_LOOP( '', ( #220 ) );
#158 = AXIS2_PLACEMENT_3D( '', #221, #222, #223 );
#159 = SURFACE_SIDE_STYLE( '', ( #224 ) );
#160 = EDGE_LOOP( '', ( #225 ) );
#161 = EDGE_LOOP( '', ( #226 ) );
#162 = EDGE_LOOP( '', ( #227 ) );
#163 = EDGE_LOOP( '', ( #228 ) );
#164 = EDGE_LOOP( '', ( #229 ) );
#165 = AXIS2_PLACEMENT_3D( '', #230, #231, #232 );
#166 = SURFACE_SIDE_STYLE( '', ( #233 ) );
#167 = EDGE_LOOP( '', ( #234 ) );
#168 = EDGE_LOOP( '', ( #235 ) );
#169 = EDGE_LOOP( '', ( #236 ) );
#170 = EDGE_LOOP( '', ( #237 ) );
#171 = AXIS2_PLACEMENT_3D( '', #238, #239, #240 );
#172 = SURFACE_SIDE_STYLE( '', ( #241 ) );
#173 = EDGE_LOOP( '', ( #242 ) );
#174 = EDGE_LOOP( '', ( #243 ) );
#175 = AXIS2_PLACEMENT_3D( '', #244, #245, #246 );
#177 = SURFACE_STYLE_FILL_AREA( #247 );
#178 = ORIENTED_EDGE( '', *, *, #248, .T. );
#179 = ORIENTED_EDGE( '', *, *, #249, .F. );
#180 = CARTESIAN_POINT( '', ( -17.0000000000000, 4.00000000000000, 0.000000000000000 ) );
#181 = DIRECTION( '', ( -0.000000000000000, 1.00000000000000, 0.000000000000000 ) );
#182 = DIRECTION( '', ( 0.000000000000000, 0.000000000000000, -1.00000000000000 ) );
#183 = SURFACE_STYLE_FILL_AREA( #250 );
#184 = ORIENTED_EDGE( '', *, *, #251, .T. );
#185 = ORIENTED_EDGE( '', *, *, #252, .F. );
#186 = CARTESIAN_POINT( '', ( 0.000000000000000, 13.4295399111318, 0.000000000000000 ) );
#187 = DIRECTION( '', ( -0.000000000000000, 1.00000000000000, 0.000000000000000 ) );
#188 = DIRECTION( '', ( 0.000000000000000, -0.000000000000000, 1.00000000000000 ) );
#189 = SURFACE_STYLE_FILL_AREA( #253 );
#190 = ORIENTED_EDGE( '', *, *, #254, .T. );
#191 = ORIENTED_EDGE( '', *, *, #255, .F. );
#192 = CARTESIAN_POINT( '', ( 8.50000000000000, 4.00000000000000, 14.7224318643355 ) );
#193 = DIRECTION( '', ( -0.000000000000000, 1.00000000000000, -0.000000000000000 ) );
#194 = DIRECTION( '', ( -0.866025403784439, 0.000000000000000, 0.500000000000000 ) );
#195 = SURFACE_STYLE_FILL_AREA( #256 );
#196 = ORIENTED_EDGE( '', *, *, #257, .T. );
#197 = ORIENTED_EDGE( '', *, *, #258, .F. );
#198 = CARTESIAN_POINT( '', ( 8.50000000000000, 4.00000000000000, -14.7224318643355 ) );
#199 = DIRECTION( '', ( -0.000000000000000, 1.00000000000000, -0.000000000000000 ) );
#200 = DIRECTION( '', ( 0.866025403784439, 0.000000000000000, 0.500000000000000 ) );
#201 = SURFACE_STYLE_FILL_AREA( #259 );
#202 = ORIENTED_EDGE( '', *, *, #260, .T. );
#203 = ORIENTED_EDGE( '', *, *, #261, .F. );
#204 = CARTESIAN_POINT( '', ( 0.000000000000000, 12.4500000000000, 0.000000000000000 ) );
#205 = DIRECTION( '', ( -0.000000000000000, -1.00000000000000, -0.000000000000000 ) );
#206 = DIRECTION( '', ( 0.000000000000000, 0.000000000000000, -1.00000000000000 ) );
#207 = SURFACE_STYLE_FILL_AREA( #262 );
#208 = ORIENTED_EDGE( '', *, *, #263, .F. );
#209 = ORIENTED_EDGE( '', *, *, #261, .T. );
#210 = CARTESIAN_POINT( '', ( 0.000000000000000, 0.000000000000000, 0.000000000000000 ) );
#211 = DIRECTION( '', ( -0.000000000000000, 1.00000000000000, 0.000000000000000 ) );
#212 = DIRECTION( '', ( 0.000000000000000, 0.000000000000000, -1.00000000000000 ) );
#213 = SURFACE_STYLE_FILL_AREA( #264 );
#214 = ORIENTED_EDGE( '', *, *, #251, .F. );
#215 = CARTESIAN_POINT( '', ( 9.99999999999999, 12.4500000000000, 0.000000000000000 ) );
#216 = DIRECTION( '', ( 0.000000000000000, 1.00000000000000, 0.000000000000000 ) );
#217 = DIRECTION( '', ( 0.000000000000000, -0.000000000000000, 1.00000000000000 ) );
#218 = SURFACE_STYLE_FILL_AREA( #265 );
#219 = ORIENTED_EDGE( '', *, *, #266, .F. );
#220 = ORIENTED_EDGE( '', *, *, #267, .T. );
#221 = CARTESIAN_POINT( '', ( 0.000000000000000, 0.000000000000000, 0.000000000000000 ) );
#222 = DIRECTION( '', ( -0.000000000000000, 1.00000000000000, 0.000000000000000 ) );
#223 = DIRECTION( '', ( 0.000000000000000, 0.000000000000000, -1.00000000000000 ) );
#224 = SURFACE_STYLE_FILL_AREA( #268 );
#225 = ORIENTED_EDGE( '', *, *, #267, .F. );
#226 = ORIENTED_EDGE( '', *, *, #257, .F. );
#227 = ORIENTED_EDGE( '', *, *, #254, .F. );
#228 = ORIENTED_EDGE( '', *, *, #248, .F. );
#229 = ORIENTED_EDGE( '', *, *, #263, .T. );
#230 = CARTESIAN_POINT( '', ( 14.0000000000000, 4.00000000000000, 0.000000000000000 ) );
#231 = DIRECTION( '', ( 0.000000000000000, -1.00000000000000, -0.000000000000000 ) );
#232 = DIRECTION( '', ( 0.000000000000000, 0.000000000000000, -1.00000000000000 ) );
#233 = SURFACE_STYLE_FILL_AREA( #269 );
#234 = ORIENTED_EDGE( '', *, *, #258, .T. );
#235 = ORIENTED_EDGE( '', *, *, #255, .T. );
#236 = ORIENTED_EDGE( '', *, *, #249, .T. );
#237 = ORIENTED_EDGE( '', *, *, #266, .T. );
#238 = CARTESIAN_POINT( '', ( 20.0000000000000, 0.000000000000000, 0.000000000000000 ) );
#239 = DIRECTION( '', ( 0.000000000000000, 1.00000000000000, 0.000000000000000 ) );
#240 = DIRECTION( '', ( 0.000000000000000, -0.000000000000000, 1.00000000000000 ) );
#241 = SURFACE_STYLE_FILL_AREA( #270 );
#242 = ORIENTED_EDGE( '', *, *, #252, .T. );
#243 = ORIENTED_EDGE( '', *, *, #260, .F. );
#244 = CARTESIAN_POINT( '', ( 0.000000000000000, 12.4500000000000, 0.000000000000000 ) );
#245 = DIRECTION( '', ( 0.000000000000000, -1.00000000000000, -0.000000000000000 ) );
#246 = DIRECTION( '', ( 0.000000000000000, 0.000000000000000, -1.00000000000000 ) );
#247 = FILL_AREA_STYLE( '', ( #271 ) );
#248 = EDGE_CURVE( '', #272, #272, #273, .T. );
#249 = EDGE_CURVE( '', #274, #274, #275, .T. );
#250 = FILL_AREA_STYLE( '', ( #276 ) );
#251 = EDGE_CURVE( '', #277, #277, #278, .T. );
#252 = EDGE_CURVE( '', #279, #279, #280, .T. );
#253 = FILL_AREA_STYLE( '', ( #281 ) );
#254 = EDGE_CURVE( '', #282, #282, #283, .T. );
#255 = EDGE_CURVE( '', #284, #284, #285, .T. );
#256 = FILL_AREA_STYLE( '', ( #286 ) );
#257 = EDGE_CURVE( '', #287, #287, #288, .T. );
#258 = EDGE_CURVE( '', #289, #289, #290, .T. );
#259 = FILL_AREA_STYLE( '', ( #291 ) );
#260 = EDGE_CURVE( '', #292, #292, #293, .T. );
#261 = EDGE_CURVE( '', #294, #294, #295, .T. );
#262 = FILL_AREA_STYLE( '', ( #296 ) );
#263 = EDGE_CURVE( '', #297, #297, #298, .T. );
#264 = FILL_AREA_STYLE( '', ( #299 ) );
#265 = FILL_AREA_STYLE( '', ( #300 ) );
#266 = EDGE_CURVE( '', #301, #301, #302, .T. );
#267 = EDGE_CURVE( '', #303, #303, #304, .T. );
#268 = FILL_AREA_STYLE( '', ( #305 ) );
#269 = FILL_AREA_STYLE( '', ( #306 ) );
#270 = FILL_AREA_STYLE( '', ( #307 ) );
#271 = FILL_AREA_STYLE_COLOUR( '', #308 );
#272 = VERTEX_POINT( '', #309 );
#273 = CIRCLE( '', #310, 1.00000000000000 );
#274 = VERTEX_POINT( '', #311 );
#275 = CIRCLE( '', #312, 1.00000000000000 );
#276 = FILL_AREA_STYLE_COLOUR( '', #313 );
#277 = VERTEX_POINT( '', #314 );
#278 = CIRCLE( '', #315, 10.0000000000000 );
#279 = VERTEX_POINT( '', #316 );
#280 = CIRCLE( '', #317, 10.7987500000000 );
#281 = FILL_AREA_STYLE_COLOUR( '', #318 );
#282 = VERTEX_POINT( '', #319 );
#283 = CIRCLE( '', #320, 1.00000000000000 );
#284 = VERTEX_POINT( '', #321 );
#285 = CIRCLE( '', #322, 1.00000000000000 );
#286 = FILL_AREA_STYLE_COLOUR( '', #323 );
#287 = VERTEX_POINT( '', #324 );
#288 = CIRCLE( '', #325, 1.00000000000000 );
#289 = VERTEX_POINT( '', #326 );
#290 = CIRCLE( '', #327, 1.00000000000000 );
#291 = FILL_AREA_STYLE_COLOUR( '', #328 );
#292 = VERTEX_POINT( '', #329 );
#293 = CIRCLE( '', #330, 13.2012500000000 );
#294 = VERTEX_POINT( '', #331 );
#295 = CIRCLE( '', #332, 14.0000000000000 );
#296 = FILL_AREA_STYLE_COLOUR( '', #333 );
#297 = VERTEX_POINT( '', #334 );
#298 = CIRCLE( '', #335, 14.0000000000000 );
#299 = FILL_AREA_STYLE_COLOUR( '', #336 );
#300 = FILL_AREA_STYLE_COLOUR( '', #337 );
#301 = VERTEX_POINT( '', #338 );
#302 = CIRCLE( '', #339, 20.0000000000000 );
#303 = VERTEX_POINT( '', #340 );
#304 = CIRCLE( '', #341, 20.0000000000000 );
#305 = FILL_AREA_STYLE_COLOUR( '', #342 );
#306 = FILL_AREA_STYLE_COLOUR( '', #343 );
#307 = FILL_AREA_STYLE_COLOUR( '', #344 );
#308 = COLOUR_RGB( '', 0.689999997600000, 0.689999997600000, 0.689999997600000 );
#309 = CARTESIAN_POINT( '', ( -16.0000000000000, 4.00000000000000, 0.000000000000000 ) );
#310 = AXIS2_PLACEMENT_3D( '', #345, #346, #347 );
#311 = CARTESIAN_POINT( '', ( -16.0000000000000, 0.000000000000000, 0.000000000000000 ) );
#312 = AXIS2_PLACEMENT_3D( '', #348, #349, #350 );
#313 = COLOUR_RGB( '', 0.689999997600000, 0.689999997600000, 0.689999997600000 );
#314 = CARTESIAN_POINT( '', ( 0.000000000000000, 12.4500000000000, -9.99999999999999 ) );
#315 = AXIS2_PLACEMENT_3D( '', #351, #352, #353 );
#316 = CARTESIAN_POINT( '', ( 0.000000000000000, 13.4295399111318, -10.7987500000000 ) );
#317 = AXIS2_PLACEMENT_3D( '', #354, #355, #356 );
#318 = COLOUR_RGB( '', 0.689999997600000, 0.689999997600000, 0.689999997600000 );
#319 = CARTESIAN_POINT( '', ( 8.00000000000000, 4.00000000000000, 13.8564064605510 ) );
#320 = AXIS2_PLACEMENT_3D( '', #357, #358, #359 );
#321 = CARTESIAN_POINT( '', ( 8.00000000000000, 0.000000000000000, 13.8564064605510 ) );
#322 = AXIS2_PLACEMENT_3D( '', #360, #361, #362 );
#323 = COLOUR_RGB( '', 0.689999997600000, 0.689999997600000, 0.689999997600000 );
#324 = CARTESIAN_POINT( '', ( 8.00000000000000, 4.00000000000000, -13.8564064605510 ) );
#325 = AXIS2_PLACEMENT_3D( '', #363, #364, #365 );
#326 = CARTESIAN_POINT( '', ( 8.00000000000000, 0.000000000000000, -13.8564064605510 ) );
#327 = AXIS2_PLACEMENT_3D( '', #366, #367, #368 );
#328 = COLOUR_RGB( '', 0.689999997600000, 0.689999997600000, 0.689999997600000 );
#329 = CARTESIAN_POINT( '', ( 0.000000000000000, 13.4295399111318, -13.2012500000000 ) );
#330 = AXIS2_PLACEMENT_3D( '', #369, #370, #371 );
#331 = CARTESIAN_POINT( '', ( 0.000000000000000, 12.4500000000000, -14.0000000000000 ) );
#332 = AXIS2_PLACEMENT_3D( '', #372, #373, #374 );
#333 = COLOUR_RGB( '', 0.689999997600000, 0.689999997600000, 0.689999997600000 );
#334 = CARTESIAN_POINT( '', ( 0.000000000000000, 4.00000000000000, -14.0000000000000 ) );
#335 = AXIS2_PLACEMENT_3D( '', #375, #376, #377 );
#336 = COLOUR_RGB( '', 0.689999997600000, 0.689999997600000, 0.689999997600000 );
#337 = COLOUR_RGB( '', 0.689999997600000, 0.689999997600000, 0.689999997600000 );
#338 = CARTESIAN_POINT( '', ( 0.000000000000000, 0.000000000000000, -20.0000000000000 ) );
#339 = AXIS2_PLACEMENT_3D( '', #378, #379, #380 );
#340 = CARTESIAN_POINT( '', ( 0.000000000000000, 4.00000000000000, -20.0000000000000 ) );
#341 = AXIS2_PLACEMENT_3D( '', #381, #382, #383 );
#342 = COLOUR_RGB( '', 0.689999997600000, 0.689999997600000, 0.689999997600000 );
#343 = COLOUR_RGB( '', 0.689999997600000, 0.689999997600000, 0.689999997600000 );
#344 = COLOUR_RGB( '', 0.689999997600000, 0.689999997600000, 0.689999997600000 );
#345 = CARTESIAN_POINT( '', ( -17.0000000000000, 4.00000000000000, 0.000000000000000 ) );
#346 = DIRECTION( '', ( -0.000000000000000, 1.00000000000000, 0.000000000000000 ) );
#347 = DIRECTION( '', ( 1.00000000000000, 0.000000000000000, 0.000000000000000 ) );
#348 = CARTESIAN_POINT( '', ( -17.0000000000000, 0.000000000000000, 0.000000000000000 ) );
#349 = DIRECTION( '', ( -0.000000000000000, 1.00000000000000, 0.000000000000000 ) );
#350 = DIRECTION( '', ( 1.00000000000000, 0.000000000000000, 0.000000000000000 ) );
#351 = CARTESIAN_POINT( '', ( 0.000000000000000, 12.4500000000000, 0.000000000000000 ) );
#352 = DIRECTION( '', ( 0.000000000000000, -1.00000000000000, -0.000000000000000 ) );
#353 = DIRECTION( '', ( 0.000000000000000, 0.000000000000000, -1.00000000000000 ) );
#354 = CARTESIAN_POINT( '', ( 0.000000000000000, 13.4295399111318, 0.000000000000000 ) );
#355 = DIRECTION( '', ( 0.000000000000000, -1.00000000000000, -0.000000000000000 ) );
#356 = DIRECTION( '', ( 0.000000000000000, 0.000000000000000, -1.00000000000000 ) );
#357 = CARTESIAN_POINT( '', ( 8.50000000000000, 4.00000000000000, 14.7224318643355 ) );
#358 = DIRECTION( '', ( 0.000000000000000, 1.00000000000000, 0.000000000000000 ) );
#359 = DIRECTION( '', ( -0.500000000000000, 0.000000000000000, -0.866025403784439 ) );
#360 = CARTESIAN_POINT( '', ( 8.50000000000000, 0.000000000000000, 14.7224318643355 ) );
#361 = DIRECTION( '', ( 0.000000000000000, 1.00000000000000, 0.000000000000000 ) );
#362 = DIRECTION( '', ( -0.500000000000000, 0.000000000000000, -0.866025403784439 ) );
#363 = CARTESIAN_POINT( '', ( 8.50000000000000, 4.00000000000000, -14.7224318643355 ) );
#364 = DIRECTION( '', ( 0.000000000000000, 1.00000000000000, 0.000000000000000 ) );
#365 = DIRECTION( '', ( -0.500000000000000, 0.000000000000000, 0.866025403784439 ) );
#366 = CARTESIAN_POINT( '', ( 8.50000000000000, 0.000000000000000, -14.7224318643355 ) );
#367 = DIRECTION( '', ( 0.000000000000000, 1.00000000000000, 0.000000000000000 ) );
#368 = DIRECTION( '', ( -0.500000000000000, 0.000000000000000, 0.866025403784439 ) );
#369 = CARTESIAN_POINT( '', ( 0.000000000000000, 13.4295399111318, 0.000000000000000 ) );
#370 = DIRECTION( '', ( 0.000000000000000, -1.00000000000000, -0.000000000000000 ) );
#371 = DIRECTION( '', ( 0.000000000000000, 0.000000000000000, -1.00000000000000 ) );
#372 = CARTESIAN_POINT( '', ( 0.000000000000000, 12.4500000000000, 0.000000000000000 ) );
#373 = DIRECTION( '', ( 0.000000000000000, -1.00000000000000, -0.000000000000000 ) );
#374 = DIRECTION( '', ( 0.000000000000000, 0.000000000000000, -1.00000000000000 ) );
#375 = CARTESIAN_POINT( '', ( 0.000000000000000, 4.00000000000000, 0.000000000000000 ) );
#376 = DIRECTION( '', ( 0.000000000000000, -1.00000000000000, -0.000000000000000 ) );
#377 = DIRECTION( '', ( 0.000000000000000, 0.000000000000000, -1.00000000000000 ) );
#378 = CARTESIAN_POINT( '', ( 0.000000000000000, 0.000000000000000, 0.000000000000000 ) );
#379 = DIRECTION( '', ( 0.000000000000000, -1.00000000000000, -0.000000000000000 ) );
#380 = DIRECTION( '', ( 0.000000000000000, 0.000000000000000, -1.00000000000000 ) );
#381 = CARTESIAN_POINT( '', ( 0.000000000000000, 4.00000000000000, 0.000000000000000 ) );
#382 = DIRECTION( '', ( 0.000000000000000, -1.00000000000000, -0.000000000000000 ) );
#383 = DIRECTION( '', ( 0.000000000000000, 0.000000000000000, -1.00000000000000 ) );
ENDSEC;
END-ISO-10303-21;
