ISO-10303-21;
HEADER;
FILE_DESCRIPTION( ( 'STEP AP214' ), '1' );
FILE_NAME( '//goodhand-server/Shared Folders/GoodHand Data/Kipp CAD/K0676/K0676.3008X030.stp', '2020-12-09T11:10:04', ( '' ), ( '' ), ' ', 'PARTsolutions', ' ' );
FILE_SCHEMA( ( 'AUTOMOTIVE_DESIGN { 1 0 10303 214 1 1 1 1 }' ) );
ENDSEC;
DATA;
#1 = MECHANICAL_DESIGN_GEOMETRIC_PRESENTATION_REPRESENTATION( ' ', ( #10, #11, #12, #13, #14, #15, #16, #17, #18, #19, #20 ), #6 );
#2 = PRODUCT_DEFINITION_CONTEXT( '', #21, 'design' );
#3 = APPLICATION_PROTOCOL_DEFINITION( 'international standard', 'automotive_design', 2001, #21 );
#4 = PRODUCT_CATEGORY_RELATIONSHIP( 'NONE', 'NONE', #22, #23 );
#5 = SHAPE_DEFINITION_REPRESENTATION( #24, #25 );
#6 =  ( GEOMETRIC_REPRESENTATION_CONTEXT( 3 )GLOBAL_UNCERTAINTY_ASSIGNED_CONTEXT( ( #28 ) )GLOBAL_UNIT_ASSIGNED_CONTEXT( ( #30, #31, #32 ) )REPRESENTATION_CONTEXT( 'NONE', 'WORKSPACE' ) );
#10 = STYLED_ITEM( '', ( #34 ), #35 );
#11 = STYLED_ITEM( '', ( #36 ), #37 );
#12 = STYLED_ITEM( '', ( #38 ), #39 );
#13 = STYLED_ITEM( '', ( #40 ), #41 );
#14 = STYLED_ITEM( '', ( #42 ), #43 );
#15 = STYLED_ITEM( '', ( #44 ), #45 );
#16 = STYLED_ITEM( '', ( #46 ), #47 );
#17 = STYLED_ITEM( '', ( #48 ), #49 );
#18 = STYLED_ITEM( '', ( #50 ), #51 );
#19 = STYLED_ITEM( '', ( #52 ), #53 );
#20 = STYLED_ITEM( '', ( #54 ), #55 );
#21 = APPLICATION_CONTEXT( 'core data for automotive mechanical design processes' );
#22 = PRODUCT_CATEGORY( 'part', 'NONE' );
#23 = PRODUCT_RELATED_PRODUCT_CATEGORY( 'detail', ' ', ( #56 ) );
#24 = PRODUCT_DEFINITION_SHAPE( 'NONE', 'NONE', #57 );
#25 = ADVANCED_BREP_SHAPE_REPRESENTATION( '_K0676.3008X030', ( #58, #59 ), #6 );
#28 = UNCERTAINTY_MEASURE_WITH_UNIT( LENGTH_MEASURE( 0.00100000000000000 ), #30, '', '' );
#30 =  ( CONVERSION_BASED_UNIT( 'MILLIMETRE', #62 )LENGTH_UNIT(  )NAMED_UNIT( #65 ) );
#31 =  ( NAMED_UNIT( #67 )PLANE_ANGLE_UNIT(  )SI_UNIT( $, .RADIAN. ) );
#32 =  ( NAMED_UNIT( #67 )SI_UNIT( $, .STERADIAN. )SOLID_ANGLE_UNIT(  ) );
#34 = PRESENTATION_STYLE_ASSIGNMENT( ( #73 ) );
#35 = ADVANCED_FACE( '', ( #74 ), #75, .F. );
#36 = PRESENTATION_STYLE_ASSIGNMENT( ( #76 ) );
#37 = ADVANCED_FACE( '', ( #77, #78 ), #79, .T. );
#38 = PRESENTATION_STYLE_ASSIGNMENT( ( #80 ) );
#39 = ADVANCED_FACE( '', ( #81, #82 ), #83, .T. );
#40 = PRESENTATION_STYLE_ASSIGNMENT( ( #84 ) );
#41 = ADVANCED_FACE( '', ( #85 ), #86, .T. );
#42 = PRESENTATION_STYLE_ASSIGNMENT( ( #87 ) );
#43 = ADVANCED_FACE( '', ( #88 ), #89, .F. );
#44 = PRESENTATION_STYLE_ASSIGNMENT( ( #90 ) );
#45 = ADVANCED_FACE( '', ( #91, #92 ), #93, .T. );
#46 = PRESENTATION_STYLE_ASSIGNMENT( ( #94 ) );
#47 = ADVANCED_FACE( '', ( #95 ), #96, .T. );
#48 = PRESENTATION_STYLE_ASSIGNMENT( ( #97 ) );
#49 = ADVANCED_FACE( '', ( #98 ), #99, .T. );
#50 = PRESENTATION_STYLE_ASSIGNMENT( ( #100 ) );
#51 = ADVANCED_FACE( '', ( #101 ), #102, .T. );
#52 = PRESENTATION_STYLE_ASSIGNMENT( ( #103 ) );
#53 = ADVANCED_FACE( '', ( #104 ), #105, .T. );
#54 = PRESENTATION_STYLE_ASSIGNMENT( ( #106 ) );
#55 = ADVANCED_FACE( '', ( #107 ), #108, .T. );
#56 = PRODUCT( '_K0676.3008X030', '_K0676.3008X030', 'PART-_K0676.3008X030-DESC', ( #109 ) );
#57 = PRODUCT_DEFINITION( 'NONE', 'NONE', #110, #2 );
#58 = MANIFOLD_SOLID_BREP( '_K0676.3008X030', #111 );
#59 = AXIS2_PLACEMENT_3D( '', #112, #113, #114 );
#62 = LENGTH_MEASURE_WITH_UNIT( LENGTH_MEASURE( 1.00000000000000 ), #115 );
#65 = DIMENSIONAL_EXPONENTS( 1.00000000000000, 0.000000000000000, 0.000000000000000, 0.000000000000000, 0.000000000000000, 0.000000000000000, 0.000000000000000 );
#67 = DIMENSIONAL_EXPONENTS( 0.000000000000000, 0.000000000000000, 0.000000000000000, 0.000000000000000, 0.000000000000000, 0.000000000000000, 0.000000000000000 );
#73 = SURFACE_STYLE_USAGE( .BOTH., #116 );
#74 = FACE_OUTER_BOUND( '', #117, .T. );
#75 = PLANE( '', #118 );
#76 = SURFACE_STYLE_USAGE( .BOTH., #119 );
#77 = FACE_OUTER_BOUND( '', #120, .T. );
#78 = FACE_BOUND( '', #121, .T. );
#79 = CONICAL_SURFACE( '', #122, 3.23300000000000, 0.785398163400000 );
#80 = SURFACE_STYLE_USAGE( .BOTH., #123 );
#81 = FACE_OUTER_BOUND( '', #124, .T. );
#82 = FACE_OUTER_BOUND( '', #125, .T. );
#83 = CYLINDRICAL_SURFACE( '', #126, 4.00000000000000 );
#84 = SURFACE_STYLE_USAGE( .BOTH., #127 );
#85 = FACE_OUTER_BOUND( '', #128, .T. );
#86 = PLANE( '', #129 );
#87 = SURFACE_STYLE_USAGE( .BOTH., #130 );
#88 = FACE_OUTER_BOUND( '', #131, .T. );
#89 = PLANE( '', #132 );
#90 = SURFACE_STYLE_USAGE( .BOTH., #133 );
#91 = FACE_BOUND( '', #134, .T. );
#92 = FACE_OUTER_BOUND( '', #135, .T. );
#93 = PLANE( '', #136 );
#94 = SURFACE_STYLE_USAGE( .BOTH., #137 );
#95 = FACE_OUTER_BOUND( '', #138, .T. );
#96 = PLANE( '', #139 );
#97 = SURFACE_STYLE_USAGE( .BOTH., #140 );
#98 = FACE_OUTER_BOUND( '', #141, .T. );
#99 = PLANE( '', #142 );
#100 = SURFACE_STYLE_USAGE( .BOTH., #143 );
#101 = FACE_OUTER_BOUND( '', #144, .T. );
#102 = PLANE( '', #145 );
#103 = SURFACE_STYLE_USAGE( .BOTH., #146 );
#104 = FACE_OUTER_BOUND( '', #147, .T. );
#105 = PLANE( '', #148 );
#106 = SURFACE_STYLE_USAGE( .BOTH., #149 );
#107 = FACE_OUTER_BOUND( '', #150, .T. );
#108 = PLANE( '', #151 );
#109 = PRODUCT_CONTEXT( '', #21, 'mechanical' );
#110 = PRODUCT_DEFINITION_FORMATION_WITH_SPECIFIED_SOURCE( ' ', 'NONE', #56, .NOT_KNOWN. );
#111 = CLOSED_SHELL( '', ( #51, #43, #41, #53, #49, #47, #55, #45, #35, #37, #39 ) );
#112 = CARTESIAN_POINT( '', ( 0.000000000000000, 0.000000000000000, 0.000000000000000 ) );
#113 = DIRECTION( '', ( 0.000000000000000, 0.000000000000000, 1.00000000000000 ) );
#114 = DIRECTION( '', ( 1.00000000000000, 0.000000000000000, 0.000000000000000 ) );
#115 =  ( LENGTH_UNIT(  )NAMED_UNIT( #65 )SI_UNIT( .MILLI., .METRE. ) );
#116 = SURFACE_SIDE_STYLE( '', ( #153 ) );
#117 = EDGE_LOOP( '', ( #154 ) );
#118 = AXIS2_PLACEMENT_3D( '', #155, #156, #157 );
#119 = SURFACE_SIDE_STYLE( '', ( #158 ) );
#120 = EDGE_LOOP( '', ( #159 ) );
#121 = EDGE_LOOP( '', ( #160 ) );
#122 = AXIS2_PLACEMENT_3D( '', #161, #162, #163 );
#123 = SURFACE_SIDE_STYLE( '', ( #164 ) );
#124 = EDGE_LOOP( '', ( #165 ) );
#125 = EDGE_LOOP( '', ( #166 ) );
#126 = AXIS2_PLACEMENT_3D( '', #167, #168, #169 );
#127 = SURFACE_SIDE_STYLE( '', ( #170 ) );
#128 = EDGE_LOOP( '', ( #171, #172, #173, #174 ) );
#129 = AXIS2_PLACEMENT_3D( '', #175, #176, #177 );
#130 = SURFACE_SIDE_STYLE( '', ( #178 ) );
#131 = EDGE_LOOP( '', ( #179, #180, #181, #182, #183, #184 ) );
#132 = AXIS2_PLACEMENT_3D( '', #185, #186, #187 );
#133 = SURFACE_SIDE_STYLE( '', ( #188 ) );
#134 = EDGE_LOOP( '', ( #189 ) );
#135 = EDGE_LOOP( '', ( #190, #191, #192, #193, #194, #195 ) );
#136 = AXIS2_PLACEMENT_3D( '', #196, #197, #198 );
#137 = SURFACE_SIDE_STYLE( '', ( #199 ) );
#138 = EDGE_LOOP( '', ( #200, #201, #202, #203 ) );
#139 = AXIS2_PLACEMENT_3D( '', #204, #205, #206 );
#140 = SURFACE_SIDE_STYLE( '', ( #207 ) );
#141 = EDGE_LOOP( '', ( #208, #209, #210, #211 ) );
#142 = AXIS2_PLACEMENT_3D( '', #212, #213, #214 );
#143 = SURFACE_SIDE_STYLE( '', ( #215 ) );
#144 = EDGE_LOOP( '', ( #216, #217, #218, #219 ) );
#145 = AXIS2_PLACEMENT_3D( '', #220, #221, #222 );
#146 = SURFACE_SIDE_STYLE( '', ( #223 ) );
#147 = EDGE_LOOP( '', ( #224, #225, #226, #227 ) );
#148 = AXIS2_PLACEMENT_3D( '', #228, #229, #230 );
#149 = SURFACE_SIDE_STYLE( '', ( #231 ) );
#150 = EDGE_LOOP( '', ( #232, #233, #234, #235 ) );
#151 = AXIS2_PLACEMENT_3D( '', #236, #237, #238 );
#153 = SURFACE_STYLE_FILL_AREA( #239 );
#154 = ORIENTED_EDGE( '', *, *, #240, .F. );
#155 = CARTESIAN_POINT( '', ( 0.000000000000000, 38.0000000000000, 0.000000000000000 ) );
#156 = DIRECTION( '', ( 0.000000000000000, -1.00000000000000, -0.000000000000000 ) );
#157 = DIRECTION( '', ( 0.000000000000000, 0.000000000000000, -1.00000000000000 ) );
#158 = SURFACE_STYLE_FILL_AREA( #241 );
#159 = ORIENTED_EDGE( '', *, *, #242, .F. );
#160 = ORIENTED_EDGE( '', *, *, #240, .T. );
#161 = CARTESIAN_POINT( '', ( 0.000000000000000, 38.0000000000000, 0.000000000000000 ) );
#162 = DIRECTION( '', ( -0.000000000000000, -1.00000000000000, -0.000000000000000 ) );
#163 = DIRECTION( '', ( 0.000000000000000, 0.000000000000000, -1.00000000000000 ) );
#164 = SURFACE_STYLE_FILL_AREA( #243 );
#165 = ORIENTED_EDGE( '', *, *, #244, .F. );
#166 = ORIENTED_EDGE( '', *, *, #242, .T. );
#167 = CARTESIAN_POINT( '', ( 0.000000000000000, 8.00000000000000, 0.000000000000000 ) );
#168 = DIRECTION( '', ( -0.000000000000000, 1.00000000000000, 0.000000000000000 ) );
#169 = DIRECTION( '', ( 0.000000000000000, 0.000000000000000, -1.00000000000000 ) );
#170 = SURFACE_STYLE_FILL_AREA( #245 );
#171 = ORIENTED_EDGE( '', *, *, #246, .F. );
#172 = ORIENTED_EDGE( '', *, *, #247, .F. );
#173 = ORIENTED_EDGE( '', *, *, #248, .T. );
#174 = ORIENTED_EDGE( '', *, *, #249, .T. );
#175 = CARTESIAN_POINT( '', ( 15.0000000000000, 8.00000000000000, -8.66025403784439 ) );
#176 = DIRECTION( '', ( 0.499524110790929, -0.0436193873653360, -0.865201139495554 ) );
#177 = DIRECTION( '', ( -0.866025403784439, 2.42136240865198E-18, -0.500000000000000 ) );
#178 = SURFACE_STYLE_FILL_AREA( #250 );
#179 = ORIENTED_EDGE( '', *, *, #251, .F. );
#180 = ORIENTED_EDGE( '', *, *, #252, .F. );
#181 = ORIENTED_EDGE( '', *, *, #248, .F. );
#182 = ORIENTED_EDGE( '', *, *, #253, .F. );
#183 = ORIENTED_EDGE( '', *, *, #254, .F. );
#184 = ORIENTED_EDGE( '', *, *, #255, .F. );
#185 = CARTESIAN_POINT( '', ( 0.000000000000000, 0.000000000000000, 0.000000000000000 ) );
#186 = DIRECTION( '', ( 0.000000000000000, 1.00000000000000, 0.000000000000000 ) );
#187 = DIRECTION( '', ( 0.000000000000000, -0.000000000000000, 1.00000000000000 ) );
#188 = SURFACE_STYLE_FILL_AREA( #256 );
#189 = ORIENTED_EDGE( '', *, *, #244, .T. );
#190 = ORIENTED_EDGE( '', *, *, #257, .T. );
#191 = ORIENTED_EDGE( '', *, *, #258, .T. );
#192 = ORIENTED_EDGE( '', *, *, #259, .T. );
#193 = ORIENTED_EDGE( '', *, *, #260, .T. );
#194 = ORIENTED_EDGE( '', *, *, #246, .T. );
#195 = ORIENTED_EDGE( '', *, *, #261, .T. );
#196 = CARTESIAN_POINT( '', ( 0.000000000000000, 8.00000000000000, 0.000000000000000 ) );
#197 = DIRECTION( '', ( 0.000000000000000, 1.00000000000000, 0.000000000000000 ) );
#198 = DIRECTION( '', ( 0.000000000000000, -0.000000000000000, 1.00000000000000 ) );
#199 = SURFACE_STYLE_FILL_AREA( #262 );
#200 = ORIENTED_EDGE( '', *, *, #259, .F. );
#201 = ORIENTED_EDGE( '', *, *, #263, .F. );
#202 = ORIENTED_EDGE( '', *, *, #254, .T. );
#203 = ORIENTED_EDGE( '', *, *, #264, .T. );
#204 = CARTESIAN_POINT( '', ( 0.000000000000000, 8.00000000000000, 17.3205080756888 ) );
#205 = DIRECTION( '', ( 0.499524110790929, -0.0436193873653360, 0.865201139495554 ) );
#206 = DIRECTION( '', ( 0.866025403784439, -2.42136240865198E-18, -0.500000000000000 ) );
#207 = SURFACE_STYLE_FILL_AREA( #265 );
#208 = ORIENTED_EDGE( '', *, *, #258, .F. );
#209 = ORIENTED_EDGE( '', *, *, #266, .F. );
#210 = ORIENTED_EDGE( '', *, *, #255, .T. );
#211 = ORIENTED_EDGE( '', *, *, #263, .T. );
#212 = CARTESIAN_POINT( '', ( -15.0000000000000, 8.00000000000000, 8.66025403784439 ) );
#213 = DIRECTION( '', ( -0.499524110790929, -0.0436193873653360, 0.865201139495554 ) );
#214 = DIRECTION( '', ( 0.866025403784439, 2.42136240865198E-18, 0.500000000000000 ) );
#215 = SURFACE_STYLE_FILL_AREA( #267 );
#216 = ORIENTED_EDGE( '', *, *, #261, .F. );
#217 = ORIENTED_EDGE( '', *, *, #249, .F. );
#218 = ORIENTED_EDGE( '', *, *, #252, .T. );
#219 = ORIENTED_EDGE( '', *, *, #268, .T. );
#220 = CARTESIAN_POINT( '', ( 0.000000000000000, 8.00000000000000, -17.3205080756888 ) );
#221 = DIRECTION( '', ( -0.499524110790929, -0.0436193873653360, -0.865201139495554 ) );
#222 = DIRECTION( '', ( -0.866025403784439, -2.42136240865198E-18, 0.500000000000000 ) );
#223 = SURFACE_STYLE_FILL_AREA( #269 );
#224 = ORIENTED_EDGE( '', *, *, #257, .F. );
#225 = ORIENTED_EDGE( '', *, *, #268, .F. );
#226 = ORIENTED_EDGE( '', *, *, #251, .T. );
#227 = ORIENTED_EDGE( '', *, *, #266, .T. );
#228 = CARTESIAN_POINT( '', ( -15.0000000000000, 8.00000000000000, -8.66025403784439 ) );
#229 = DIRECTION( '', ( -0.999048221581858, -0.0436193873653360, 0.000000000000000 ) );
#230 = DIRECTION( '', ( 0.0436193873653360, -0.999048221581858, 0.000000000000000 ) );
#231 = SURFACE_STYLE_FILL_AREA( #270 );
#232 = ORIENTED_EDGE( '', *, *, #260, .F. );
#233 = ORIENTED_EDGE( '', *, *, #264, .F. );
#234 = ORIENTED_EDGE( '', *, *, #253, .T. );
#235 = ORIENTED_EDGE( '', *, *, #247, .T. );
#236 = CARTESIAN_POINT( '', ( 15.0000000000000, 8.00000000000000, 8.66025403784439 ) );
#237 = DIRECTION( '', ( 0.999048221581858, -0.0436193873653360, 0.000000000000000 ) );
#238 = DIRECTION( '', ( 0.0436193873653360, 0.999048221581858, 0.000000000000000 ) );
#239 = FILL_AREA_STYLE( '', ( #271 ) );
#240 = EDGE_CURVE( '', #272, #272, #273, .T. );
#241 = FILL_AREA_STYLE( '', ( #274 ) );
#242 = EDGE_CURVE( '', #275, #275, #276, .T. );
#243 = FILL_AREA_STYLE( '', ( #277 ) );
#244 = EDGE_CURVE( '', #278, #278, #279, .T. );
#245 = FILL_AREA_STYLE( '', ( #280 ) );
#246 = EDGE_CURVE( '', #281, #282, #283, .T. );
#247 = EDGE_CURVE( '', #284, #281, #285, .T. );
#248 = EDGE_CURVE( '', #284, #286, #287, .T. );
#249 = EDGE_CURVE( '', #286, #282, #288, .T. );
#250 = FILL_AREA_STYLE( '', ( #289 ) );
#251 = EDGE_CURVE( '', #290, #291, #292, .T. );
#252 = EDGE_CURVE( '', #286, #290, #293, .T. );
#253 = EDGE_CURVE( '', #294, #284, #295, .T. );
#254 = EDGE_CURVE( '', #296, #294, #297, .T. );
#255 = EDGE_CURVE( '', #291, #296, #298, .T. );
#256 = FILL_AREA_STYLE( '', ( #299 ) );
#257 = EDGE_CURVE( '', #300, #301, #302, .T. );
#258 = EDGE_CURVE( '', #301, #303, #304, .T. );
#259 = EDGE_CURVE( '', #303, #305, #306, .T. );
#260 = EDGE_CURVE( '', #305, #281, #307, .T. );
#261 = EDGE_CURVE( '', #282, #300, #308, .T. );
#262 = FILL_AREA_STYLE( '', ( #309 ) );
#263 = EDGE_CURVE( '', #296, #303, #310, .T. );
#264 = EDGE_CURVE( '', #294, #305, #311, .T. );
#265 = FILL_AREA_STYLE( '', ( #312 ) );
#266 = EDGE_CURVE( '', #291, #301, #313, .T. );
#267 = FILL_AREA_STYLE( '', ( #314 ) );
#268 = EDGE_CURVE( '', #290, #300, #315, .T. );
#269 = FILL_AREA_STYLE( '', ( #316 ) );
#270 = FILL_AREA_STYLE( '', ( #317 ) );
#271 = FILL_AREA_STYLE_COLOUR( '', #318 );
#272 = VERTEX_POINT( '', #319 );
#273 = CIRCLE( '', #320, 3.23300000000000 );
#274 = FILL_AREA_STYLE_COLOUR( '', #321 );
#275 = VERTEX_POINT( '', #322 );
#276 = CIRCLE( '', #323, 4.00000000000000 );
#277 = FILL_AREA_STYLE_COLOUR( '', #324 );
#278 = VERTEX_POINT( '', #325 );
#279 = CIRCLE( '', #326, 4.00000000000000 );
#280 = FILL_AREA_STYLE_COLOUR( '', #327 );
#281 = VERTEX_POINT( '', #328 );
#282 = VERTEX_POINT( '', #329 );
#283 = LINE( '', #330, #331 );
#284 = VERTEX_POINT( '', #332 );
#285 = LINE( '', #333, #334 );
#286 = VERTEX_POINT( '', #335 );
#287 = LINE( '', #336, #337 );
#288 = LINE( '', #338, #339 );
#289 = FILL_AREA_STYLE_COLOUR( '', #340 );
#290 = VERTEX_POINT( '', #341 );
#291 = VERTEX_POINT( '', #342 );
#292 = LINE( '', #343, #344 );
#293 = LINE( '', #345, #346 );
#294 = VERTEX_POINT( '', #347 );
#295 = LINE( '', #348, #349 );
#296 = VERTEX_POINT( '', #350 );
#297 = LINE( '', #351, #352 );
#298 = LINE( '', #353, #354 );
#299 = FILL_AREA_STYLE_COLOUR( '', #355 );
#300 = VERTEX_POINT( '', #356 );
#301 = VERTEX_POINT( '', #357 );
#302 = LINE( '', #358, #359 );
#303 = VERTEX_POINT( '', #360 );
#304 = LINE( '', #361, #362 );
#305 = VERTEX_POINT( '', #363 );
#306 = LINE( '', #364, #365 );
#307 = LINE( '', #366, #367 );
#308 = LINE( '', #368, #369 );
#309 = FILL_AREA_STYLE_COLOUR( '', #370 );
#310 = LINE( '', #371, #372 );
#311 = LINE( '', #373, #374 );
#312 = FILL_AREA_STYLE_COLOUR( '', #375 );
#313 = LINE( '', #376, #377 );
#314 = FILL_AREA_STYLE_COLOUR( '', #378 );
#315 = LINE( '', #379, #380 );
#316 = FILL_AREA_STYLE_COLOUR( '', #381 );
#317 = FILL_AREA_STYLE_COLOUR( '', #382 );
#318 = COLOUR_RGB( '', 0.689999997600000, 0.689999997600000, 0.689999997600000 );
#319 = CARTESIAN_POINT( '', ( 0.000000000000000, 38.0000000000000, -3.23300000000000 ) );
#320 = AXIS2_PLACEMENT_3D( '', #383, #384, #385 );
#321 = COLOUR_RGB( '', 0.689999997600000, 0.689999997600000, 0.689999997600000 );
#322 = CARTESIAN_POINT( '', ( 0.000000000000000, 37.2330000000000, -4.00000000000000 ) );
#323 = AXIS2_PLACEMENT_3D( '', #386, #387, #388 );
#324 = COLOUR_RGB( '', 0.689999997600000, 0.689999997600000, 0.689999997600000 );
#325 = CARTESIAN_POINT( '', ( 0.000000000000000, 8.00000000000000, -4.00000000000000 ) );
#326 = AXIS2_PLACEMENT_3D( '', #389, #390, #391 );
#327 = COLOUR_RGB( '', 0.689999997600000, 0.689999997600000, 0.689999997600000 );
#328 = CARTESIAN_POINT( '', ( 15.0000000000000, 8.00000000000000, -8.66025403784439 ) );
#329 = CARTESIAN_POINT( '', ( 0.000000000000000, 8.00000000000000, -17.3205080756888 ) );
#330 = CARTESIAN_POINT( '', ( 15.0000000000000, 8.00000000000000, -8.66025403784439 ) );
#331 = VECTOR( '', #392, 1000.00000000000 );
#332 = CARTESIAN_POINT( '', ( 14.6507124567319, 0.000000000000000, -8.45859278071397 ) );
#333 = CARTESIAN_POINT( '', ( 14.9809855497460, 7.56449748935085, -8.64927603987177 ) );
#334 = VECTOR( '', #393, 1000.00000000000 );
#335 = CARTESIAN_POINT( '', ( -4.39010374806836E-16, 0.000000000000000, -16.9171855614279 ) );
#336 = CARTESIAN_POINT( '', ( 7.32535622836595, 0.000000000000000, -12.6878891710710 ) );
#337 = VECTOR( '', #394, 1000.00000000000 );
#338 = CARTESIAN_POINT( '', ( 0.000000000000000, 7.56449748935085, -17.2985520797435 ) );
#339 = VECTOR( '', #395, 1000.00000000000 );
#340 = COLOUR_RGB( '', 0.689999997600000, 0.689999997600000, 0.689999997600000 );
#341 = CARTESIAN_POINT( '', ( -14.6507124567319, 0.000000000000000, -8.45859278071397 ) );
#342 = CARTESIAN_POINT( '', ( -14.6507124567319, 0.000000000000000, 8.45859278071397 ) );
#343 = CARTESIAN_POINT( '', ( -14.6507124567319, 0.000000000000000, 0.000000000000000 ) );
#344 = VECTOR( '', #396, 1000.00000000000 );
#345 = CARTESIAN_POINT( '', ( -7.32535622836595, 0.000000000000000, -12.6878891710710 ) );
#346 = VECTOR( '', #397, 1000.00000000000 );
#347 = CARTESIAN_POINT( '', ( 14.6507124567319, 0.000000000000000, 8.45859278071397 ) );
#348 = CARTESIAN_POINT( '', ( 14.6507124567319, 0.000000000000000, 0.000000000000000 ) );
#349 = VECTOR( '', #398, 1000.00000000000 );
#350 = CARTESIAN_POINT( '', ( 4.39010374806836E-16, 0.000000000000000, 16.9171855614279 ) );
#351 = CARTESIAN_POINT( '', ( 7.32535622836595, 0.000000000000000, 12.6878891710710 ) );
#352 = VECTOR( '', #399, 1000.00000000000 );
#353 = CARTESIAN_POINT( '', ( -7.32535622836595, 0.000000000000000, 12.6878891710710 ) );
#354 = VECTOR( '', #400, 1000.00000000000 );
#355 = COLOUR_RGB( '', 0.689999997600000, 0.689999997600000, 0.689999997600000 );
#356 = CARTESIAN_POINT( '', ( -15.0000000000000, 8.00000000000000, -8.66025403784439 ) );
#357 = CARTESIAN_POINT( '', ( -15.0000000000000, 8.00000000000000, 8.66025403784439 ) );
#358 = CARTESIAN_POINT( '', ( -15.0000000000000, 8.00000000000000, -8.66025403784439 ) );
#359 = VECTOR( '', #401, 1000.00000000000 );
#360 = CARTESIAN_POINT( '', ( 0.000000000000000, 8.00000000000000, 17.3205080756888 ) );
#361 = CARTESIAN_POINT( '', ( -15.0000000000000, 8.00000000000000, 8.66025403784439 ) );
#362 = VECTOR( '', #402, 1000.00000000000 );
#363 = CARTESIAN_POINT( '', ( 15.0000000000000, 8.00000000000000, 8.66025403784439 ) );
#364 = CARTESIAN_POINT( '', ( 0.000000000000000, 8.00000000000000, 17.3205080756888 ) );
#365 = VECTOR( '', #403, 1000.00000000000 );
#366 = CARTESIAN_POINT( '', ( 15.0000000000000, 8.00000000000000, 8.66025403784439 ) );
#367 = VECTOR( '', #404, 1000.00000000000 );
#368 = CARTESIAN_POINT( '', ( 0.000000000000000, 8.00000000000000, -17.3205080756888 ) );
#369 = VECTOR( '', #405, 1000.00000000000 );
#370 = COLOUR_RGB( '', 0.689999997600000, 0.689999997600000, 0.689999997600000 );
#371 = CARTESIAN_POINT( '', ( 0.000000000000000, 7.56449748935085, 17.2985520797435 ) );
#372 = VECTOR( '', #406, 1000.00000000000 );
#373 = CARTESIAN_POINT( '', ( 14.9809855497460, 7.56449748935085, 8.64927603987177 ) );
#374 = VECTOR( '', #407, 1000.00000000000 );
#375 = COLOUR_RGB( '', 0.689999997600000, 0.689999997600000, 0.689999997600000 );
#376 = CARTESIAN_POINT( '', ( -14.9809855497460, 7.56449748935085, 8.64927603987177 ) );
#377 = VECTOR( '', #408, 1000.00000000000 );
#378 = COLOUR_RGB( '', 0.689999997600000, 0.689999997600000, 0.689999997600000 );
#379 = CARTESIAN_POINT( '', ( -14.9809855497460, 7.56449748935085, -8.64927603987177 ) );
#380 = VECTOR( '', #409, 1000.00000000000 );
#381 = COLOUR_RGB( '', 0.689999997600000, 0.689999997600000, 0.689999997600000 );
#382 = COLOUR_RGB( '', 0.689999997600000, 0.689999997600000, 0.689999997600000 );
#383 = CARTESIAN_POINT( '', ( 0.000000000000000, 38.0000000000000, 0.000000000000000 ) );
#384 = DIRECTION( '', ( 0.000000000000000, -1.00000000000000, -0.000000000000000 ) );
#385 = DIRECTION( '', ( 0.000000000000000, 0.000000000000000, -1.00000000000000 ) );
#386 = CARTESIAN_POINT( '', ( 0.000000000000000, 37.2330000000000, 0.000000000000000 ) );
#387 = DIRECTION( '', ( 0.000000000000000, -1.00000000000000, -0.000000000000000 ) );
#388 = DIRECTION( '', ( 0.000000000000000, 0.000000000000000, -1.00000000000000 ) );
#389 = CARTESIAN_POINT( '', ( 0.000000000000000, 8.00000000000000, 0.000000000000000 ) );
#390 = DIRECTION( '', ( 0.000000000000000, -1.00000000000000, -0.000000000000000 ) );
#391 = DIRECTION( '', ( 0.000000000000000, 0.000000000000000, -1.00000000000000 ) );
#392 = DIRECTION( '', ( -0.866025403784439, 0.000000000000000, -0.500000000000000 ) );
#393 = DIRECTION( '', ( 0.0436055618630999, 0.998731565520054, -0.0251756828798256 ) );
#394 = DIRECTION( '', ( -0.866025403784439, 0.000000000000000, -0.500000000000000 ) );
#395 = DIRECTION( '', ( 0.000000000000000, 0.998731565520054, -0.0503513657596513 ) );
#396 = DIRECTION( '', ( 0.000000000000000, 0.000000000000000, 1.00000000000000 ) );
#397 = DIRECTION( '', ( -0.866025403784439, 0.000000000000000, 0.500000000000000 ) );
#398 = DIRECTION( '', ( 0.000000000000000, 0.000000000000000, -1.00000000000000 ) );
#399 = DIRECTION( '', ( 0.866025403784439, 0.000000000000000, -0.500000000000000 ) );
#400 = DIRECTION( '', ( 0.866025403784439, 0.000000000000000, 0.500000000000000 ) );
#401 = DIRECTION( '', ( 0.000000000000000, 0.000000000000000, 1.00000000000000 ) );
#402 = DIRECTION( '', ( 0.866025403784439, 0.000000000000000, 0.500000000000000 ) );
#403 = DIRECTION( '', ( 0.866025403784439, 0.000000000000000, -0.500000000000000 ) );
#404 = DIRECTION( '', ( 0.000000000000000, 0.000000000000000, -1.00000000000000 ) );
#405 = DIRECTION( '', ( -0.866025403784439, 0.000000000000000, 0.500000000000000 ) );
#406 = DIRECTION( '', ( 0.000000000000000, 0.998731565520054, 0.0503513657596513 ) );
#407 = DIRECTION( '', ( 0.0436055618630999, 0.998731565520054, 0.0251756828798256 ) );
#408 = DIRECTION( '', ( -0.0436055618630999, 0.998731565520054, 0.0251756828798256 ) );
#409 = DIRECTION( '', ( -0.0436055618630999, 0.998731565520054, -0.0251756828798256 ) );
ENDSEC;
END-ISO-10303-21;
