ISO-10303-21;
HEADER;
FILE_DESCRIPTION( ( 'STEP AP214' ), '1' );
FILE_NAME( '//goodhand-server/Shared Folders/GoodHand Data/Kipp CAD/K0549/K0549.22.stp', '2020-12-08T15:53:05', ( '' ), ( '' ), ' ', 'PARTsolutions', ' ' );
FILE_SCHEMA( ( 'AUTOMOTIVE_DESIGN { 1 0 10303 214 1 1 1 1 }' ) );
ENDSEC;
DATA;
#1 = MECHANICAL_DESIGN_GEOMETRIC_PRESENTATION_REPRESENTATION( ' ', ( #10, #11, #12, #13, #14, #15, #16 ), #6 );
#2 = PRODUCT_DEFINITION_CONTEXT( '', #17, 'design' );
#3 = APPLICATION_PROTOCOL_DEFINITION( 'international standard', 'automotive_design', 2001, #17 );
#4 = PRODUCT_CATEGORY_RELATIONSHIP( 'NONE', 'NONE', #18, #19 );
#5 = SHAPE_DEFINITION_REPRESENTATION( #20, #21 );
#6 =  ( GEOMETRIC_REPRESENTATION_CONTEXT( 3 )GLOBAL_UNCERTAINTY_ASSIGNED_CONTEXT( ( #24 ) )GLOBAL_UNIT_ASSIGNED_CONTEXT( ( #26, #27, #28 ) )REPRESENTATION_CONTEXT( 'NONE', 'WORKSPACE' ) );
#10 = STYLED_ITEM( '', ( #30 ), #31 );
#11 = STYLED_ITEM( '', ( #32 ), #33 );
#12 = STYLED_ITEM( '', ( #34 ), #35 );
#13 = STYLED_ITEM( '', ( #36 ), #37 );
#14 = STYLED_ITEM( '', ( #38 ), #39 );
#15 = STYLED_ITEM( '', ( #40 ), #41 );
#16 = STYLED_ITEM( '', ( #42 ), #43 );
#17 = APPLICATION_CONTEXT( 'core data for automotive mechanical design processes' );
#18 = PRODUCT_CATEGORY( 'part', 'NONE' );
#19 = PRODUCT_RELATED_PRODUCT_CATEGORY( 'detail', ' ', ( #44 ) );
#20 = PRODUCT_DEFINITION_SHAPE( 'NONE', 'NONE', #45 );
#21 = ADVANCED_BREP_SHAPE_REPRESENTATION( '_K0549.22', ( #46, #47 ), #6 );
#24 = UNCERTAINTY_MEASURE_WITH_UNIT( LENGTH_MEASURE( 0.00100000000000000 ), #26, '', '' );
#26 =  ( CONVERSION_BASED_UNIT( 'MILLIMETRE', #50 )LENGTH_UNIT(  )NAMED_UNIT( #53 ) );
#27 =  ( NAMED_UNIT( #55 )PLANE_ANGLE_UNIT(  )SI_UNIT( $, .RADIAN. ) );
#28 =  ( NAMED_UNIT( #55 )SI_UNIT( $, .STERADIAN. )SOLID_ANGLE_UNIT(  ) );
#30 = PRESENTATION_STYLE_ASSIGNMENT( ( #61 ) );
#31 = ADVANCED_FACE( '', ( #62 ), #63, .F. );
#32 = PRESENTATION_STYLE_ASSIGNMENT( ( #64 ) );
#33 = ADVANCED_FACE( '', ( #65, #66 ), #67, .T. );
#34 = PRESENTATION_STYLE_ASSIGNMENT( ( #68 ) );
#35 = ADVANCED_FACE( '', ( #69, #70 ), #71, .F. );
#36 = PRESENTATION_STYLE_ASSIGNMENT( ( #72 ) );
#37 = ADVANCED_FACE( '', ( #73, #74 ), #75, .T. );
#38 = PRESENTATION_STYLE_ASSIGNMENT( ( #76 ) );
#39 = ADVANCED_FACE( '', ( #77, #78 ), #79, .T. );
#40 = PRESENTATION_STYLE_ASSIGNMENT( ( #80 ) );
#41 = ADVANCED_FACE( '', ( #81, #82 ), #83, .T. );
#42 = PRESENTATION_STYLE_ASSIGNMENT( ( #84 ) );
#43 = ADVANCED_FACE( '', ( #85 ), #86, .F. );
#44 = PRODUCT( '_K0549.22', '_K0549.22', 'PART-_K0549.22-DESC', ( #87 ) );
#45 = PRODUCT_DEFINITION( 'NONE', 'NONE', #88, #2 );
#46 = MANIFOLD_SOLID_BREP( '_K0549.22', #89 );
#47 = AXIS2_PLACEMENT_3D( '', #90, #91, #92 );
#50 = LENGTH_MEASURE_WITH_UNIT( LENGTH_MEASURE( 1.00000000000000 ), #93 );
#53 = DIMENSIONAL_EXPONENTS( 1.00000000000000, 0.000000000000000, 0.000000000000000, 0.000000000000000, 0.000000000000000, 0.000000000000000, 0.000000000000000 );
#55 = DIMENSIONAL_EXPONENTS( 0.000000000000000, 0.000000000000000, 0.000000000000000, 0.000000000000000, 0.000000000000000, 0.000000000000000, 0.000000000000000 );
#61 = SURFACE_STYLE_USAGE( .BOTH., #94 );
#62 = FACE_OUTER_BOUND( '', #95, .T. );
#63 = PLANE( '', #96 );
#64 = SURFACE_STYLE_USAGE( .BOTH., #97 );
#65 = FACE_OUTER_BOUND( '', #98, .T. );
#66 = FACE_OUTER_BOUND( '', #99, .T. );
#67 = CYLINDRICAL_SURFACE( '', #100, 1.50000000000000 );
#68 = SURFACE_STYLE_USAGE( .BOTH., #101 );
#69 = FACE_OUTER_BOUND( '', #102, .T. );
#70 = FACE_BOUND( '', #103, .T. );
#71 = PLANE( '', #104 );
#72 = SURFACE_STYLE_USAGE( .BOTH., #105 );
#73 = FACE_OUTER_BOUND( '', #106, .T. );
#74 = FACE_OUTER_BOUND( '', #107, .T. );
#75 = CYLINDRICAL_SURFACE( '', #108, 6.50000000000000 );
#76 = SURFACE_STYLE_USAGE( .BOTH., #109 );
#77 = FACE_OUTER_BOUND( '', #110, .T. );
#78 = FACE_OUTER_BOUND( '', #111, .T. );
#79 = TOROIDAL_SURFACE( '', #112, 5.82500000000000, 0.675000000000000 );
#80 = SURFACE_STYLE_USAGE( .BOTH., #113 );
#81 = FACE_OUTER_BOUND( '', #114, .T. );
#82 = FACE_BOUND( '', #115, .T. );
#83 = CONICAL_SURFACE( '', #116, 1.19350000000000, 0.785398163400000 );
#84 = SURFACE_STYLE_USAGE( .BOTH., #117 );
#85 = FACE_OUTER_BOUND( '', #118, .T. );
#86 = PLANE( '', #119 );
#87 = PRODUCT_CONTEXT( '', #17, 'mechanical' );
#88 = PRODUCT_DEFINITION_FORMATION_WITH_SPECIFIED_SOURCE( ' ', 'NONE', #44, .NOT_KNOWN. );
#89 = CLOSED_SHELL( '', ( #37, #39, #35, #43, #41, #33, #31 ) );
#90 = CARTESIAN_POINT( '', ( 0.000000000000000, 0.000000000000000, 0.000000000000000 ) );
#91 = DIRECTION( '', ( 0.000000000000000, 0.000000000000000, 1.00000000000000 ) );
#92 = DIRECTION( '', ( 1.00000000000000, 0.000000000000000, 0.000000000000000 ) );
#93 =  ( LENGTH_UNIT(  )NAMED_UNIT( #53 )SI_UNIT( .MILLI., .METRE. ) );
#94 = SURFACE_SIDE_STYLE( '', ( #121 ) );
#95 = EDGE_LOOP( '', ( #122 ) );
#96 = AXIS2_PLACEMENT_3D( '', #123, #124, #125 );
#97 = SURFACE_SIDE_STYLE( '', ( #126 ) );
#98 = EDGE_LOOP( '', ( #127 ) );
#99 = EDGE_LOOP( '', ( #128 ) );
#100 = AXIS2_PLACEMENT_3D( '', #129, #130, #131 );
#101 = SURFACE_SIDE_STYLE( '', ( #132 ) );
#102 = EDGE_LOOP( '', ( #133 ) );
#103 = EDGE_LOOP( '', ( #134 ) );
#104 = AXIS2_PLACEMENT_3D( '', #135, #136, #137 );
#105 = SURFACE_SIDE_STYLE( '', ( #138 ) );
#106 = EDGE_LOOP( '', ( #139 ) );
#107 = EDGE_LOOP( '', ( #140 ) );
#108 = AXIS2_PLACEMENT_3D( '', #141, #142, #143 );
#109 = SURFACE_SIDE_STYLE( '', ( #144 ) );
#110 = EDGE_LOOP( '', ( #145 ) );
#111 = EDGE_LOOP( '', ( #146 ) );
#112 = AXIS2_PLACEMENT_3D( '', #147, #148, #149 );
#113 = SURFACE_SIDE_STYLE( '', ( #150 ) );
#114 = EDGE_LOOP( '', ( #151 ) );
#115 = EDGE_LOOP( '', ( #152 ) );
#116 = AXIS2_PLACEMENT_3D( '', #153, #154, #155 );
#117 = SURFACE_SIDE_STYLE( '', ( #156 ) );
#118 = EDGE_LOOP( '', ( #157 ) );
#119 = AXIS2_PLACEMENT_3D( '', #158, #159, #160 );
#121 = SURFACE_STYLE_FILL_AREA( #161 );
#122 = ORIENTED_EDGE( '', *, *, #162, .T. );
#123 = CARTESIAN_POINT( '', ( 6.50000000000001, 2.16840434497101E-16, 0.000000000000000 ) );
#124 = DIRECTION( '', ( 0.000000000000000, 1.00000000000000, 0.000000000000000 ) );
#125 = DIRECTION( '', ( 0.000000000000000, -0.000000000000000, 1.00000000000000 ) );
#126 = SURFACE_STYLE_FILL_AREA( #163 );
#127 = ORIENTED_EDGE( '', *, *, #164, .F. );
#128 = ORIENTED_EDGE( '', *, *, #165, .T. );
#129 = CARTESIAN_POINT( '', ( 0.000000000000000, 0.000000000000000, 0.000000000000000 ) );
#130 = DIRECTION( '', ( -0.000000000000000, 1.00000000000000, 0.000000000000000 ) );
#131 = DIRECTION( '', ( 0.000000000000000, 0.000000000000000, -1.00000000000000 ) );
#132 = SURFACE_STYLE_FILL_AREA( #166 );
#133 = ORIENTED_EDGE( '', *, *, #167, .F. );
#134 = ORIENTED_EDGE( '', *, *, #164, .T. );
#135 = CARTESIAN_POINT( '', ( 1.50000000000000, 4.50000000000000, 0.000000000000000 ) );
#136 = DIRECTION( '', ( 0.000000000000000, -1.00000000000000, -0.000000000000000 ) );
#137 = DIRECTION( '', ( 0.000000000000000, 0.000000000000000, -1.00000000000000 ) );
#138 = SURFACE_STYLE_FILL_AREA( #168 );
#139 = ORIENTED_EDGE( '', *, *, #162, .F. );
#140 = ORIENTED_EDGE( '', *, *, #169, .T. );
#141 = CARTESIAN_POINT( '', ( 0.000000000000000, 0.000000000000000, 0.000000000000000 ) );
#142 = DIRECTION( '', ( -0.000000000000000, 1.00000000000000, 0.000000000000000 ) );
#143 = DIRECTION( '', ( 0.000000000000000, 0.000000000000000, -1.00000000000000 ) );
#144 = SURFACE_STYLE_FILL_AREA( #170 );
#145 = ORIENTED_EDGE( '', *, *, #167, .T. );
#146 = ORIENTED_EDGE( '', *, *, #169, .F. );
#147 = CARTESIAN_POINT( '', ( 0.000000000000000, 3.82500000000000, 0.000000000000000 ) );
#148 = DIRECTION( '', ( 0.000000000000000, -1.00000000000000, -0.000000000000000 ) );
#149 = DIRECTION( '', ( 0.000000000000000, 0.000000000000000, -1.00000000000000 ) );
#150 = SURFACE_STYLE_FILL_AREA( #171 );
#151 = ORIENTED_EDGE( '', *, *, #165, .F. );
#152 = ORIENTED_EDGE( '', *, *, #172, .T. );
#153 = CARTESIAN_POINT( '', ( 0.000000000000000, 11.5000000000000, 0.000000000000000 ) );
#154 = DIRECTION( '', ( -0.000000000000000, -1.00000000000000, -0.000000000000000 ) );
#155 = DIRECTION( '', ( 0.000000000000000, 0.000000000000000, -1.00000000000000 ) );
#156 = SURFACE_STYLE_FILL_AREA( #173 );
#157 = ORIENTED_EDGE( '', *, *, #172, .F. );
#158 = CARTESIAN_POINT( '', ( 0.000000000000000, 11.5000000000000, 0.000000000000000 ) );
#159 = DIRECTION( '', ( 0.000000000000000, -1.00000000000000, -0.000000000000000 ) );
#160 = DIRECTION( '', ( 0.000000000000000, 0.000000000000000, -1.00000000000000 ) );
#161 = FILL_AREA_STYLE( '', ( #174 ) );
#162 = EDGE_CURVE( '', #175, #175, #176, .T. );
#163 = FILL_AREA_STYLE( '', ( #177 ) );
#164 = EDGE_CURVE( '', #178, #178, #179, .T. );
#165 = EDGE_CURVE( '', #180, #180, #181, .T. );
#166 = FILL_AREA_STYLE( '', ( #182 ) );
#167 = EDGE_CURVE( '', #183, #183, #184, .T. );
#168 = FILL_AREA_STYLE( '', ( #185 ) );
#169 = EDGE_CURVE( '', #186, #186, #187, .T. );
#170 = FILL_AREA_STYLE( '', ( #188 ) );
#171 = FILL_AREA_STYLE( '', ( #189 ) );
#172 = EDGE_CURVE( '', #190, #190, #191, .T. );
#173 = FILL_AREA_STYLE( '', ( #192 ) );
#174 = FILL_AREA_STYLE_COLOUR( '', #193 );
#175 = VERTEX_POINT( '', #194 );
#176 = CIRCLE( '', #195, 6.50000000000000 );
#177 = FILL_AREA_STYLE_COLOUR( '', #196 );
#178 = VERTEX_POINT( '', #197 );
#179 = CIRCLE( '', #198, 1.50000000000000 );
#180 = VERTEX_POINT( '', #199 );
#181 = CIRCLE( '', #200, 1.50000000000000 );
#182 = FILL_AREA_STYLE_COLOUR( '', #201 );
#183 = VERTEX_POINT( '', #202 );
#184 = CIRCLE( '', #203, 5.82500000000000 );
#185 = FILL_AREA_STYLE_COLOUR( '', #204 );
#186 = VERTEX_POINT( '', #205 );
#187 = CIRCLE( '', #206, 6.50000000000000 );
#188 = FILL_AREA_STYLE_COLOUR( '', #207 );
#189 = FILL_AREA_STYLE_COLOUR( '', #208 );
#190 = VERTEX_POINT( '', #209 );
#191 = CIRCLE( '', #210, 1.19350000000000 );
#192 = FILL_AREA_STYLE_COLOUR( '', #211 );
#193 = COLOUR_RGB( '', 0.689999997600000, 0.689999997600000, 0.689999997600000 );
#194 = CARTESIAN_POINT( '', ( 0.000000000000000, 4.33680868994202E-16, -6.50000000000001 ) );
#195 = AXIS2_PLACEMENT_3D( '', #212, #213, #214 );
#196 = COLOUR_RGB( '', 0.689999997600000, 0.689999997600000, 0.689999997600000 );
#197 = CARTESIAN_POINT( '', ( 0.000000000000000, 4.50000000000000, -1.50000000000000 ) );
#198 = AXIS2_PLACEMENT_3D( '', #215, #216, #217 );
#199 = CARTESIAN_POINT( '', ( 0.000000000000000, 11.1935000000000, -1.50000000000000 ) );
#200 = AXIS2_PLACEMENT_3D( '', #218, #219, #220 );
#201 = COLOUR_RGB( '', 0.689999997600000, 0.689999997600000, 0.689999997600000 );
#202 = CARTESIAN_POINT( '', ( 0.000000000000000, 4.50000000000000, -5.82500000000000 ) );
#203 = AXIS2_PLACEMENT_3D( '', #221, #222, #223 );
#204 = COLOUR_RGB( '', 0.689999997600000, 0.689999997600000, 0.689999997600000 );
#205 = CARTESIAN_POINT( '', ( 0.000000000000000, 3.82500000000000, -6.50000000000000 ) );
#206 = AXIS2_PLACEMENT_3D( '', #224, #225, #226 );
#207 = COLOUR_RGB( '', 0.689999997600000, 0.689999997600000, 0.689999997600000 );
#208 = COLOUR_RGB( '', 0.689999997600000, 0.689999997600000, 0.689999997600000 );
#209 = CARTESIAN_POINT( '', ( 0.000000000000000, 11.5000000000000, -1.19350000000000 ) );
#210 = AXIS2_PLACEMENT_3D( '', #227, #228, #229 );
#211 = COLOUR_RGB( '', 0.689999997600000, 0.689999997600000, 0.689999997600000 );
#212 = CARTESIAN_POINT( '', ( 0.000000000000000, 4.33680868994202E-16, 0.000000000000000 ) );
#213 = DIRECTION( '', ( 0.000000000000000, -1.00000000000000, -0.000000000000000 ) );
#214 = DIRECTION( '', ( 0.000000000000000, 0.000000000000000, -1.00000000000000 ) );
#215 = CARTESIAN_POINT( '', ( 0.000000000000000, 4.50000000000000, 0.000000000000000 ) );
#216 = DIRECTION( '', ( 0.000000000000000, -1.00000000000000, -0.000000000000000 ) );
#217 = DIRECTION( '', ( 0.000000000000000, 0.000000000000000, -1.00000000000000 ) );
#218 = CARTESIAN_POINT( '', ( 0.000000000000000, 11.1935000000000, 0.000000000000000 ) );
#219 = DIRECTION( '', ( 0.000000000000000, -1.00000000000000, -0.000000000000000 ) );
#220 = DIRECTION( '', ( 0.000000000000000, 0.000000000000000, -1.00000000000000 ) );
#221 = CARTESIAN_POINT( '', ( 0.000000000000000, 4.50000000000000, 0.000000000000000 ) );
#222 = DIRECTION( '', ( 0.000000000000000, -1.00000000000000, -0.000000000000000 ) );
#223 = DIRECTION( '', ( 0.000000000000000, 0.000000000000000, -1.00000000000000 ) );
#224 = CARTESIAN_POINT( '', ( 0.000000000000000, 3.82500000000000, 0.000000000000000 ) );
#225 = DIRECTION( '', ( 0.000000000000000, -1.00000000000000, -0.000000000000000 ) );
#226 = DIRECTION( '', ( 0.000000000000000, 0.000000000000000, -1.00000000000000 ) );
#227 = CARTESIAN_POINT( '', ( 0.000000000000000, 11.5000000000000, 0.000000000000000 ) );
#228 = DIRECTION( '', ( 0.000000000000000, -1.00000000000000, -0.000000000000000 ) );
#229 = DIRECTION( '', ( 0.000000000000000, 0.000000000000000, -1.00000000000000 ) );
ENDSEC;
END-ISO-10303-21;
