ISO-10303-21;
HEADER;
FILE_DESCRIPTION( ( 'STEP AP214' ), '1' );
FILE_NAME( '//goodhand-server/Shared Folders/GoodHand Data/Kipp CAD/K1129/K1129.10034.stp', '2020-12-10T10:17:04', ( '' ), ( '' ), ' ', 'PARTsolutions', ' ' );
FILE_SCHEMA( ( 'AUTOMOTIVE_DESIGN { 1 0 10303 214 1 1 1 1 }' ) );
ENDSEC;
DATA;
#1 = MECHANICAL_DESIGN_GEOMETRIC_PRESENTATION_REPRESENTATION( ' ', ( #10, #11, #12, #13, #14, #15, #16, #17, #18, #19, #20, #21 ), #6 );
#2 = PRODUCT_DEFINITION_CONTEXT( '', #22, 'design' );
#3 = APPLICATION_PROTOCOL_DEFINITION( 'international standard', 'automotive_design', 2001, #22 );
#4 = PRODUCT_CATEGORY_RELATIONSHIP( 'NONE', 'NONE', #23, #24 );
#5 = SHAPE_DEFINITION_REPRESENTATION( #25, #26 );
#6 =  ( GEOMETRIC_REPRESENTATION_CONTEXT( 3 )GLOBAL_UNCERTAINTY_ASSIGNED_CONTEXT( ( #29 ) )GLOBAL_UNIT_ASSIGNED_CONTEXT( ( #31, #32, #33 ) )REPRESENTATION_CONTEXT( 'NONE', 'WORKSPACE' ) );
#10 = STYLED_ITEM( '', ( #35 ), #36 );
#11 = STYLED_ITEM( '', ( #37 ), #38 );
#12 = STYLED_ITEM( '', ( #39 ), #40 );
#13 = STYLED_ITEM( '', ( #41 ), #42 );
#14 = STYLED_ITEM( '', ( #43 ), #44 );
#15 = STYLED_ITEM( '', ( #45 ), #46 );
#16 = STYLED_ITEM( '', ( #47 ), #48 );
#17 = STYLED_ITEM( '', ( #49 ), #50 );
#18 = STYLED_ITEM( '', ( #51 ), #52 );
#19 = STYLED_ITEM( '', ( #53 ), #54 );
#20 = STYLED_ITEM( '', ( #55 ), #56 );
#21 = STYLED_ITEM( '', ( #57 ), #58 );
#22 = APPLICATION_CONTEXT( 'core data for automotive mechanical design processes' );
#23 = PRODUCT_CATEGORY( 'part', 'NONE' );
#24 = PRODUCT_RELATED_PRODUCT_CATEGORY( 'detail', ' ', ( #59 ) );
#25 = PRODUCT_DEFINITION_SHAPE( 'NONE', 'NONE', #60 );
#26 = ADVANCED_BREP_SHAPE_REPRESENTATION( '_K1129.10034', ( #61, #62 ), #6 );
#29 = UNCERTAINTY_MEASURE_WITH_UNIT( LENGTH_MEASURE( 0.00100000000000000 ), #31, '', '' );
#31 =  ( CONVERSION_BASED_UNIT( 'MILLIMETRE', #65 )LENGTH_UNIT(  )NAMED_UNIT( #68 ) );
#32 =  ( NAMED_UNIT( #70 )PLANE_ANGLE_UNIT(  )SI_UNIT( $, .RADIAN. ) );
#33 =  ( NAMED_UNIT( #70 )SI_UNIT( $, .STERADIAN. )SOLID_ANGLE_UNIT(  ) );
#35 = PRESENTATION_STYLE_ASSIGNMENT( ( #76 ) );
#36 = ADVANCED_FACE( '', ( #77, #78 ), #79, .F. );
#37 = PRESENTATION_STYLE_ASSIGNMENT( ( #80 ) );
#38 = ADVANCED_FACE( '', ( #81 ), #82, .T. );
#39 = PRESENTATION_STYLE_ASSIGNMENT( ( #83 ) );
#40 = ADVANCED_FACE( '', ( #84, #85 ), #86, .T. );
#41 = PRESENTATION_STYLE_ASSIGNMENT( ( #87 ) );
#42 = ADVANCED_FACE( '', ( #88 ), #89, .T. );
#43 = PRESENTATION_STYLE_ASSIGNMENT( ( #90 ) );
#44 = ADVANCED_FACE( '', ( #91 ), #92, .T. );
#45 = PRESENTATION_STYLE_ASSIGNMENT( ( #93 ) );
#46 = ADVANCED_FACE( '', ( #94 ), #95, .T. );
#47 = PRESENTATION_STYLE_ASSIGNMENT( ( #96 ) );
#48 = ADVANCED_FACE( '', ( #97 ), #98, .F. );
#49 = PRESENTATION_STYLE_ASSIGNMENT( ( #99 ) );
#50 = ADVANCED_FACE( '', ( #100 ), #101, .F. );
#51 = PRESENTATION_STYLE_ASSIGNMENT( ( #102 ) );
#52 = ADVANCED_FACE( '', ( #103 ), #104, .T. );
#53 = PRESENTATION_STYLE_ASSIGNMENT( ( #105 ) );
#54 = ADVANCED_FACE( '', ( #106, #107 ), #108, .T. );
#55 = PRESENTATION_STYLE_ASSIGNMENT( ( #109 ) );
#56 = ADVANCED_FACE( '', ( #110, #111 ), #112, .T. );
#57 = PRESENTATION_STYLE_ASSIGNMENT( ( #113 ) );
#58 = ADVANCED_FACE( '', ( #114 ), #115, .T. );
#59 = PRODUCT( '_K1129.10034', '_K1129.10034', 'PART-_K1129.10034-DESC', ( #116 ) );
#60 = PRODUCT_DEFINITION( 'NONE', 'NONE', #117, #2 );
#61 = MANIFOLD_SOLID_BREP( '_K1129.10034', #118 );
#62 = AXIS2_PLACEMENT_3D( '', #119, #120, #121 );
#65 = LENGTH_MEASURE_WITH_UNIT( LENGTH_MEASURE( 1.00000000000000 ), #122 );
#68 = DIMENSIONAL_EXPONENTS( 1.00000000000000, 0.000000000000000, 0.000000000000000, 0.000000000000000, 0.000000000000000, 0.000000000000000, 0.000000000000000 );
#70 = DIMENSIONAL_EXPONENTS( 0.000000000000000, 0.000000000000000, 0.000000000000000, 0.000000000000000, 0.000000000000000, 0.000000000000000, 0.000000000000000 );
#76 = SURFACE_STYLE_USAGE( .BOTH., #123 );
#77 = FACE_OUTER_BOUND( '', #124, .T. );
#78 = FACE_BOUND( '', #125, .T. );
#79 = PLANE( '', #126 );
#80 = SURFACE_STYLE_USAGE( .BOTH., #127 );
#81 = FACE_OUTER_BOUND( '', #128, .T. );
#82 = PLANE( '', #129 );
#83 = SURFACE_STYLE_USAGE( .BOTH., #130 );
#84 = FACE_BOUND( '', #131, .T. );
#85 = FACE_OUTER_BOUND( '', #132, .T. );
#86 = CONICAL_SURFACE( '', #133, 13.3938522167000, 0.0314159265000000 );
#87 = SURFACE_STYLE_USAGE( .BOTH., #134 );
#88 = FACE_OUTER_BOUND( '', #135, .T. );
#89 = PLANE( '', #136 );
#90 = SURFACE_STYLE_USAGE( .BOTH., #137 );
#91 = FACE_OUTER_BOUND( '', #138, .T. );
#92 = PLANE( '', #139 );
#93 = SURFACE_STYLE_USAGE( .BOTH., #140 );
#94 = FACE_OUTER_BOUND( '', #141, .T. );
#95 = PLANE( '', #142 );
#96 = SURFACE_STYLE_USAGE( .BOTH., #143 );
#97 = FACE_OUTER_BOUND( '', #144, .T. );
#98 = PLANE( '', #145 );
#99 = SURFACE_STYLE_USAGE( .BOTH., #146 );
#100 = FACE_OUTER_BOUND( '', #147, .T. );
#101 = PLANE( '', #148 );
#102 = SURFACE_STYLE_USAGE( .BOTH., #149 );
#103 = FACE_OUTER_BOUND( '', #150, .T. );
#104 = PLANE( '', #151 );
#105 = SURFACE_STYLE_USAGE( .BOTH., #152 );
#106 = FACE_OUTER_BOUND( '', #153, .T. );
#107 = FACE_BOUND( '', #154, .T. );
#108 = CONICAL_SURFACE( '', #155, 12.9095575963000, 0.769690200100000 );
#109 = SURFACE_STYLE_USAGE( .BOTH., #156 );
#110 = FACE_BOUND( '', #157, .T. );
#111 = FACE_OUTER_BOUND( '', #158, .T. );
#112 = CONICAL_SURFACE( '', #159, 13.0481477833000, 0.801106126700000 );
#113 = SURFACE_STYLE_USAGE( .BOTH., #160 );
#114 = FACE_OUTER_BOUND( '', #161, .T. );
#115 = PLANE( '', #162 );
#116 = PRODUCT_CONTEXT( '', #22, 'mechanical' );
#117 = PRODUCT_DEFINITION_FORMATION_WITH_SPECIFIED_SOURCE( ' ', 'NONE', #59, .NOT_KNOWN. );
#118 = CLOSED_SHELL( '', ( #54, #36, #38, #58, #52, #50, #56, #40, #42, #44, #46, #48 ) );
#119 = CARTESIAN_POINT( '', ( 0.000000000000000, 0.000000000000000, 0.000000000000000 ) );
#120 = DIRECTION( '', ( 0.000000000000000, 0.000000000000000, 1.00000000000000 ) );
#121 = DIRECTION( '', ( 1.00000000000000, 0.000000000000000, 0.000000000000000 ) );
#122 =  ( LENGTH_UNIT(  )NAMED_UNIT( #68 )SI_UNIT( .MILLI., .METRE. ) );
#123 = SURFACE_SIDE_STYLE( '', ( #164 ) );
#124 = EDGE_LOOP( '', ( #165 ) );
#125 = EDGE_LOOP( '', ( #166, #167, #168, #169, #170, #171 ) );
#126 = AXIS2_PLACEMENT_3D( '', #172, #173, #174 );
#127 = SURFACE_SIDE_STYLE( '', ( #175 ) );
#128 = EDGE_LOOP( '', ( #176, #177, #178, #179 ) );
#129 = AXIS2_PLACEMENT_3D( '', #180, #181, #182 );
#130 = SURFACE_SIDE_STYLE( '', ( #183 ) );
#131 = EDGE_LOOP( '', ( #184 ) );
#132 = EDGE_LOOP( '', ( #185 ) );
#133 = AXIS2_PLACEMENT_3D( '', #186, #187, #188 );
#134 = SURFACE_SIDE_STYLE( '', ( #189 ) );
#135 = EDGE_LOOP( '', ( #190, #191, #192, #193 ) );
#136 = AXIS2_PLACEMENT_3D( '', #194, #195, #196 );
#137 = SURFACE_SIDE_STYLE( '', ( #197 ) );
#138 = EDGE_LOOP( '', ( #198, #199, #200, #201 ) );
#139 = AXIS2_PLACEMENT_3D( '', #202, #203, #204 );
#140 = SURFACE_SIDE_STYLE( '', ( #205 ) );
#141 = EDGE_LOOP( '', ( #206, #207, #208, #209 ) );
#142 = AXIS2_PLACEMENT_3D( '', #210, #211, #212 );
#143 = SURFACE_SIDE_STYLE( '', ( #213 ) );
#144 = EDGE_LOOP( '', ( #214, #215, #216, #217, #218, #219 ) );
#145 = AXIS2_PLACEMENT_3D( '', #220, #221, #222 );
#146 = SURFACE_SIDE_STYLE( '', ( #223 ) );
#147 = EDGE_LOOP( '', ( #224 ) );
#148 = AXIS2_PLACEMENT_3D( '', #225, #226, #227 );
#149 = SURFACE_SIDE_STYLE( '', ( #228 ) );
#150 = EDGE_LOOP( '', ( #229, #230, #231, #232 ) );
#151 = AXIS2_PLACEMENT_3D( '', #233, #234, #235 );
#152 = SURFACE_SIDE_STYLE( '', ( #236 ) );
#153 = EDGE_LOOP( '', ( #237 ) );
#154 = EDGE_LOOP( '', ( #238 ) );
#155 = AXIS2_PLACEMENT_3D( '', #239, #240, #241 );
#156 = SURFACE_SIDE_STYLE( '', ( #242 ) );
#157 = EDGE_LOOP( '', ( #243 ) );
#158 = EDGE_LOOP( '', ( #244 ) );
#159 = AXIS2_PLACEMENT_3D( '', #245, #246, #247 );
#160 = SURFACE_SIDE_STYLE( '', ( #248 ) );
#161 = EDGE_LOOP( '', ( #249, #250, #251, #252 ) );
#162 = AXIS2_PLACEMENT_3D( '', #253, #254, #255 );
#164 = SURFACE_STYLE_FILL_AREA( #256 );
#165 = ORIENTED_EDGE( '', *, *, #257, .F. );
#166 = ORIENTED_EDGE( '', *, *, #258, .T. );
#167 = ORIENTED_EDGE( '', *, *, #259, .T. );
#168 = ORIENTED_EDGE( '', *, *, #260, .T. );
#169 = ORIENTED_EDGE( '', *, *, #261, .T. );
#170 = ORIENTED_EDGE( '', *, *, #262, .T. );
#171 = ORIENTED_EDGE( '', *, *, #263, .T. );
#172 = CARTESIAN_POINT( '', ( -8.55061054965146E-16, 0.000000000000000, 0.000000000000000 ) );
#173 = DIRECTION( '', ( 1.00000000000000, 0.000000000000000, -0.000000000000000 ) );
#174 = DIRECTION( '', ( -0.000000000000000, 0.000000000000000, -1.00000000000000 ) );
#175 = SURFACE_STYLE_FILL_AREA( #264 );
#176 = ORIENTED_EDGE( '', *, *, #259, .F. );
#177 = ORIENTED_EDGE( '', *, *, #265, .F. );
#178 = ORIENTED_EDGE( '', *, *, #266, .T. );
#179 = ORIENTED_EDGE( '', *, *, #267, .T. );
#180 = CARTESIAN_POINT( '', ( 6.00000000000000, -3.46410161513775, 6.00000000000000 ) );
#181 = DIRECTION( '', ( 0.000000000000000, 0.866025403784439, -0.500000000000000 ) );
#182 = DIRECTION( '', ( 0.000000000000000, 0.500000000000000, 0.866025403784439 ) );
#183 = SURFACE_STYLE_FILL_AREA( #268 );
#184 = ORIENTED_EDGE( '', *, *, #269, .F. );
#185 = ORIENTED_EDGE( '', *, *, #270, .T. );
#186 = CARTESIAN_POINT( '', ( 0.499753280182863, 0.000000000000000, 0.000000000000000 ) );
#187 = DIRECTION( '', ( -1.00000000000000, 0.000000000000000, -0.000000000000000 ) );
#188 = DIRECTION( '', ( 0.000000000000000, 0.000000000000000, 1.00000000000000 ) );
#189 = SURFACE_STYLE_FILL_AREA( #271 );
#190 = ORIENTED_EDGE( '', *, *, #261, .F. );
#191 = ORIENTED_EDGE( '', *, *, #272, .F. );
#192 = ORIENTED_EDGE( '', *, *, #273, .T. );
#193 = ORIENTED_EDGE( '', *, *, #274, .T. );
#194 = CARTESIAN_POINT( '', ( 6.00000000000000, -3.46410161513775, -6.00000000000000 ) );
#195 = DIRECTION( '', ( 0.000000000000000, 0.000000000000000, 1.00000000000000 ) );
#196 = DIRECTION( '', ( 1.00000000000000, 0.000000000000000, -0.000000000000000 ) );
#197 = SURFACE_STYLE_FILL_AREA( #275 );
#198 = ORIENTED_EDGE( '', *, *, #262, .F. );
#199 = ORIENTED_EDGE( '', *, *, #274, .F. );
#200 = ORIENTED_EDGE( '', *, *, #276, .T. );
#201 = ORIENTED_EDGE( '', *, *, #277, .T. );
#202 = CARTESIAN_POINT( '', ( 6.00000000000000, 3.46410161513775, -6.00000000000000 ) );
#203 = DIRECTION( '', ( 0.000000000000000, -0.866025403784439, 0.500000000000000 ) );
#204 = DIRECTION( '', ( 0.000000000000000, -0.500000000000000, -0.866025403784439 ) );
#205 = SURFACE_STYLE_FILL_AREA( #278 );
#206 = ORIENTED_EDGE( '', *, *, #263, .F. );
#207 = ORIENTED_EDGE( '', *, *, #277, .F. );
#208 = ORIENTED_EDGE( '', *, *, #279, .T. );
#209 = ORIENTED_EDGE( '', *, *, #280, .T. );
#210 = CARTESIAN_POINT( '', ( 6.00000000000000, 6.92820323027551, 0.000000000000000 ) );
#211 = DIRECTION( '', ( 0.000000000000000, -0.866025403784439, -0.500000000000000 ) );
#212 = DIRECTION( '', ( 0.000000000000000, 0.500000000000000, -0.866025403784439 ) );
#213 = SURFACE_STYLE_FILL_AREA( #281 );
#214 = ORIENTED_EDGE( '', *, *, #282, .F. );
#215 = ORIENTED_EDGE( '', *, *, #279, .F. );
#216 = ORIENTED_EDGE( '', *, *, #276, .F. );
#217 = ORIENTED_EDGE( '', *, *, #273, .F. );
#218 = ORIENTED_EDGE( '', *, *, #283, .F. );
#219 = ORIENTED_EDGE( '', *, *, #266, .F. );
#220 = CARTESIAN_POINT( '', ( 6.00000000000000, 0.000000000000000, 0.000000000000000 ) );
#221 = DIRECTION( '', ( 1.00000000000000, 0.000000000000000, 0.000000000000000 ) );
#222 = DIRECTION( '', ( 0.000000000000000, 0.000000000000000, -1.00000000000000 ) );
#223 = SURFACE_STYLE_FILL_AREA( #284 );
#224 = ORIENTED_EDGE( '', *, *, #285, .T. );
#225 = CARTESIAN_POINT( '', ( 12.0000000000000, 12.5324424037399, 0.000000000000000 ) );
#226 = DIRECTION( '', ( -1.00000000000000, 0.000000000000000, 0.000000000000000 ) );
#227 = DIRECTION( '', ( 0.000000000000000, 0.000000000000000, 1.00000000000000 ) );
#228 = SURFACE_STYLE_FILL_AREA( #286 );
#229 = ORIENTED_EDGE( '', *, *, #258, .F. );
#230 = ORIENTED_EDGE( '', *, *, #280, .F. );
#231 = ORIENTED_EDGE( '', *, *, #282, .T. );
#232 = ORIENTED_EDGE( '', *, *, #265, .T. );
#233 = CARTESIAN_POINT( '', ( 6.00000000000000, 3.46410161513775, 6.00000000000000 ) );
#234 = DIRECTION( '', ( 0.000000000000000, 0.000000000000000, -1.00000000000000 ) );
#235 = DIRECTION( '', ( -1.00000000000000, 0.000000000000000, 0.000000000000000 ) );
#236 = SURFACE_STYLE_FILL_AREA( #287 );
#237 = ORIENTED_EDGE( '', *, *, #270, .F. );
#238 = ORIENTED_EDGE( '', *, *, #257, .T. );
#239 = CARTESIAN_POINT( '', ( -1.73472347597681E-15, 0.000000000000000, 0.000000000000000 ) );
#240 = DIRECTION( '', ( 1.00000000000000, -0.000000000000000, -0.000000000000000 ) );
#241 = DIRECTION( '', ( -0.000000000000000, 0.000000000000000, -1.00000000000000 ) );
#242 = SURFACE_STYLE_FILL_AREA( #288 );
#243 = ORIENTED_EDGE( '', *, *, #285, .F. );
#244 = ORIENTED_EDGE( '', *, *, #269, .T. );
#245 = CARTESIAN_POINT( '', ( 11.5002467198171, 0.000000000000000, 0.000000000000000 ) );
#246 = DIRECTION( '', ( -1.00000000000000, 0.000000000000000, -0.000000000000000 ) );
#247 = DIRECTION( '', ( 0.000000000000000, 0.000000000000000, 1.00000000000000 ) );
#248 = SURFACE_STYLE_FILL_AREA( #289 );
#249 = ORIENTED_EDGE( '', *, *, #260, .F. );
#250 = ORIENTED_EDGE( '', *, *, #267, .F. );
#251 = ORIENTED_EDGE( '', *, *, #283, .T. );
#252 = ORIENTED_EDGE( '', *, *, #272, .T. );
#253 = CARTESIAN_POINT( '', ( 6.00000000000000, -6.92820323027551, 0.000000000000000 ) );
#254 = DIRECTION( '', ( -0.000000000000000, 0.866025403784439, 0.500000000000000 ) );
#255 = DIRECTION( '', ( 0.000000000000000, -0.500000000000000, 0.866025403784439 ) );
#256 = FILL_AREA_STYLE( '', ( #290 ) );
#257 = EDGE_CURVE( '', #291, #291, #292, .T. );
#258 = EDGE_CURVE( '', #293, #294, #295, .T. );
#259 = EDGE_CURVE( '', #294, #296, #297, .T. );
#260 = EDGE_CURVE( '', #296, #298, #299, .T. );
#261 = EDGE_CURVE( '', #298, #300, #301, .T. );
#262 = EDGE_CURVE( '', #300, #302, #303, .T. );
#263 = EDGE_CURVE( '', #302, #293, #304, .T. );
#264 = FILL_AREA_STYLE( '', ( #305 ) );
#265 = EDGE_CURVE( '', #306, #294, #307, .T. );
#266 = EDGE_CURVE( '', #306, #308, #309, .T. );
#267 = EDGE_CURVE( '', #308, #296, #310, .T. );
#268 = FILL_AREA_STYLE( '', ( #311 ) );
#269 = EDGE_CURVE( '', #312, #312, #313, .T. );
#270 = EDGE_CURVE( '', #314, #314, #315, .T. );
#271 = FILL_AREA_STYLE( '', ( #316 ) );
#272 = EDGE_CURVE( '', #317, #298, #318, .T. );
#273 = EDGE_CURVE( '', #317, #319, #320, .T. );
#274 = EDGE_CURVE( '', #319, #300, #321, .T. );
#275 = FILL_AREA_STYLE( '', ( #322 ) );
#276 = EDGE_CURVE( '', #319, #323, #324, .T. );
#277 = EDGE_CURVE( '', #323, #302, #325, .T. );
#278 = FILL_AREA_STYLE( '', ( #326 ) );
#279 = EDGE_CURVE( '', #323, #327, #328, .T. );
#280 = EDGE_CURVE( '', #327, #293, #329, .T. );
#281 = FILL_AREA_STYLE( '', ( #330 ) );
#282 = EDGE_CURVE( '', #327, #306, #331, .T. );
#283 = EDGE_CURVE( '', #308, #317, #332, .T. );
#284 = FILL_AREA_STYLE( '', ( #333 ) );
#285 = EDGE_CURVE( '', #334, #334, #335, .T. );
#286 = FILL_AREA_STYLE( '', ( #336 ) );
#287 = FILL_AREA_STYLE( '', ( #337 ) );
#288 = FILL_AREA_STYLE( '', ( #338 ) );
#289 = FILL_AREA_STYLE( '', ( #339 ) );
#290 = FILL_AREA_STYLE_COLOUR( '', #340 );
#291 = VERTEX_POINT( '', #341 );
#292 = CIRCLE( '', #342, 12.9095575963000 );
#293 = VERTEX_POINT( '', #343 );
#294 = VERTEX_POINT( '', #344 );
#295 = LINE( '', #345, #346 );
#296 = VERTEX_POINT( '', #347 );
#297 = LINE( '', #348, #349 );
#298 = VERTEX_POINT( '', #350 );
#299 = LINE( '', #351, #352 );
#300 = VERTEX_POINT( '', #353 );
#301 = LINE( '', #354, #355 );
#302 = VERTEX_POINT( '', #356 );
#303 = LINE( '', #357, #358 );
#304 = LINE( '', #359, #360 );
#305 = FILL_AREA_STYLE_COLOUR( '', #361 );
#306 = VERTEX_POINT( '', #362 );
#307 = LINE( '', #363, #364 );
#308 = VERTEX_POINT( '', #365 );
#309 = LINE( '', #366, #367 );
#310 = LINE( '', #368, #369 );
#311 = FILL_AREA_STYLE_COLOUR( '', #370 );
#312 = VERTEX_POINT( '', #371 );
#313 = CIRCLE( '', #372, 13.0481477833000 );
#314 = VERTEX_POINT( '', #373 );
#315 = CIRCLE( '', #374, 13.3938522167000 );
#316 = FILL_AREA_STYLE_COLOUR( '', #375 );
#317 = VERTEX_POINT( '', #376 );
#318 = LINE( '', #377, #378 );
#319 = VERTEX_POINT( '', #379 );
#320 = LINE( '', #380, #381 );
#321 = LINE( '', #382, #383 );
#322 = FILL_AREA_STYLE_COLOUR( '', #384 );
#323 = VERTEX_POINT( '', #385 );
#324 = LINE( '', #386, #387 );
#325 = LINE( '', #388, #389 );
#326 = FILL_AREA_STYLE_COLOUR( '', #390 );
#327 = VERTEX_POINT( '', #391 );
#328 = LINE( '', #392, #393 );
#329 = LINE( '', #394, #395 );
#330 = FILL_AREA_STYLE_COLOUR( '', #396 );
#331 = LINE( '', #397, #398 );
#332 = LINE( '', #399, #400 );
#333 = FILL_AREA_STYLE_COLOUR( '', #401 );
#334 = VERTEX_POINT( '', #402 );
#335 = CIRCLE( '', #403, 12.5324424037000 );
#336 = FILL_AREA_STYLE_COLOUR( '', #404 );
#337 = FILL_AREA_STYLE_COLOUR( '', #405 );
#338 = FILL_AREA_STYLE_COLOUR( '', #406 );
#339 = FILL_AREA_STYLE_COLOUR( '', #407 );
#340 = COLOUR_RGB( '', 0.689999997600000, 0.689999997600000, 0.689999997600000 );
#341 = CARTESIAN_POINT( '', ( -1.73472347597681E-15, 0.000000000000000, -12.9095575962601 ) );
#342 = AXIS2_PLACEMENT_3D( '', #408, #409, #410 );
#343 = CARTESIAN_POINT( '', ( -8.55061054965146E-16, 3.46410161513776, 6.00000000000000 ) );
#344 = CARTESIAN_POINT( '', ( 0.000000000000000, -3.46410161513775, 6.00000000000000 ) );
#345 = CARTESIAN_POINT( '', ( 0.000000000000000, 3.46410161513775, 6.00000000000000 ) );
#346 = VECTOR( '', #411, 1000.00000000000 );
#347 = CARTESIAN_POINT( '', ( 0.000000000000000, -6.92820323027551, 0.000000000000000 ) );
#348 = CARTESIAN_POINT( '', ( 0.000000000000000, -3.46410161513775, 6.00000000000000 ) );
#349 = VECTOR( '', #412, 1000.00000000000 );
#350 = CARTESIAN_POINT( '', ( 0.000000000000000, -3.46410161513775, -6.00000000000000 ) );
#351 = CARTESIAN_POINT( '', ( 0.000000000000000, -6.92820323027551, 0.000000000000000 ) );
#352 = VECTOR( '', #413, 1000.00000000000 );
#353 = CARTESIAN_POINT( '', ( 0.000000000000000, 3.46410161513775, -6.00000000000000 ) );
#354 = CARTESIAN_POINT( '', ( 0.000000000000000, -3.46410161513775, -6.00000000000000 ) );
#355 = VECTOR( '', #414, 1000.00000000000 );
#356 = CARTESIAN_POINT( '', ( 0.000000000000000, 6.92820323027551, 0.000000000000000 ) );
#357 = CARTESIAN_POINT( '', ( 0.000000000000000, 3.46410161513775, -6.00000000000000 ) );
#358 = VECTOR( '', #415, 1000.00000000000 );
#359 = CARTESIAN_POINT( '', ( 0.000000000000000, 6.92820323027551, 0.000000000000000 ) );
#360 = VECTOR( '', #416, 1000.00000000000 );
#361 = COLOUR_RGB( '', 0.689999997600000, 0.689999997600000, 0.689999997600000 );
#362 = CARTESIAN_POINT( '', ( 6.00000000000000, -3.46410161513775, 6.00000000000000 ) );
#363 = CARTESIAN_POINT( '', ( 6.00000000000000, -3.46410161513775, 6.00000000000000 ) );
#364 = VECTOR( '', #417, 1000.00000000000 );
#365 = CARTESIAN_POINT( '', ( 6.00000000000000, -6.92820323027551, 0.000000000000000 ) );
#366 = CARTESIAN_POINT( '', ( 6.00000000000000, -3.46410161513775, 6.00000000000000 ) );
#367 = VECTOR( '', #418, 1000.00000000000 );
#368 = CARTESIAN_POINT( '', ( 6.00000000000000, -6.92820323027551, 0.000000000000000 ) );
#369 = VECTOR( '', #419, 1000.00000000000 );
#370 = COLOUR_RGB( '', 0.689999997600000, 0.689999997600000, 0.689999997600000 );
#371 = CARTESIAN_POINT( '', ( 11.5002467198171, 0.000000000000000, -13.0481477832790 ) );
#372 = AXIS2_PLACEMENT_3D( '', #420, #421, #422 );
#373 = CARTESIAN_POINT( '', ( 0.499753280182863, 0.000000000000000, -13.3938522167210 ) );
#374 = AXIS2_PLACEMENT_3D( '', #423, #424, #425 );
#375 = COLOUR_RGB( '', 0.689999997600000, 0.689999997600000, 0.689999997600000 );
#376 = CARTESIAN_POINT( '', ( 6.00000000000000, -3.46410161513775, -6.00000000000000 ) );
#377 = CARTESIAN_POINT( '', ( 6.00000000000000, -3.46410161513775, -6.00000000000000 ) );
#378 = VECTOR( '', #426, 1000.00000000000 );
#379 = CARTESIAN_POINT( '', ( 6.00000000000000, 3.46410161513775, -6.00000000000000 ) );
#380 = CARTESIAN_POINT( '', ( 6.00000000000000, -3.46410161513775, -6.00000000000000 ) );
#381 = VECTOR( '', #427, 1000.00000000000 );
#382 = CARTESIAN_POINT( '', ( 6.00000000000000, 3.46410161513775, -6.00000000000000 ) );
#383 = VECTOR( '', #428, 1000.00000000000 );
#384 = COLOUR_RGB( '', 0.689999997600000, 0.689999997600000, 0.689999997600000 );
#385 = CARTESIAN_POINT( '', ( 6.00000000000000, 6.92820323027551, 0.000000000000000 ) );
#386 = CARTESIAN_POINT( '', ( 6.00000000000000, 3.46410161513775, -6.00000000000000 ) );
#387 = VECTOR( '', #429, 1000.00000000000 );
#388 = CARTESIAN_POINT( '', ( 6.00000000000000, 6.92820323027551, 0.000000000000000 ) );
#389 = VECTOR( '', #430, 1000.00000000000 );
#390 = COLOUR_RGB( '', 0.689999997600000, 0.689999997600000, 0.689999997600000 );
#391 = CARTESIAN_POINT( '', ( 6.00000000000000, 3.46410161513775, 6.00000000000000 ) );
#392 = CARTESIAN_POINT( '', ( 6.00000000000000, 6.92820323027551, 0.000000000000000 ) );
#393 = VECTOR( '', #431, 1000.00000000000 );
#394 = CARTESIAN_POINT( '', ( 6.00000000000000, 3.46410161513775, 6.00000000000000 ) );
#395 = VECTOR( '', #432, 1000.00000000000 );
#396 = COLOUR_RGB( '', 0.689999997600000, 0.689999997600000, 0.689999997600000 );
#397 = CARTESIAN_POINT( '', ( 6.00000000000000, 3.46410161513775, 6.00000000000000 ) );
#398 = VECTOR( '', #433, 1000.00000000000 );
#399 = CARTESIAN_POINT( '', ( 6.00000000000000, -6.92820323027551, 0.000000000000000 ) );
#400 = VECTOR( '', #434, 1000.00000000000 );
#401 = COLOUR_RGB( '', 0.689999997600000, 0.689999997600000, 0.689999997600000 );
#402 = CARTESIAN_POINT( '', ( 12.0000000000000, 0.000000000000000, -12.5324424037399 ) );
#403 = AXIS2_PLACEMENT_3D( '', #435, #436, #437 );
#404 = COLOUR_RGB( '', 0.689999997600000, 0.689999997600000, 0.689999997600000 );
#405 = COLOUR_RGB( '', 0.689999997600000, 0.689999997600000, 0.689999997600000 );
#406 = COLOUR_RGB( '', 0.689999997600000, 0.689999997600000, 0.689999997600000 );
#407 = COLOUR_RGB( '', 0.689999997600000, 0.689999997600000, 0.689999997600000 );
#408 = CARTESIAN_POINT( '', ( -1.73472347597681E-15, 0.000000000000000, 0.000000000000000 ) );
#409 = DIRECTION( '', ( 1.00000000000000, 0.000000000000000, -0.000000000000000 ) );
#410 = DIRECTION( '', ( -0.000000000000000, 0.000000000000000, -1.00000000000000 ) );
#411 = DIRECTION( '', ( 0.000000000000000, -1.00000000000000, 0.000000000000000 ) );
#412 = DIRECTION( '', ( 0.000000000000000, -0.500000000000000, -0.866025403784439 ) );
#413 = DIRECTION( '', ( 0.000000000000000, 0.500000000000000, -0.866025403784439 ) );
#414 = DIRECTION( '', ( 0.000000000000000, 1.00000000000000, 0.000000000000000 ) );
#415 = DIRECTION( '', ( 0.000000000000000, 0.500000000000000, 0.866025403784439 ) );
#416 = DIRECTION( '', ( 0.000000000000000, -0.500000000000000, 0.866025403784439 ) );
#417 = DIRECTION( '', ( -1.00000000000000, -0.000000000000000, -0.000000000000000 ) );
#418 = DIRECTION( '', ( 0.000000000000000, -0.500000000000000, -0.866025403784439 ) );
#419 = DIRECTION( '', ( -1.00000000000000, -0.000000000000000, -0.000000000000000 ) );
#420 = CARTESIAN_POINT( '', ( 11.5002467198171, 0.000000000000000, 0.000000000000000 ) );
#421 = DIRECTION( '', ( 1.00000000000000, 0.000000000000000, -0.000000000000000 ) );
#422 = DIRECTION( '', ( -0.000000000000000, 0.000000000000000, -1.00000000000000 ) );
#423 = CARTESIAN_POINT( '', ( 0.499753280182863, 0.000000000000000, 0.000000000000000 ) );
#424 = DIRECTION( '', ( 1.00000000000000, 0.000000000000000, -0.000000000000000 ) );
#425 = DIRECTION( '', ( -0.000000000000000, 0.000000000000000, -1.00000000000000 ) );
#426 = DIRECTION( '', ( -1.00000000000000, -0.000000000000000, -0.000000000000000 ) );
#427 = DIRECTION( '', ( 0.000000000000000, 1.00000000000000, 0.000000000000000 ) );
#428 = DIRECTION( '', ( -1.00000000000000, -0.000000000000000, -0.000000000000000 ) );
#429 = DIRECTION( '', ( 0.000000000000000, 0.500000000000000, 0.866025403784439 ) );
#430 = DIRECTION( '', ( -1.00000000000000, -0.000000000000000, -0.000000000000000 ) );
#431 = DIRECTION( '', ( 0.000000000000000, -0.500000000000000, 0.866025403784439 ) );
#432 = DIRECTION( '', ( -1.00000000000000, -0.000000000000000, -0.000000000000000 ) );
#433 = DIRECTION( '', ( 0.000000000000000, -1.00000000000000, 0.000000000000000 ) );
#434 = DIRECTION( '', ( 0.000000000000000, 0.500000000000000, -0.866025403784439 ) );
#435 = CARTESIAN_POINT( '', ( 12.0000000000000, 0.000000000000000, 0.000000000000000 ) );
#436 = DIRECTION( '', ( 1.00000000000000, 0.000000000000000, -0.000000000000000 ) );
#437 = DIRECTION( '', ( -0.000000000000000, 0.000000000000000, -1.00000000000000 ) );
ENDSEC;
END-ISO-10303-21;
