ISO-10303-21;
HEADER;
FILE_DESCRIPTION( ( 'STEP AP214' ), '1' );
FILE_NAME( '//goodhand-server/Shared Folders/GoodHand Data/Kipp CAD/K0390/K0390.101X55.stp', '2020-12-07T10:15:37', ( '' ), ( '' ), ' ', 'PARTsolutions', ' ' );
FILE_SCHEMA( ( 'AUTOMOTIVE_DESIGN { 1 0 10303 214 1 1 1 1 }' ) );
ENDSEC;
DATA;
#1 = MECHANICAL_DESIGN_GEOMETRIC_PRESENTATION_REPRESENTATION( ' ', ( #10, #11, #12, #13, #14, #15, #16, #17, #18, #19, #20, #21, #22 ), #6 );
#2 = PRODUCT_DEFINITION_CONTEXT( '', #23, 'design' );
#3 = APPLICATION_PROTOCOL_DEFINITION( 'international standard', 'automotive_design', 2001, #23 );
#4 = PRODUCT_CATEGORY_RELATIONSHIP( 'NONE', 'NONE', #24, #25 );
#5 = SHAPE_DEFINITION_REPRESENTATION( #26, #27 );
#6 =  ( GEOMETRIC_REPRESENTATION_CONTEXT( 3 )GLOBAL_UNCERTAINTY_ASSIGNED_CONTEXT( ( #30 ) )GLOBAL_UNIT_ASSIGNED_CONTEXT( ( #32, #33, #34 ) )REPRESENTATION_CONTEXT( 'NONE', 'WORKSPACE' ) );
#10 = STYLED_ITEM( '', ( #36 ), #37 );
#11 = STYLED_ITEM( '', ( #38 ), #39 );
#12 = STYLED_ITEM( '', ( #40 ), #41 );
#13 = STYLED_ITEM( '', ( #42 ), #43 );
#14 = STYLED_ITEM( '', ( #44 ), #45 );
#15 = STYLED_ITEM( '', ( #46 ), #47 );
#16 = STYLED_ITEM( '', ( #48 ), #49 );
#17 = STYLED_ITEM( '', ( #50 ), #51 );
#18 = STYLED_ITEM( '', ( #52 ), #53 );
#19 = STYLED_ITEM( '', ( #54 ), #55 );
#20 = STYLED_ITEM( '', ( #56 ), #57 );
#21 = STYLED_ITEM( '', ( #58 ), #59 );
#22 = STYLED_ITEM( '', ( #60 ), #61 );
#23 = APPLICATION_CONTEXT( 'core data for automotive mechanical design processes' );
#24 = PRODUCT_CATEGORY( 'part', 'NONE' );
#25 = PRODUCT_RELATED_PRODUCT_CATEGORY( 'detail', ' ', ( #62 ) );
#26 = PRODUCT_DEFINITION_SHAPE( 'NONE', 'NONE', #63 );
#27 = ADVANCED_BREP_SHAPE_REPRESENTATION( '_K0390.101X55', ( #64, #65 ), #6 );
#30 = UNCERTAINTY_MEASURE_WITH_UNIT( LENGTH_MEASURE( 0.00100000000000000 ), #32, '', '' );
#32 =  ( CONVERSION_BASED_UNIT( 'MILLIMETRE', #68 )LENGTH_UNIT(  )NAMED_UNIT( #71 ) );
#33 =  ( NAMED_UNIT( #73 )PLANE_ANGLE_UNIT(  )SI_UNIT( $, .RADIAN. ) );
#34 =  ( NAMED_UNIT( #73 )SI_UNIT( $, .STERADIAN. )SOLID_ANGLE_UNIT(  ) );
#36 = PRESENTATION_STYLE_ASSIGNMENT( ( #79 ) );
#37 = ADVANCED_FACE( '', ( #80, #81 ), #82, .F. );
#38 = PRESENTATION_STYLE_ASSIGNMENT( ( #83 ) );
#39 = ADVANCED_FACE( '', ( #84, #85 ), #86, .T. );
#40 = PRESENTATION_STYLE_ASSIGNMENT( ( #87 ) );
#41 = ADVANCED_FACE( '', ( #88, #89 ), #90, .T. );
#42 = PRESENTATION_STYLE_ASSIGNMENT( ( #91 ) );
#43 = ADVANCED_FACE( '', ( #92 ), #93, .F. );
#44 = PRESENTATION_STYLE_ASSIGNMENT( ( #94 ) );
#45 = ADVANCED_FACE( '', ( #95 ), #96, .F. );
#46 = PRESENTATION_STYLE_ASSIGNMENT( ( #97 ) );
#47 = ADVANCED_FACE( '', ( #98, #99 ), #100, .T. );
#48 = PRESENTATION_STYLE_ASSIGNMENT( ( #101 ) );
#49 = ADVANCED_FACE( '', ( #102 ), #103, .F. );
#50 = PRESENTATION_STYLE_ASSIGNMENT( ( #104 ) );
#51 = ADVANCED_FACE( '', ( #105 ), #106, .F. );
#52 = PRESENTATION_STYLE_ASSIGNMENT( ( #107 ) );
#53 = ADVANCED_FACE( '', ( #108 ), #109, .T. );
#54 = PRESENTATION_STYLE_ASSIGNMENT( ( #110 ) );
#55 = ADVANCED_FACE( '', ( #111 ), #112, .T. );
#56 = PRESENTATION_STYLE_ASSIGNMENT( ( #113 ) );
#57 = ADVANCED_FACE( '', ( #114, #115 ), #116, .T. );
#58 = PRESENTATION_STYLE_ASSIGNMENT( ( #117 ) );
#59 = ADVANCED_FACE( '', ( #118 ), #119, .T. );
#60 = PRESENTATION_STYLE_ASSIGNMENT( ( #120 ) );
#61 = ADVANCED_FACE( '', ( #121, #122 ), #123, .T. );
#62 = PRODUCT( '_K0390.101X55', '_K0390.101X55', 'PART-_K0390.101X55-DESC', ( #124 ) );
#63 = PRODUCT_DEFINITION( 'NONE', 'NONE', #125, #2 );
#64 = MANIFOLD_SOLID_BREP( '_K0390.101X55', #126 );
#65 = AXIS2_PLACEMENT_3D( '', #127, #128, #129 );
#68 = LENGTH_MEASURE_WITH_UNIT( LENGTH_MEASURE( 1.00000000000000 ), #130 );
#71 = DIMENSIONAL_EXPONENTS( 1.00000000000000, 0.000000000000000, 0.000000000000000, 0.000000000000000, 0.000000000000000, 0.000000000000000, 0.000000000000000 );
#73 = DIMENSIONAL_EXPONENTS( 0.000000000000000, 0.000000000000000, 0.000000000000000, 0.000000000000000, 0.000000000000000, 0.000000000000000, 0.000000000000000 );
#79 = SURFACE_STYLE_USAGE( .BOTH., #131 );
#80 = FACE_OUTER_BOUND( '', #132, .T. );
#81 = FACE_BOUND( '', #133, .T. );
#82 = PLANE( '', #134 );
#83 = SURFACE_STYLE_USAGE( .BOTH., #135 );
#84 = FACE_OUTER_BOUND( '', #136, .T. );
#85 = FACE_OUTER_BOUND( '', #137, .T. );
#86 = CYLINDRICAL_SURFACE( '', #138, 5.00000000000000 );
#87 = SURFACE_STYLE_USAGE( .BOTH., #139 );
#88 = FACE_OUTER_BOUND( '', #140, .T. );
#89 = FACE_OUTER_BOUND( '', #141, .T. );
#90 = CYLINDRICAL_SURFACE( '', #142, 4.00000000000000 );
#91 = SURFACE_STYLE_USAGE( .BOTH., #143 );
#92 = FACE_OUTER_BOUND( '', #144, .T. );
#93 = PLANE( '', #145 );
#94 = SURFACE_STYLE_USAGE( .BOTH., #146 );
#95 = FACE_OUTER_BOUND( '', #147, .T. );
#96 = PLANE( '', #148 );
#97 = SURFACE_STYLE_USAGE( .BOTH., #149 );
#98 = FACE_OUTER_BOUND( '', #150, .T. );
#99 = FACE_OUTER_BOUND( '', #151, .T. );
#100 = CYLINDRICAL_SURFACE( '', #152, 3.60000000000000 );
#101 = SURFACE_STYLE_USAGE( .BOTH., #153 );
#102 = FACE_OUTER_BOUND( '', #154, .T. );
#103 = PLANE( '', #155 );
#104 = SURFACE_STYLE_USAGE( .BOTH., #156 );
#105 = FACE_OUTER_BOUND( '', #157, .T. );
#106 = PLANE( '', #158 );
#107 = SURFACE_STYLE_USAGE( .BOTH., #159 );
#108 = FACE_OUTER_BOUND( '', #160, .T. );
#109 = CONICAL_SURFACE( '', #161, 4.08000000000000, 0.785398163400000 );
#110 = SURFACE_STYLE_USAGE( .BOTH., #162 );
#111 = FACE_OUTER_BOUND( '', #163, .T. );
#112 = CONICAL_SURFACE( '', #164, 4.08000000000000, 0.785398163400000 );
#113 = SURFACE_STYLE_USAGE( .BOTH., #165 );
#114 = FACE_BOUND( '', #166, .T. );
#115 = FACE_OUTER_BOUND( '', #167, .T. );
#116 = SPHERICAL_SURFACE( '', #168, 6.70960000000000 );
#117 = SURFACE_STYLE_USAGE( .BOTH., #169 );
#118 = FACE_OUTER_BOUND( '', #170, .T. );
#119 = PLANE( '', #171 );
#120 = SURFACE_STYLE_USAGE( .BOTH., #172 );
#121 = FACE_BOUND( '', #173, .T. );
#122 = FACE_OUTER_BOUND( '', #174, .T. );
#123 = CONICAL_SURFACE( '', #175, 5.00000000000000, 1.01679700410000 );
#124 = PRODUCT_CONTEXT( '', #23, 'mechanical' );
#125 = PRODUCT_DEFINITION_FORMATION_WITH_SPECIFIED_SOURCE( ' ', 'NONE', #62, .NOT_KNOWN. );
#126 = CLOSED_SHELL( '', ( #43, #45, #57, #41, #37, #47, #61, #39, #55, #49, #53, #51, #59 ) );
#127 = CARTESIAN_POINT( '', ( 0.000000000000000, 0.000000000000000, 0.000000000000000 ) );
#128 = DIRECTION( '', ( 0.000000000000000, 0.000000000000000, 1.00000000000000 ) );
#129 = DIRECTION( '', ( 1.00000000000000, 0.000000000000000, 0.000000000000000 ) );
#130 =  ( LENGTH_UNIT(  )NAMED_UNIT( #71 )SI_UNIT( .MILLI., .METRE. ) );
#131 = SURFACE_SIDE_STYLE( '', ( #177 ) );
#132 = EDGE_LOOP( '', ( #178 ) );
#133 = EDGE_LOOP( '', ( #179 ) );
#134 = AXIS2_PLACEMENT_3D( '', #180, #181, #182 );
#135 = SURFACE_SIDE_STYLE( '', ( #183 ) );
#136 = EDGE_LOOP( '', ( #184 ) );
#137 = EDGE_LOOP( '', ( #185, #186, #187, #188, #189, #190, #191, #192 ) );
#138 = AXIS2_PLACEMENT_3D( '', #193, #194, #195 );
#139 = SURFACE_SIDE_STYLE( '', ( #196 ) );
#140 = EDGE_LOOP( '', ( #197 ) );
#141 = EDGE_LOOP( '', ( #198 ) );
#142 = AXIS2_PLACEMENT_3D( '', #199, #200, #201 );
#143 = SURFACE_SIDE_STYLE( '', ( #202 ) );
#144 = EDGE_LOOP( '', ( #203, #204, #205, #206, #207, #208 ) );
#145 = AXIS2_PLACEMENT_3D( '', #209, #210, #211 );
#146 = SURFACE_SIDE_STYLE( '', ( #212 ) );
#147 = EDGE_LOOP( '', ( #213, #214, #215, #216, #217, #218 ) );
#148 = AXIS2_PLACEMENT_3D( '', #219, #220, #221 );
#149 = SURFACE_SIDE_STYLE( '', ( #222 ) );
#150 = EDGE_LOOP( '', ( #223 ) );
#151 = EDGE_LOOP( '', ( #224 ) );
#152 = AXIS2_PLACEMENT_3D( '', #225, #226, #227 );
#153 = SURFACE_SIDE_STYLE( '', ( #228 ) );
#154 = EDGE_LOOP( '', ( #229, #230 ) );
#155 = AXIS2_PLACEMENT_3D( '', #231, #232, #233 );
#156 = SURFACE_SIDE_STYLE( '', ( #234 ) );
#157 = EDGE_LOOP( '', ( #235, #236 ) );
#158 = AXIS2_PLACEMENT_3D( '', #237, #238, #239 );
#159 = SURFACE_SIDE_STYLE( '', ( #240 ) );
#160 = EDGE_LOOP( '', ( #241, #242, #243, #244 ) );
#161 = AXIS2_PLACEMENT_3D( '', #245, #246, #247 );
#162 = SURFACE_SIDE_STYLE( '', ( #248 ) );
#163 = EDGE_LOOP( '', ( #249, #250, #251, #252 ) );
#164 = AXIS2_PLACEMENT_3D( '', #253, #254, #255 );
#165 = SURFACE_SIDE_STYLE( '', ( #256 ) );
#166 = VERTEX_LOOP( '', #257 );
#167 = EDGE_LOOP( '', ( #258 ) );
#168 = AXIS2_PLACEMENT_3D( '', #259, #260, #261 );
#169 = SURFACE_SIDE_STYLE( '', ( #262 ) );
#170 = EDGE_LOOP( '', ( #263, #264, #265, #266 ) );
#171 = AXIS2_PLACEMENT_3D( '', #267, #268, #269 );
#172 = SURFACE_SIDE_STYLE( '', ( #270 ) );
#173 = EDGE_LOOP( '', ( #271 ) );
#174 = EDGE_LOOP( '', ( #272 ) );
#175 = AXIS2_PLACEMENT_3D( '', #273, #274, #275 );
#177 = SURFACE_STYLE_FILL_AREA( #276 );
#178 = ORIENTED_EDGE( '', *, *, #277, .F. );
#179 = ORIENTED_EDGE( '', *, *, #278, .T. );
#180 = CARTESIAN_POINT( '', ( 50.5000000000000, 3.60000000000000, 0.000000000000000 ) );
#181 = DIRECTION( '', ( 1.00000000000000, -6.12323399573677E-17, -0.000000000000000 ) );
#182 = DIRECTION( '', ( 6.12323399573677E-17, 1.00000000000000, 0.000000000000000 ) );
#183 = SURFACE_STYLE_FILL_AREA( #279 );
#184 = ORIENTED_EDGE( '', *, *, #280, .F. );
#185 = ORIENTED_EDGE( '', *, *, #281, .T. );
#186 = ORIENTED_EDGE( '', *, *, #282, .T. );
#187 = ORIENTED_EDGE( '', *, *, #283, .F. );
#188 = ORIENTED_EDGE( '', *, *, #284, .T. );
#189 = ORIENTED_EDGE( '', *, *, #285, .T. );
#190 = ORIENTED_EDGE( '', *, *, #286, .T. );
#191 = ORIENTED_EDGE( '', *, *, #287, .F. );
#192 = ORIENTED_EDGE( '', *, *, #288, .T. );
#193 = CARTESIAN_POINT( '', ( 55.0000000000000, 1.77635683940025E-15, 0.000000000000000 ) );
#194 = DIRECTION( '', ( -1.00000000000000, 6.12323399573677E-17, 0.000000000000000 ) );
#195 = DIRECTION( '', ( 6.12323399573677E-17, 1.00000000000000, 0.000000000000000 ) );
#196 = SURFACE_STYLE_FILL_AREA( #289 );
#197 = ORIENTED_EDGE( '', *, *, #290, .F. );
#198 = ORIENTED_EDGE( '', *, *, #277, .T. );
#199 = CARTESIAN_POINT( '', ( 55.0000000000000, 1.77635683940025E-15, 0.000000000000000 ) );
#200 = DIRECTION( '', ( -1.00000000000000, 6.12323399573677E-17, 0.000000000000000 ) );
#201 = DIRECTION( '', ( 6.12323399573677E-17, 1.00000000000000, 0.000000000000000 ) );
#202 = SURFACE_STYLE_FILL_AREA( #291 );
#203 = ORIENTED_EDGE( '', *, *, #292, .F. );
#204 = ORIENTED_EDGE( '', *, *, #293, .T. );
#205 = ORIENTED_EDGE( '', *, *, #294, .F. );
#206 = ORIENTED_EDGE( '', *, *, #284, .F. );
#207 = ORIENTED_EDGE( '', *, *, #295, .F. );
#208 = ORIENTED_EDGE( '', *, *, #286, .F. );
#209 = CARTESIAN_POINT( '', ( 3.00000000000000, 0.900000000000005, 10.5000000000000 ) );
#210 = DIRECTION( '', ( 0.000000000000000, 1.00000000000000, 0.000000000000000 ) );
#211 = DIRECTION( '', ( 0.000000000000000, -0.000000000000000, 1.00000000000000 ) );
#212 = SURFACE_STYLE_FILL_AREA( #296 );
#213 = ORIENTED_EDGE( '', *, *, #297, .T. );
#214 = ORIENTED_EDGE( '', *, *, #298, .F. );
#215 = ORIENTED_EDGE( '', *, *, #288, .F. );
#216 = ORIENTED_EDGE( '', *, *, #299, .F. );
#217 = ORIENTED_EDGE( '', *, *, #282, .F. );
#218 = ORIENTED_EDGE( '', *, *, #300, .F. );
#219 = CARTESIAN_POINT( '', ( 3.00000000000000, -0.899999999999995, -10.5000000000000 ) );
#220 = DIRECTION( '', ( 0.000000000000000, -1.00000000000000, 0.000000000000000 ) );
#221 = DIRECTION( '', ( 0.000000000000000, 0.000000000000000, -1.00000000000000 ) );
#222 = SURFACE_STYLE_FILL_AREA( #301 );
#223 = ORIENTED_EDGE( '', *, *, #278, .F. );
#224 = ORIENTED_EDGE( '', *, *, #302, .T. );
#225 = CARTESIAN_POINT( '', ( 55.0000000000000, 1.77635683940025E-15, 0.000000000000000 ) );
#226 = DIRECTION( '', ( -1.00000000000000, 6.12323399573677E-17, 0.000000000000000 ) );
#227 = DIRECTION( '', ( 6.12323399573677E-17, 1.00000000000000, 0.000000000000000 ) );
#228 = SURFACE_STYLE_FILL_AREA( #303 );
#229 = ORIENTED_EDGE( '', *, *, #304, .F. );
#230 = ORIENTED_EDGE( '', *, *, #297, .F. );
#231 = CARTESIAN_POINT( '', ( -1.24913973513030E-16, 5.14413553705547E-15, 0.000000000000000 ) );
#232 = DIRECTION( '', ( 1.00000000000000, -6.12323399573677E-17, -0.000000000000000 ) );
#233 = DIRECTION( '', ( 6.12323399573677E-17, 1.00000000000000, 0.000000000000000 ) );
#234 = SURFACE_STYLE_FILL_AREA( #305 );
#235 = ORIENTED_EDGE( '', *, *, #306, .F. );
#236 = ORIENTED_EDGE( '', *, *, #293, .F. );
#237 = CARTESIAN_POINT( '', ( -1.24913973513030E-16, 5.14413553705547E-15, 0.000000000000000 ) );
#238 = DIRECTION( '', ( 1.00000000000000, -6.12323399573677E-17, -0.000000000000000 ) );
#239 = DIRECTION( '', ( 6.12323399573677E-17, 1.00000000000000, 0.000000000000000 ) );
#240 = SURFACE_STYLE_FILL_AREA( #307 );
#241 = ORIENTED_EDGE( '', *, *, #281, .F. );
#242 = ORIENTED_EDGE( '', *, *, #298, .T. );
#243 = ORIENTED_EDGE( '', *, *, #304, .T. );
#244 = ORIENTED_EDGE( '', *, *, #300, .T. );
#245 = CARTESIAN_POINT( '', ( 0.000000000000000, 5.14413553705547E-15, 0.000000000000000 ) );
#246 = DIRECTION( '', ( 1.00000000000000, -6.12323399573677E-17, -0.000000000000000 ) );
#247 = DIRECTION( '', ( 6.12323399573677E-17, 1.00000000000000, 0.000000000000000 ) );
#248 = SURFACE_STYLE_FILL_AREA( #308 );
#249 = ORIENTED_EDGE( '', *, *, #306, .T. );
#250 = ORIENTED_EDGE( '', *, *, #292, .T. );
#251 = ORIENTED_EDGE( '', *, *, #285, .F. );
#252 = ORIENTED_EDGE( '', *, *, #294, .T. );
#253 = CARTESIAN_POINT( '', ( 0.000000000000000, 5.14413553705547E-15, 0.000000000000000 ) );
#254 = DIRECTION( '', ( 1.00000000000000, -6.12323399573677E-17, -0.000000000000000 ) );
#255 = DIRECTION( '', ( 6.12323399573677E-17, 1.00000000000000, 0.000000000000000 ) );
#256 = SURFACE_STYLE_FILL_AREA( #309 );
#257 = VERTEX_POINT( '', #310 );
#258 = ORIENTED_EDGE( '', *, *, #290, .T. );
#259 = CARTESIAN_POINT( '', ( 48.2904000000001, 2.12503625807159E-14, 0.000000000000000 ) );
#260 = DIRECTION( '', ( 1.00000000000000, 0.000000000000000, 0.000000000000000 ) );
#261 = DIRECTION( '', ( 0.000000000000000, -1.00000000000000, 0.000000000000000 ) );
#262 = SURFACE_STYLE_FILL_AREA( #311 );
#263 = ORIENTED_EDGE( '', *, *, #283, .T. );
#264 = ORIENTED_EDGE( '', *, *, #299, .T. );
#265 = ORIENTED_EDGE( '', *, *, #287, .T. );
#266 = ORIENTED_EDGE( '', *, *, #295, .T. );
#267 = CARTESIAN_POINT( '', ( 3.00000000000000, 0.000000000000000, 0.000000000000000 ) );
#268 = DIRECTION( '', ( -1.00000000000000, 0.000000000000000, 0.000000000000000 ) );
#269 = DIRECTION( '', ( 0.000000000000000, 0.000000000000000, 1.00000000000000 ) );
#270 = SURFACE_STYLE_FILL_AREA( #312 );
#271 = ORIENTED_EDGE( '', *, *, #302, .F. );
#272 = ORIENTED_EDGE( '', *, *, #280, .T. );
#273 = CARTESIAN_POINT( '', ( 46.0000000000000, 2.32744789901656E-15, 0.000000000000000 ) );
#274 = DIRECTION( '', ( -1.00000000000000, 6.12323399573677E-17, -0.000000000000000 ) );
#275 = DIRECTION( '', ( -6.12323399573677E-17, -1.00000000000000, 0.000000000000000 ) );
#276 = FILL_AREA_STYLE( '', ( #313 ) );
#277 = EDGE_CURVE( '', #314, #314, #315, .T. );
#278 = EDGE_CURVE( '', #316, #316, #317, .T. );
#279 = FILL_AREA_STYLE( '', ( #318 ) );
#280 = EDGE_CURVE( '', #319, #319, #320, .T. );
#281 = EDGE_CURVE( '', #321, #322, #323, .T. );
#282 = EDGE_CURVE( '', #322, #324, #325, .T. );
#283 = EDGE_CURVE( '', #326, #324, #327, .T. );
#284 = EDGE_CURVE( '', #326, #328, #329, .F. );
#285 = EDGE_CURVE( '', #328, #330, #331, .T. );
#286 = EDGE_CURVE( '', #330, #332, #333, .T. );
#287 = EDGE_CURVE( '', #334, #332, #335, .T. );
#288 = EDGE_CURVE( '', #334, #321, #336, .F. );
#289 = FILL_AREA_STYLE( '', ( #337 ) );
#290 = EDGE_CURVE( '', #338, #338, #339, .T. );
#291 = FILL_AREA_STYLE( '', ( #340 ) );
#292 = EDGE_CURVE( '', #341, #330, #342, .T. );
#293 = EDGE_CURVE( '', #341, #343, #344, .T. );
#294 = EDGE_CURVE( '', #328, #343, #345, .T. );
#295 = EDGE_CURVE( '', #332, #326, #346, .T. );
#296 = FILL_AREA_STYLE( '', ( #347 ) );
#297 = EDGE_CURVE( '', #348, #349, #350, .T. );
#298 = EDGE_CURVE( '', #321, #349, #351, .T. );
#299 = EDGE_CURVE( '', #324, #334, #352, .T. );
#300 = EDGE_CURVE( '', #348, #322, #353, .T. );
#301 = FILL_AREA_STYLE( '', ( #354 ) );
#302 = EDGE_CURVE( '', #355, #355, #356, .T. );
#303 = FILL_AREA_STYLE( '', ( #357 ) );
#304 = EDGE_CURVE( '', #349, #348, #358, .T. );
#305 = FILL_AREA_STYLE( '', ( #359 ) );
#306 = EDGE_CURVE( '', #343, #341, #360, .T. );
#307 = FILL_AREA_STYLE( '', ( #361 ) );
#308 = FILL_AREA_STYLE( '', ( #362 ) );
#309 = FILL_AREA_STYLE( '', ( #363 ) );
#310 = CARTESIAN_POINT( '', ( 55.0000000000000, 2.04286735643600E-14, 0.000000000000000 ) );
#311 = FILL_AREA_STYLE( '', ( #364 ) );
#312 = FILL_AREA_STYLE( '', ( #365 ) );
#313 = FILL_AREA_STYLE_COLOUR( '', #366 );
#314 = VERTEX_POINT( '', #367 );
#315 = CIRCLE( '', #368, 4.00000000000000 );
#316 = VERTEX_POINT( '', #369 );
#317 = CIRCLE( '', #370, 3.60000000000000 );
#318 = FILL_AREA_STYLE_COLOUR( '', #371 );
#319 = VERTEX_POINT( '', #372 );
#320 = CIRCLE( '', #373, 5.00000000000000 );
#321 = VERTEX_POINT( '', #374 );
#322 = VERTEX_POINT( '', #375 );
#323 = CIRCLE( '', #376, 5.00000000000000 );
#324 = VERTEX_POINT( '', #377 );
#325 = LINE( '', #378, #379 );
#326 = VERTEX_POINT( '', #380 );
#327 = CIRCLE( '', #381, 5.00000000000000 );
#328 = VERTEX_POINT( '', #382 );
#329 = LINE( '', #383, #384 );
#330 = VERTEX_POINT( '', #385 );
#331 = CIRCLE( '', #386, 5.00000000000000 );
#332 = VERTEX_POINT( '', #387 );
#333 = LINE( '', #388, #389 );
#334 = VERTEX_POINT( '', #390 );
#335 = CIRCLE( '', #391, 5.00000000000000 );
#336 = LINE( '', #392, #393 );
#337 = FILL_AREA_STYLE_COLOUR( '', #394 );
#338 = VERTEX_POINT( '', #395 );
#339 = CIRCLE( '', #396, 4.00000000000000 );
#340 = FILL_AREA_STYLE_COLOUR( '', #397 );
#341 = VERTEX_POINT( '', #398 );
#342 = B_SPLINE_CURVE_WITH_KNOTS( '', 3, ( #399, #400, #401, #402 ), .UNSPECIFIED., .F., .F., ( 4, 4 ), ( 0.0201757967681981, 0.0214894077203397 ), .UNSPECIFIED. );
#343 = VERTEX_POINT( '', #403 );
#344 = LINE( '', #404, #405 );
#345 = B_SPLINE_CURVE_WITH_KNOTS( '', 3, ( #406, #407, #408, #409 ), .UNSPECIFIED., .F., .F., ( 4, 4 ), ( 0.00855302721908261, 0.00986748988713592 ), .UNSPECIFIED. );
#346 = LINE( '', #410, #411 );
#347 = FILL_AREA_STYLE_COLOUR( '', #412 );
#348 = VERTEX_POINT( '', #413 );
#349 = VERTEX_POINT( '', #414 );
#350 = LINE( '', #415, #416 );
#351 = B_SPLINE_CURVE_WITH_KNOTS( '', 3, ( #417, #418, #419, #420 ), .UNSPECIFIED., .F., .F., ( 4, 4 ), ( 0.00855302721908261, 0.00986748988713592 ), .UNSPECIFIED. );
#352 = LINE( '', #421, #422 );
#353 = B_SPLINE_CURVE_WITH_KNOTS( '', 3, ( #423, #424, #425, #426 ), .UNSPECIFIED., .F., .F., ( 4, 4 ), ( 0.0201757967681981, 0.0214894077203397 ), .UNSPECIFIED. );
#354 = FILL_AREA_STYLE_COLOUR( '', #427 );
#355 = VERTEX_POINT( '', #428 );
#356 = CIRCLE( '', #429, 3.60000000000000 );
#357 = FILL_AREA_STYLE_COLOUR( '', #430 );
#358 = CIRCLE( '', #431, 4.08000000000000 );
#359 = FILL_AREA_STYLE_COLOUR( '', #432 );
#360 = CIRCLE( '', #433, 4.08000000000000 );
#361 = FILL_AREA_STYLE_COLOUR( '', #434 );
#362 = FILL_AREA_STYLE_COLOUR( '', #435 );
#363 = FILL_AREA_STYLE_COLOUR( '', #436 );
#364 = FILL_AREA_STYLE_COLOUR( '', #437 );
#365 = FILL_AREA_STYLE_COLOUR( '', #438 );
#366 = COLOUR_RGB( '', 0.689999997600000, 0.689999997600000, 0.689999997600000 );
#367 = CARTESIAN_POINT( '', ( 50.5000000000000, 4.00000000000000, 0.000000000000000 ) );
#368 = AXIS2_PLACEMENT_3D( '', #439, #440, #441 );
#369 = CARTESIAN_POINT( '', ( 50.5000000000000, 3.60000000000000, 0.000000000000000 ) );
#370 = AXIS2_PLACEMENT_3D( '', #442, #443, #444 );
#371 = COLOUR_RGB( '', 0.689999997600000, 0.689999997600000, 0.689999997600000 );
#372 = CARTESIAN_POINT( '', ( 46.0000000000000, 5.00000000000000, 0.000000000000000 ) );
#373 = AXIS2_PLACEMENT_3D( '', #445, #446, #447 );
#374 = CARTESIAN_POINT( '', ( 0.920000000000004, -0.899999999999992, 4.91833305094318 ) );
#375 = CARTESIAN_POINT( '', ( 0.920000000000004, -0.899999999999992, -4.91833305094318 ) );
#376 = AXIS2_PLACEMENT_3D( '', #448, #449, #450 );
#377 = CARTESIAN_POINT( '', ( 3.00000000000000, -0.899999999999995, -4.91833305094317 ) );
#378 = CARTESIAN_POINT( '', ( 55.0000000000000, -0.899999999999995, -4.91833305094318 ) );
#379 = VECTOR( '', #451, 1000.00000000000 );
#380 = CARTESIAN_POINT( '', ( 3.00000000000000, 0.900000000000005, -4.91833305094317 ) );
#381 = AXIS2_PLACEMENT_3D( '', #452, #453, #454 );
#382 = CARTESIAN_POINT( '', ( 0.920000000000004, 0.900000000000009, -4.91833305094317 ) );
#383 = CARTESIAN_POINT( '', ( 55.0000000000000, 0.900000000000005, -4.91833305094317 ) );
#384 = VECTOR( '', #455, 1000.00000000000 );
#385 = CARTESIAN_POINT( '', ( 0.920000000000004, 0.900000000000009, 4.91833305094317 ) );
#386 = AXIS2_PLACEMENT_3D( '', #456, #457, #458 );
#387 = CARTESIAN_POINT( '', ( 3.00000000000000, 0.900000000000005, 4.91833305094317 ) );
#388 = CARTESIAN_POINT( '', ( 55.0000000000000, 0.900000000000005, 4.91833305094317 ) );
#389 = VECTOR( '', #459, 1000.00000000000 );
#390 = CARTESIAN_POINT( '', ( 3.00000000000000, -0.899999999999995, 4.91833305094317 ) );
#391 = AXIS2_PLACEMENT_3D( '', #460, #461, #462 );
#392 = CARTESIAN_POINT( '', ( 55.0000000000000, -0.899999999999995, 4.91833305094318 ) );
#393 = VECTOR( '', #463, 1000.00000000000 );
#394 = COLOUR_RGB( '', 0.689999997600000, 0.689999997600000, 0.689999997600000 );
#395 = CARTESIAN_POINT( '', ( 53.6773037637589, 4.00000000000000, 0.000000000000000 ) );
#396 = AXIS2_PLACEMENT_3D( '', #464, #465, #466 );
#397 = COLOUR_RGB( '', 0.689999997600000, 0.689999997600000, 0.689999997600000 );
#398 = CARTESIAN_POINT( '', ( 0.000000000000000, 0.900000000000005, 3.97949745570970 ) );
#399 = CARTESIAN_POINT( '', ( -4.68354095998620E-16, 0.900000000000005, 3.97949745570970 ) );
#400 = CARTESIAN_POINT( '', ( 0.305938770650470, 0.900000000000005, 4.29316273584777 ) );
#401 = CARTESIAN_POINT( '', ( 0.612741841782414, 0.900000000000005, 4.60597299415660 ) );
#402 = CARTESIAN_POINT( '', ( 0.920000000000000, 0.900000000000005, 4.91833305094318 ) );
#403 = CARTESIAN_POINT( '', ( 0.000000000000000, 0.900000000000005, -3.97949745570970 ) );
#404 = CARTESIAN_POINT( '', ( 0.000000000000000, 0.900000000000005, 10.5000000000000 ) );
#405 = VECTOR( '', #467, 1000.00000000000 );
#406 = CARTESIAN_POINT( '', ( 0.920000000000001, 0.900000000000005, -4.91833305094318 ) );
#407 = CARTESIAN_POINT( '', ( 0.612739261072120, 0.900000000000005, -4.60597037059464 ) );
#408 = CARTESIAN_POINT( '', ( 0.305935608496525, 0.900000000000005, -4.29315949383336 ) );
#409 = CARTESIAN_POINT( '', ( -8.43797886681952E-16, 0.900000000000005, -3.97949745570970 ) );
#410 = CARTESIAN_POINT( '', ( 3.00000000000000, 0.900000000000005, 10.5000000000000 ) );
#411 = VECTOR( '', #468, 1000.00000000000 );
#412 = COLOUR_RGB( '', 0.689999997600000, 0.689999997600000, 0.689999997600000 );
#413 = CARTESIAN_POINT( '', ( 0.000000000000000, -0.899999999999995, -3.97949745570970 ) );
#414 = CARTESIAN_POINT( '', ( 0.000000000000000, -0.899999999999995, 3.97949745570970 ) );
#415 = CARTESIAN_POINT( '', ( 0.000000000000000, -0.899999999999995, -10.5000000000000 ) );
#416 = VECTOR( '', #469, 1000.00000000000 );
#417 = CARTESIAN_POINT( '', ( 0.920000000000000, -0.899999999999995, 4.91833305094318 ) );
#418 = CARTESIAN_POINT( '', ( 0.612739261072119, -0.899999999999995, 4.60597037059464 ) );
#419 = CARTESIAN_POINT( '', ( 0.305935608496525, -0.899999999999995, 4.29315949383336 ) );
#420 = CARTESIAN_POINT( '', ( -1.34582577845783E-15, -0.899999999999995, 3.97949745570970 ) );
#421 = CARTESIAN_POINT( '', ( 3.00000000000000, -0.899999999999995, -10.5000000000000 ) );
#422 = VECTOR( '', #470, 1000.00000000000 );
#423 = CARTESIAN_POINT( '', ( 2.89847860650126E-16, -0.899999999999995, -3.97949745570970 ) );
#424 = CARTESIAN_POINT( '', ( 0.305938770650471, -0.899999999999995, -4.29316273584777 ) );
#425 = CARTESIAN_POINT( '', ( 0.612741841782415, -0.899999999999995, -4.60597299415660 ) );
#426 = CARTESIAN_POINT( '', ( 0.920000000000001, -0.899999999999995, -4.91833305094318 ) );
#427 = COLOUR_RGB( '', 0.689999997600000, 0.689999997600000, 0.689999997600000 );
#428 = CARTESIAN_POINT( '', ( 46.8660700000000, 3.60000000000000, 0.000000000000000 ) );
#429 = AXIS2_PLACEMENT_3D( '', #471, #472, #473 );
#430 = COLOUR_RGB( '', 0.689999997600000, 0.689999997600000, 0.689999997600000 );
#431 = AXIS2_PLACEMENT_3D( '', #474, #475, #476 );
#432 = COLOUR_RGB( '', 0.689999997600000, 0.689999997600000, 0.689999997600000 );
#433 = AXIS2_PLACEMENT_3D( '', #477, #478, #479 );
#434 = COLOUR_RGB( '', 0.689999997600000, 0.689999997600000, 0.689999997600000 );
#435 = COLOUR_RGB( '', 0.689999997600000, 0.689999997600000, 0.689999997600000 );
#436 = COLOUR_RGB( '', 0.689999997600000, 0.689999997600000, 0.689999997600000 );
#437 = COLOUR_RGB( '', 0.689999997600000, 0.689999997600000, 0.689999997600000 );
#438 = COLOUR_RGB( '', 0.689999997600000, 0.689999997600000, 0.689999997600000 );
#439 = CARTESIAN_POINT( '', ( 50.5000000000000, 2.05190236920840E-15, 0.000000000000000 ) );
#440 = DIRECTION( '', ( 1.00000000000000, -6.12323399573677E-17, -0.000000000000000 ) );
#441 = DIRECTION( '', ( 6.12323399573677E-17, 1.00000000000000, 0.000000000000000 ) );
#442 = CARTESIAN_POINT( '', ( 50.5000000000000, 2.05190236920840E-15, 0.000000000000000 ) );
#443 = DIRECTION( '', ( 1.00000000000000, -6.12323399573677E-17, -0.000000000000000 ) );
#444 = DIRECTION( '', ( 6.12323399573677E-17, 1.00000000000000, 0.000000000000000 ) );
#445 = CARTESIAN_POINT( '', ( 46.0000000000000, 2.32744789901656E-15, 0.000000000000000 ) );
#446 = DIRECTION( '', ( 1.00000000000000, -6.12323399573677E-17, -0.000000000000000 ) );
#447 = DIRECTION( '', ( 6.12323399573677E-17, 1.00000000000000, 0.000000000000000 ) );
#448 = CARTESIAN_POINT( '', ( 0.919999999999997, 5.08780178429469E-15, 0.000000000000000 ) );
#449 = DIRECTION( '', ( 1.00000000000000, -6.12323399573677E-17, -0.000000000000000 ) );
#450 = DIRECTION( '', ( 6.12323399573677E-17, 1.00000000000000, 0.000000000000000 ) );
#451 = DIRECTION( '', ( 1.00000000000000, -6.12323399573677E-17, -0.000000000000000 ) );
#452 = CARTESIAN_POINT( '', ( 3.00000000000000, 4.96043851718337E-15, 0.000000000000000 ) );
#453 = DIRECTION( '', ( -1.00000000000000, 0.000000000000000, 0.000000000000000 ) );
#454 = DIRECTION( '', ( 0.000000000000000, 0.000000000000000, 1.00000000000000 ) );
#455 = DIRECTION( '', ( 1.00000000000000, -6.12323399573677E-17, -0.000000000000000 ) );
#456 = CARTESIAN_POINT( '', ( 0.919999999999997, 5.08780178429469E-15, 0.000000000000000 ) );
#457 = DIRECTION( '', ( 1.00000000000000, -6.12323399573677E-17, -0.000000000000000 ) );
#458 = DIRECTION( '', ( 6.12323399573677E-17, 1.00000000000000, 0.000000000000000 ) );
#459 = DIRECTION( '', ( 1.00000000000000, -6.12323399573677E-17, -0.000000000000000 ) );
#460 = CARTESIAN_POINT( '', ( 3.00000000000000, 4.96043851718337E-15, 0.000000000000000 ) );
#461 = DIRECTION( '', ( -1.00000000000000, 0.000000000000000, 0.000000000000000 ) );
#462 = DIRECTION( '', ( 0.000000000000000, 0.000000000000000, 1.00000000000000 ) );
#463 = DIRECTION( '', ( 1.00000000000000, -6.12323399573677E-17, -0.000000000000000 ) );
#464 = CARTESIAN_POINT( '', ( 53.6773037637589, 1.85734862499809E-15, 0.000000000000000 ) );
#465 = DIRECTION( '', ( 1.00000000000000, -6.12323399573677E-17, -0.000000000000000 ) );
#466 = DIRECTION( '', ( 6.12323399573677E-17, 1.00000000000000, 0.000000000000000 ) );
#467 = DIRECTION( '', ( 0.000000000000000, 0.000000000000000, -1.00000000000000 ) );
#468 = DIRECTION( '', ( 0.000000000000000, 0.000000000000000, -1.00000000000000 ) );
#469 = DIRECTION( '', ( 0.000000000000000, 0.000000000000000, 1.00000000000000 ) );
#470 = DIRECTION( '', ( 0.000000000000000, 0.000000000000000, 1.00000000000000 ) );
#471 = CARTESIAN_POINT( '', ( 46.8660700000000, 2.27441640634968E-15, 0.000000000000000 ) );
#472 = DIRECTION( '', ( 1.00000000000000, -6.12323399573677E-17, -0.000000000000000 ) );
#473 = DIRECTION( '', ( 6.12323399573677E-17, 1.00000000000000, 0.000000000000000 ) );
#474 = CARTESIAN_POINT( '', ( 0.000000000000000, 5.14413553705547E-15, 0.000000000000000 ) );
#475 = DIRECTION( '', ( 1.00000000000000, -6.12323399573677E-17, -0.000000000000000 ) );
#476 = DIRECTION( '', ( 6.12323399573677E-17, 1.00000000000000, 0.000000000000000 ) );
#477 = CARTESIAN_POINT( '', ( 0.000000000000000, 5.14413553705547E-15, 0.000000000000000 ) );
#478 = DIRECTION( '', ( 1.00000000000000, -6.12323399573677E-17, -0.000000000000000 ) );
#479 = DIRECTION( '', ( 6.12323399573677E-17, 1.00000000000000, 0.000000000000000 ) );
ENDSEC;
END-ISO-10303-21;
