ISO-10303-21;
HEADER;
FILE_DESCRIPTION( ( 'STEP AP214' ), '1' );
FILE_NAME( '//goodhand-server/Shared Folders/GoodHand Data/Kipp CAD/K0390/K0390.08X40.stp', '2020-12-07T10:14:20', ( '' ), ( '' ), ' ', 'PARTsolutions', ' ' );
FILE_SCHEMA( ( 'AUTOMOTIVE_DESIGN { 1 0 10303 214 1 1 1 1 }' ) );
ENDSEC;
DATA;
#1 = MECHANICAL_DESIGN_GEOMETRIC_PRESENTATION_REPRESENTATION( ' ', ( #10, #11, #12, #13, #14, #15, #16, #17, #18, #19, #20, #21, #22 ), #6 );
#2 = PRODUCT_DEFINITION_CONTEXT( '', #23, 'design' );
#3 = APPLICATION_PROTOCOL_DEFINITION( 'international standard', 'automotive_design', 2001, #23 );
#4 = PRODUCT_CATEGORY_RELATIONSHIP( 'NONE', 'NONE', #24, #25 );
#5 = SHAPE_DEFINITION_REPRESENTATION( #26, #27 );
#6 =  ( GEOMETRIC_REPRESENTATION_CONTEXT( 3 )GLOBAL_UNCERTAINTY_ASSIGNED_CONTEXT( ( #30 ) )GLOBAL_UNIT_ASSIGNED_CONTEXT( ( #32, #33, #34 ) )REPRESENTATION_CONTEXT( 'NONE', 'WORKSPACE' ) );
#10 = STYLED_ITEM( '', ( #36 ), #37 );
#11 = STYLED_ITEM( '', ( #38 ), #39 );
#12 = STYLED_ITEM( '', ( #40 ), #41 );
#13 = STYLED_ITEM( '', ( #42 ), #43 );
#14 = STYLED_ITEM( '', ( #44 ), #45 );
#15 = STYLED_ITEM( '', ( #46 ), #47 );
#16 = STYLED_ITEM( '', ( #48 ), #49 );
#17 = STYLED_ITEM( '', ( #50 ), #51 );
#18 = STYLED_ITEM( '', ( #52 ), #53 );
#19 = STYLED_ITEM( '', ( #54 ), #55 );
#20 = STYLED_ITEM( '', ( #56 ), #57 );
#21 = STYLED_ITEM( '', ( #58 ), #59 );
#22 = STYLED_ITEM( '', ( #60 ), #61 );
#23 = APPLICATION_CONTEXT( 'core data for automotive mechanical design processes' );
#24 = PRODUCT_CATEGORY( 'part', 'NONE' );
#25 = PRODUCT_RELATED_PRODUCT_CATEGORY( 'detail', ' ', ( #62 ) );
#26 = PRODUCT_DEFINITION_SHAPE( 'NONE', 'NONE', #63 );
#27 = ADVANCED_BREP_SHAPE_REPRESENTATION( '_K0390.08X40', ( #64, #65 ), #6 );
#30 = UNCERTAINTY_MEASURE_WITH_UNIT( LENGTH_MEASURE( 0.00100000000000000 ), #32, '', '' );
#32 =  ( CONVERSION_BASED_UNIT( 'MILLIMETRE', #68 )LENGTH_UNIT(  )NAMED_UNIT( #71 ) );
#33 =  ( NAMED_UNIT( #73 )PLANE_ANGLE_UNIT(  )SI_UNIT( $, .RADIAN. ) );
#34 =  ( NAMED_UNIT( #73 )SI_UNIT( $, .STERADIAN. )SOLID_ANGLE_UNIT(  ) );
#36 = PRESENTATION_STYLE_ASSIGNMENT( ( #79 ) );
#37 = ADVANCED_FACE( '', ( #80, #81 ), #82, .T. );
#38 = PRESENTATION_STYLE_ASSIGNMENT( ( #83 ) );
#39 = ADVANCED_FACE( '', ( #84 ), #85, .T. );
#40 = PRESENTATION_STYLE_ASSIGNMENT( ( #86 ) );
#41 = ADVANCED_FACE( '', ( #87 ), #88, .F. );
#42 = PRESENTATION_STYLE_ASSIGNMENT( ( #89 ) );
#43 = ADVANCED_FACE( '', ( #90, #91 ), #92, .T. );
#44 = PRESENTATION_STYLE_ASSIGNMENT( ( #93 ) );
#45 = ADVANCED_FACE( '', ( #94, #95 ), #96, .T. );
#46 = PRESENTATION_STYLE_ASSIGNMENT( ( #97 ) );
#47 = ADVANCED_FACE( '', ( #98, #99 ), #100, .T. );
#48 = PRESENTATION_STYLE_ASSIGNMENT( ( #101 ) );
#49 = ADVANCED_FACE( '', ( #102 ), #103, .F. );
#50 = PRESENTATION_STYLE_ASSIGNMENT( ( #104 ) );
#51 = ADVANCED_FACE( '', ( #105 ), #106, .F. );
#52 = PRESENTATION_STYLE_ASSIGNMENT( ( #107 ) );
#53 = ADVANCED_FACE( '', ( #108 ), #109, .T. );
#54 = PRESENTATION_STYLE_ASSIGNMENT( ( #110 ) );
#55 = ADVANCED_FACE( '', ( #111 ), #112, .T. );
#56 = PRESENTATION_STYLE_ASSIGNMENT( ( #113 ) );
#57 = ADVANCED_FACE( '', ( #114 ), #115, .F. );
#58 = PRESENTATION_STYLE_ASSIGNMENT( ( #116 ) );
#59 = ADVANCED_FACE( '', ( #117, #118 ), #119, .T. );
#60 = PRESENTATION_STYLE_ASSIGNMENT( ( #120 ) );
#61 = ADVANCED_FACE( '', ( #121, #122 ), #123, .F. );
#62 = PRODUCT( '_K0390.08X40', '_K0390.08X40', 'PART-_K0390.08X40-DESC', ( #124 ) );
#63 = PRODUCT_DEFINITION( 'NONE', 'NONE', #125, #2 );
#64 = MANIFOLD_SOLID_BREP( '_K0390.08X40', #126 );
#65 = AXIS2_PLACEMENT_3D( '', #127, #128, #129 );
#68 = LENGTH_MEASURE_WITH_UNIT( LENGTH_MEASURE( 1.00000000000000 ), #130 );
#71 = DIMENSIONAL_EXPONENTS( 1.00000000000000, 0.000000000000000, 0.000000000000000, 0.000000000000000, 0.000000000000000, 0.000000000000000, 0.000000000000000 );
#73 = DIMENSIONAL_EXPONENTS( 0.000000000000000, 0.000000000000000, 0.000000000000000, 0.000000000000000, 0.000000000000000, 0.000000000000000, 0.000000000000000 );
#79 = SURFACE_STYLE_USAGE( .BOTH., #131 );
#80 = FACE_OUTER_BOUND( '', #132, .T. );
#81 = FACE_OUTER_BOUND( '', #133, .T. );
#82 = CYLINDRICAL_SURFACE( '', #134, 3.00000000000000 );
#83 = SURFACE_STYLE_USAGE( .BOTH., #135 );
#84 = FACE_OUTER_BOUND( '', #136, .T. );
#85 = PLANE( '', #137 );
#86 = SURFACE_STYLE_USAGE( .BOTH., #138 );
#87 = FACE_OUTER_BOUND( '', #139, .T. );
#88 = PLANE( '', #140 );
#89 = SURFACE_STYLE_USAGE( .BOTH., #141 );
#90 = FACE_OUTER_BOUND( '', #142, .T. );
#91 = FACE_OUTER_BOUND( '', #143, .T. );
#92 = CYLINDRICAL_SURFACE( '', #144, 4.00000000000000 );
#93 = SURFACE_STYLE_USAGE( .BOTH., #145 );
#94 = FACE_OUTER_BOUND( '', #146, .T. );
#95 = FACE_OUTER_BOUND( '', #147, .T. );
#96 = CYLINDRICAL_SURFACE( '', #148, 2.70000000000000 );
#97 = SURFACE_STYLE_USAGE( .BOTH., #149 );
#98 = FACE_BOUND( '', #150, .T. );
#99 = FACE_OUTER_BOUND( '', #151, .T. );
#100 = CONICAL_SURFACE( '', #152, 4.00000000000000, 1.06399014130000 );
#101 = SURFACE_STYLE_USAGE( .BOTH., #153 );
#102 = FACE_OUTER_BOUND( '', #154, .T. );
#103 = PLANE( '', #155 );
#104 = SURFACE_STYLE_USAGE( .BOTH., #156 );
#105 = FACE_OUTER_BOUND( '', #157, .T. );
#106 = PLANE( '', #158 );
#107 = SURFACE_STYLE_USAGE( .BOTH., #159 );
#108 = FACE_OUTER_BOUND( '', #160, .T. );
#109 = CONICAL_SURFACE( '', #161, 3.23300000000000, 0.785398163400000 );
#110 = SURFACE_STYLE_USAGE( .BOTH., #162 );
#111 = FACE_OUTER_BOUND( '', #163, .T. );
#112 = CONICAL_SURFACE( '', #164, 3.23300000000000, 0.785398163400000 );
#113 = SURFACE_STYLE_USAGE( .BOTH., #165 );
#114 = FACE_OUTER_BOUND( '', #166, .T. );
#115 = PLANE( '', #167 );
#116 = SURFACE_STYLE_USAGE( .BOTH., #168 );
#117 = FACE_BOUND( '', #169, .T. );
#118 = FACE_OUTER_BOUND( '', #170, .T. );
#119 = SPHERICAL_SURFACE( '', #171, 5.03220000000000 );
#120 = SURFACE_STYLE_USAGE( .BOTH., #172 );
#121 = FACE_OUTER_BOUND( '', #173, .T. );
#122 = FACE_BOUND( '', #174, .T. );
#123 = PLANE( '', #175 );
#124 = PRODUCT_CONTEXT( '', #23, 'mechanical' );
#125 = PRODUCT_DEFINITION_FORMATION_WITH_SPECIFIED_SOURCE( ' ', 'NONE', #62, .NOT_KNOWN. );
#126 = CLOSED_SHELL( '', ( #57, #49, #59, #37, #61, #45, #47, #43, #53, #51, #55, #41, #39 ) );
#127 = CARTESIAN_POINT( '', ( 0.000000000000000, 0.000000000000000, 0.000000000000000 ) );
#128 = DIRECTION( '', ( 0.000000000000000, 0.000000000000000, 1.00000000000000 ) );
#129 = DIRECTION( '', ( 1.00000000000000, 0.000000000000000, 0.000000000000000 ) );
#130 =  ( LENGTH_UNIT(  )NAMED_UNIT( #71 )SI_UNIT( .MILLI., .METRE. ) );
#131 = SURFACE_SIDE_STYLE( '', ( #177 ) );
#132 = EDGE_LOOP( '', ( #178 ) );
#133 = EDGE_LOOP( '', ( #179 ) );
#134 = AXIS2_PLACEMENT_3D( '', #180, #181, #182 );
#135 = SURFACE_SIDE_STYLE( '', ( #183 ) );
#136 = EDGE_LOOP( '', ( #184, #185, #186, #187 ) );
#137 = AXIS2_PLACEMENT_3D( '', #188, #189, #190 );
#138 = SURFACE_SIDE_STYLE( '', ( #191 ) );
#139 = EDGE_LOOP( '', ( #192, #193 ) );
#140 = AXIS2_PLACEMENT_3D( '', #194, #195, #196 );
#141 = SURFACE_SIDE_STYLE( '', ( #197 ) );
#142 = EDGE_LOOP( '', ( #198 ) );
#143 = EDGE_LOOP( '', ( #199, #200, #201, #202, #203, #204, #205, #206 ) );
#144 = AXIS2_PLACEMENT_3D( '', #207, #208, #209 );
#145 = SURFACE_SIDE_STYLE( '', ( #210 ) );
#146 = EDGE_LOOP( '', ( #211 ) );
#147 = EDGE_LOOP( '', ( #212 ) );
#148 = AXIS2_PLACEMENT_3D( '', #213, #214, #215 );
#149 = SURFACE_SIDE_STYLE( '', ( #216 ) );
#150 = EDGE_LOOP( '', ( #217 ) );
#151 = EDGE_LOOP( '', ( #218 ) );
#152 = AXIS2_PLACEMENT_3D( '', #219, #220, #221 );
#153 = SURFACE_SIDE_STYLE( '', ( #222 ) );
#154 = EDGE_LOOP( '', ( #223, #224, #225, #226, #227, #228 ) );
#155 = AXIS2_PLACEMENT_3D( '', #229, #230, #231 );
#156 = SURFACE_SIDE_STYLE( '', ( #232 ) );
#157 = EDGE_LOOP( '', ( #233, #234 ) );
#158 = AXIS2_PLACEMENT_3D( '', #235, #236, #237 );
#159 = SURFACE_SIDE_STYLE( '', ( #238 ) );
#160 = EDGE_LOOP( '', ( #239, #240, #241, #242 ) );
#161 = AXIS2_PLACEMENT_3D( '', #243, #244, #245 );
#162 = SURFACE_SIDE_STYLE( '', ( #246 ) );
#163 = EDGE_LOOP( '', ( #247, #248, #249, #250 ) );
#164 = AXIS2_PLACEMENT_3D( '', #251, #252, #253 );
#165 = SURFACE_SIDE_STYLE( '', ( #254 ) );
#166 = EDGE_LOOP( '', ( #255, #256, #257, #258, #259, #260 ) );
#167 = AXIS2_PLACEMENT_3D( '', #261, #262, #263 );
#168 = SURFACE_SIDE_STYLE( '', ( #264 ) );
#169 = VERTEX_LOOP( '', #265 );
#170 = EDGE_LOOP( '', ( #266 ) );
#171 = AXIS2_PLACEMENT_3D( '', #267, #268, #269 );
#172 = SURFACE_SIDE_STYLE( '', ( #270 ) );
#173 = EDGE_LOOP( '', ( #271 ) );
#174 = EDGE_LOOP( '', ( #272 ) );
#175 = AXIS2_PLACEMENT_3D( '', #273, #274, #275 );
#177 = SURFACE_STYLE_FILL_AREA( #276 );
#178 = ORIENTED_EDGE( '', *, *, #277, .F. );
#179 = ORIENTED_EDGE( '', *, *, #278, .T. );
#180 = CARTESIAN_POINT( '', ( 40.0000000000000, 3.55271367880050E-15, 0.000000000000000 ) );
#181 = DIRECTION( '', ( -1.00000000000000, 6.12323399573677E-17, 0.000000000000000 ) );
#182 = DIRECTION( '', ( 6.12323399573677E-17, 1.00000000000000, 0.000000000000000 ) );
#183 = SURFACE_STYLE_FILL_AREA( #279 );
#184 = ORIENTED_EDGE( '', *, *, #280, .T. );
#185 = ORIENTED_EDGE( '', *, *, #281, .T. );
#186 = ORIENTED_EDGE( '', *, *, #282, .T. );
#187 = ORIENTED_EDGE( '', *, *, #283, .T. );
#188 = CARTESIAN_POINT( '', ( 3.00000000000000, 0.000000000000000, 0.000000000000000 ) );
#189 = DIRECTION( '', ( -1.00000000000000, 0.000000000000000, 0.000000000000000 ) );
#190 = DIRECTION( '', ( 0.000000000000000, 0.000000000000000, 1.00000000000000 ) );
#191 = SURFACE_STYLE_FILL_AREA( #284 );
#192 = ORIENTED_EDGE( '', *, *, #285, .F. );
#193 = ORIENTED_EDGE( '', *, *, #286, .F. );
#194 = CARTESIAN_POINT( '', ( -9.89820775410848E-17, 6.00200727709521E-15, 0.000000000000000 ) );
#195 = DIRECTION( '', ( 1.00000000000000, -6.12323399573677E-17, -0.000000000000000 ) );
#196 = DIRECTION( '', ( 6.12323399573677E-17, 1.00000000000000, 0.000000000000000 ) );
#197 = SURFACE_STYLE_FILL_AREA( #287 );
#198 = ORIENTED_EDGE( '', *, *, #288, .F. );
#199 = ORIENTED_EDGE( '', *, *, #289, .T. );
#200 = ORIENTED_EDGE( '', *, *, #290, .T. );
#201 = ORIENTED_EDGE( '', *, *, #280, .F. );
#202 = ORIENTED_EDGE( '', *, *, #291, .T. );
#203 = ORIENTED_EDGE( '', *, *, #292, .T. );
#204 = ORIENTED_EDGE( '', *, *, #293, .T. );
#205 = ORIENTED_EDGE( '', *, *, #282, .F. );
#206 = ORIENTED_EDGE( '', *, *, #294, .T. );
#207 = CARTESIAN_POINT( '', ( 40.0000000000000, 3.55271367880050E-15, 0.000000000000000 ) );
#208 = DIRECTION( '', ( -1.00000000000000, 6.12323399573677E-17, 0.000000000000000 ) );
#209 = DIRECTION( '', ( 6.12323399573677E-17, 1.00000000000000, 0.000000000000000 ) );
#210 = SURFACE_STYLE_FILL_AREA( #295 );
#211 = ORIENTED_EDGE( '', *, *, #296, .F. );
#212 = ORIENTED_EDGE( '', *, *, #297, .T. );
#213 = CARTESIAN_POINT( '', ( 40.0000000000000, 3.55271367880050E-15, 0.000000000000000 ) );
#214 = DIRECTION( '', ( -1.00000000000000, 6.12323399573676E-17, 0.000000000000000 ) );
#215 = DIRECTION( '', ( 6.12323399573677E-17, 1.00000000000000, 0.000000000000000 ) );
#216 = SURFACE_STYLE_FILL_AREA( #298 );
#217 = ORIENTED_EDGE( '', *, *, #297, .F. );
#218 = ORIENTED_EDGE( '', *, *, #288, .T. );
#219 = CARTESIAN_POINT( '', ( 32.5000000000000, 4.01195622848076E-15, 0.000000000000000 ) );
#220 = DIRECTION( '', ( -1.00000000000000, 6.12323399573677E-17, -0.000000000000000 ) );
#221 = DIRECTION( '', ( -6.12323399573677E-17, -1.00000000000000, 0.000000000000000 ) );
#222 = SURFACE_STYLE_FILL_AREA( #299 );
#223 = ORIENTED_EDGE( '', *, *, #300, .T. );
#224 = ORIENTED_EDGE( '', *, *, #301, .F. );
#225 = ORIENTED_EDGE( '', *, *, #294, .F. );
#226 = ORIENTED_EDGE( '', *, *, #281, .F. );
#227 = ORIENTED_EDGE( '', *, *, #290, .F. );
#228 = ORIENTED_EDGE( '', *, *, #302, .F. );
#229 = CARTESIAN_POINT( '', ( 3.00000000000000, -0.899999999999994, -10.5000000000000 ) );
#230 = DIRECTION( '', ( 0.000000000000000, -1.00000000000000, 0.000000000000000 ) );
#231 = DIRECTION( '', ( 0.000000000000000, 0.000000000000000, -1.00000000000000 ) );
#232 = SURFACE_STYLE_FILL_AREA( #303 );
#233 = ORIENTED_EDGE( '', *, *, #304, .F. );
#234 = ORIENTED_EDGE( '', *, *, #300, .F. );
#235 = CARTESIAN_POINT( '', ( -9.89820775410848E-17, 6.00200727709521E-15, 0.000000000000000 ) );
#236 = DIRECTION( '', ( 1.00000000000000, -6.12323399573677E-17, -0.000000000000000 ) );
#237 = DIRECTION( '', ( 6.12323399573677E-17, 1.00000000000000, 0.000000000000000 ) );
#238 = SURFACE_STYLE_FILL_AREA( #305 );
#239 = ORIENTED_EDGE( '', *, *, #285, .T. );
#240 = ORIENTED_EDGE( '', *, *, #306, .T. );
#241 = ORIENTED_EDGE( '', *, *, #292, .F. );
#242 = ORIENTED_EDGE( '', *, *, #307, .T. );
#243 = CARTESIAN_POINT( '', ( 0.000000000000000, 6.00200727709521E-15, 0.000000000000000 ) );
#244 = DIRECTION( '', ( 1.00000000000000, -6.12323399573677E-17, -0.000000000000000 ) );
#245 = DIRECTION( '', ( 6.12323399573677E-17, 1.00000000000000, 0.000000000000000 ) );
#246 = SURFACE_STYLE_FILL_AREA( #308 );
#247 = ORIENTED_EDGE( '', *, *, #289, .F. );
#248 = ORIENTED_EDGE( '', *, *, #301, .T. );
#249 = ORIENTED_EDGE( '', *, *, #304, .T. );
#250 = ORIENTED_EDGE( '', *, *, #302, .T. );
#251 = CARTESIAN_POINT( '', ( 0.000000000000000, 6.00200727709521E-15, 0.000000000000000 ) );
#252 = DIRECTION( '', ( 1.00000000000000, -6.12323399573677E-17, -0.000000000000000 ) );
#253 = DIRECTION( '', ( 6.12323399573677E-17, 1.00000000000000, 0.000000000000000 ) );
#254 = SURFACE_STYLE_FILL_AREA( #309 );
#255 = ORIENTED_EDGE( '', *, *, #306, .F. );
#256 = ORIENTED_EDGE( '', *, *, #286, .T. );
#257 = ORIENTED_EDGE( '', *, *, #307, .F. );
#258 = ORIENTED_EDGE( '', *, *, #291, .F. );
#259 = ORIENTED_EDGE( '', *, *, #283, .F. );
#260 = ORIENTED_EDGE( '', *, *, #293, .F. );
#261 = CARTESIAN_POINT( '', ( 3.00000000000000, 0.900000000000006, 10.5000000000000 ) );
#262 = DIRECTION( '', ( 0.000000000000000, 1.00000000000000, 0.000000000000000 ) );
#263 = DIRECTION( '', ( 0.000000000000000, -0.000000000000000, 1.00000000000000 ) );
#264 = SURFACE_STYLE_FILL_AREA( #310 );
#265 = VERTEX_POINT( '', #311 );
#266 = ORIENTED_EDGE( '', *, *, #277, .T. );
#267 = CARTESIAN_POINT( '', ( 34.9678000000001, 2.94902990916057E-14, 0.000000000000000 ) );
#268 = DIRECTION( '', ( 1.00000000000000, 0.000000000000000, 0.000000000000000 ) );
#269 = DIRECTION( '', ( 0.000000000000000, -1.00000000000000, 0.000000000000000 ) );
#270 = SURFACE_STYLE_FILL_AREA( #312 );
#271 = ORIENTED_EDGE( '', *, *, #278, .F. );
#272 = ORIENTED_EDGE( '', *, *, #296, .T. );
#273 = CARTESIAN_POINT( '', ( 37.0000000000000, 2.70000000000000, 0.000000000000000 ) );
#274 = DIRECTION( '', ( 1.00000000000000, -6.12323399573677E-17, -0.000000000000000 ) );
#275 = DIRECTION( '', ( 6.12323399573677E-17, 1.00000000000000, 0.000000000000000 ) );
#276 = FILL_AREA_STYLE( '', ( #313 ) );
#277 = EDGE_CURVE( '', #314, #314, #315, .T. );
#278 = EDGE_CURVE( '', #316, #316, #317, .T. );
#279 = FILL_AREA_STYLE( '', ( #318 ) );
#280 = EDGE_CURVE( '', #319, #320, #321, .T. );
#281 = EDGE_CURVE( '', #320, #322, #323, .T. );
#282 = EDGE_CURVE( '', #322, #324, #325, .T. );
#283 = EDGE_CURVE( '', #324, #319, #326, .T. );
#284 = FILL_AREA_STYLE( '', ( #327 ) );
#285 = EDGE_CURVE( '', #328, #329, #330, .T. );
#286 = EDGE_CURVE( '', #329, #328, #331, .T. );
#287 = FILL_AREA_STYLE( '', ( #332 ) );
#288 = EDGE_CURVE( '', #333, #333, #334, .T. );
#289 = EDGE_CURVE( '', #335, #336, #337, .T. );
#290 = EDGE_CURVE( '', #336, #320, #338, .T. );
#291 = EDGE_CURVE( '', #319, #339, #340, .F. );
#292 = EDGE_CURVE( '', #339, #341, #342, .T. );
#293 = EDGE_CURVE( '', #341, #324, #343, .T. );
#294 = EDGE_CURVE( '', #322, #335, #344, .F. );
#295 = FILL_AREA_STYLE( '', ( #345 ) );
#296 = EDGE_CURVE( '', #346, #346, #347, .T. );
#297 = EDGE_CURVE( '', #348, #348, #349, .T. );
#298 = FILL_AREA_STYLE( '', ( #350 ) );
#299 = FILL_AREA_STYLE( '', ( #351 ) );
#300 = EDGE_CURVE( '', #352, #353, #354, .T. );
#301 = EDGE_CURVE( '', #335, #353, #355, .T. );
#302 = EDGE_CURVE( '', #352, #336, #356, .T. );
#303 = FILL_AREA_STYLE( '', ( #357 ) );
#304 = EDGE_CURVE( '', #353, #352, #358, .T. );
#305 = FILL_AREA_STYLE( '', ( #359 ) );
#306 = EDGE_CURVE( '', #329, #341, #360, .T. );
#307 = EDGE_CURVE( '', #339, #328, #361, .T. );
#308 = FILL_AREA_STYLE( '', ( #362 ) );
#309 = FILL_AREA_STYLE( '', ( #363 ) );
#310 = FILL_AREA_STYLE( '', ( #364 ) );
#311 = CARTESIAN_POINT( '', ( 40.0000000000000, 2.88740323293388E-14, 0.000000000000000 ) );
#312 = FILL_AREA_STYLE( '', ( #365 ) );
#313 = FILL_AREA_STYLE_COLOUR( '', #366 );
#314 = VERTEX_POINT( '', #367 );
#315 = CIRCLE( '', #368, 3.00000000000000 );
#316 = VERTEX_POINT( '', #369 );
#317 = CIRCLE( '', #370, 3.00000000000000 );
#318 = FILL_AREA_STYLE_COLOUR( '', #371 );
#319 = VERTEX_POINT( '', #372 );
#320 = VERTEX_POINT( '', #373 );
#321 = CIRCLE( '', #374, 4.00000000000000 );
#322 = VERTEX_POINT( '', #375 );
#323 = LINE( '', #376, #377 );
#324 = VERTEX_POINT( '', #378 );
#325 = CIRCLE( '', #379, 4.00000000000000 );
#326 = LINE( '', #380, #381 );
#327 = FILL_AREA_STYLE_COLOUR( '', #382 );
#328 = VERTEX_POINT( '', #383 );
#329 = VERTEX_POINT( '', #384 );
#330 = CIRCLE( '', #385, 3.23300000000000 );
#331 = LINE( '', #386, #387 );
#332 = FILL_AREA_STYLE_COLOUR( '', #388 );
#333 = VERTEX_POINT( '', #389 );
#334 = CIRCLE( '', #390, 4.00000000000000 );
#335 = VERTEX_POINT( '', #391 );
#336 = VERTEX_POINT( '', #392 );
#337 = CIRCLE( '', #393, 4.00000000000000 );
#338 = LINE( '', #394, #395 );
#339 = VERTEX_POINT( '', #396 );
#340 = LINE( '', #397, #398 );
#341 = VERTEX_POINT( '', #399 );
#342 = CIRCLE( '', #400, 4.00000000000000 );
#343 = LINE( '', #401, #402 );
#344 = LINE( '', #403, #404 );
#345 = FILL_AREA_STYLE_COLOUR( '', #405 );
#346 = VERTEX_POINT( '', #406 );
#347 = CIRCLE( '', #407, 2.70000000000000 );
#348 = VERTEX_POINT( '', #408 );
#349 = CIRCLE( '', #409, 2.70000000000000 );
#350 = FILL_AREA_STYLE_COLOUR( '', #410 );
#351 = FILL_AREA_STYLE_COLOUR( '', #411 );
#352 = VERTEX_POINT( '', #412 );
#353 = VERTEX_POINT( '', #413 );
#354 = LINE( '', #414, #415 );
#355 = B_SPLINE_CURVE_WITH_KNOTS( '', 3, ( #416, #417, #418, #419 ), .UNSPECIFIED., .F., .F., ( 4, 4 ), ( 0.00685941369446052, 0.00796210091278451 ), .UNSPECIFIED. );
#356 = B_SPLINE_CURVE_WITH_KNOTS( '', 3, ( #420, #421, #422, #423 ), .UNSPECIFIED., .F., .F., ( 4, 4 ), ( 0.0158157249040059, 0.0169130244324276 ), .UNSPECIFIED. );
#357 = FILL_AREA_STYLE_COLOUR( '', #424 );
#358 = CIRCLE( '', #425, 3.23300000000000 );
#359 = FILL_AREA_STYLE_COLOUR( '', #426 );
#360 = B_SPLINE_CURVE_WITH_KNOTS( '', 3, ( #427, #428, #429, #430 ), .UNSPECIFIED., .F., .F., ( 4, 4 ), ( 0.0158157249040059, 0.0169130244324276 ), .UNSPECIFIED. );
#361 = B_SPLINE_CURVE_WITH_KNOTS( '', 3, ( #431, #432, #433, #434 ), .UNSPECIFIED., .F., .F., ( 4, 4 ), ( 0.00685941369446052, 0.00796210091278452 ), .UNSPECIFIED. );
#362 = FILL_AREA_STYLE_COLOUR( '', #435 );
#363 = FILL_AREA_STYLE_COLOUR( '', #436 );
#364 = FILL_AREA_STYLE_COLOUR( '', #437 );
#365 = FILL_AREA_STYLE_COLOUR( '', #438 );
#366 = COLOUR_RGB( '', 0.689999997600000, 0.689999997600000, 0.689999997600000 );
#367 = CARTESIAN_POINT( '', ( 39.0079778228192, 3.00000000000000, 0.000000000000000 ) );
#368 = AXIS2_PLACEMENT_3D( '', #439, #440, #441 );
#369 = CARTESIAN_POINT( '', ( 37.0000000000000, 3.00000000000000, 0.000000000000000 ) );
#370 = AXIS2_PLACEMENT_3D( '', #442, #443, #444 );
#371 = COLOUR_RGB( '', 0.689999997600000, 0.689999997600000, 0.689999997600000 );
#372 = CARTESIAN_POINT( '', ( 3.00000000000000, 0.900000000000006, -3.89743505398101 ) );
#373 = CARTESIAN_POINT( '', ( 3.00000000000000, -0.899999999999994, -3.89743505398101 ) );
#374 = AXIS2_PLACEMENT_3D( '', #445, #446, #447 );
#375 = CARTESIAN_POINT( '', ( 3.00000000000000, -0.899999999999994, 3.89743505398101 ) );
#376 = CARTESIAN_POINT( '', ( 3.00000000000000, -0.899999999999994, -10.5000000000000 ) );
#377 = VECTOR( '', #448, 1000.00000000000 );
#378 = CARTESIAN_POINT( '', ( 3.00000000000000, 0.900000000000006, 3.89743505398101 ) );
#379 = AXIS2_PLACEMENT_3D( '', #449, #450, #451 );
#380 = CARTESIAN_POINT( '', ( 3.00000000000000, 0.900000000000006, 10.5000000000000 ) );
#381 = VECTOR( '', #452, 1000.00000000000 );
#382 = COLOUR_RGB( '', 0.689999997600000, 0.689999997600000, 0.689999997600000 );
#383 = CARTESIAN_POINT( '', ( 0.000000000000000, 0.900000000000006, -3.10520353600211 ) );
#384 = CARTESIAN_POINT( '', ( 0.000000000000000, 0.900000000000006, 3.10520353600211 ) );
#385 = AXIS2_PLACEMENT_3D( '', #453, #454, #455 );
#386 = CARTESIAN_POINT( '', ( 0.000000000000000, 0.900000000000006, 10.5000000000000 ) );
#387 = VECTOR( '', #456, 1000.00000000000 );
#388 = COLOUR_RGB( '', 0.689999997600000, 0.689999997600000, 0.689999997600000 );
#389 = CARTESIAN_POINT( '', ( 32.5000000000000, 4.00000000000000, 0.000000000000000 ) );
#390 = AXIS2_PLACEMENT_3D( '', #457, #458, #459 );
#391 = CARTESIAN_POINT( '', ( 0.767000000000004, -0.899999999999992, 3.89743505398102 ) );
#392 = CARTESIAN_POINT( '', ( 0.767000000000004, -0.899999999999992, -3.89743505398102 ) );
#393 = AXIS2_PLACEMENT_3D( '', #460, #461, #462 );
#394 = CARTESIAN_POINT( '', ( 40.0000000000000, -0.899999999999994, -3.89743505398102 ) );
#395 = VECTOR( '', #463, 1000.00000000000 );
#396 = CARTESIAN_POINT( '', ( 0.767000000000004, 0.900000000000008, -3.89743505398101 ) );
#397 = CARTESIAN_POINT( '', ( 40.0000000000000, 0.900000000000006, -3.89743505398101 ) );
#398 = VECTOR( '', #464, 1000.00000000000 );
#399 = CARTESIAN_POINT( '', ( 0.767000000000004, 0.900000000000008, 3.89743505398101 ) );
#400 = AXIS2_PLACEMENT_3D( '', #465, #466, #467 );
#401 = CARTESIAN_POINT( '', ( 40.0000000000000, 0.900000000000006, 3.89743505398101 ) );
#402 = VECTOR( '', #468, 1000.00000000000 );
#403 = CARTESIAN_POINT( '', ( 40.0000000000000, -0.899999999999994, 3.89743505398102 ) );
#404 = VECTOR( '', #469, 1000.00000000000 );
#405 = COLOUR_RGB( '', 0.689999997600000, 0.689999997600000, 0.689999997600000 );
#406 = CARTESIAN_POINT( '', ( 37.0000000000000, 2.70000000000000, 0.000000000000000 ) );
#407 = AXIS2_PLACEMENT_3D( '', #470, #471, #472 );
#408 = CARTESIAN_POINT( '', ( 33.2217250000000, 2.70000000000000, 0.000000000000000 ) );
#409 = AXIS2_PLACEMENT_3D( '', #473, #474, #475 );
#410 = COLOUR_RGB( '', 0.689999997600000, 0.689999997600000, 0.689999997600000 );
#411 = COLOUR_RGB( '', 0.689999997600000, 0.689999997600000, 0.689999997600000 );
#412 = CARTESIAN_POINT( '', ( 0.000000000000000, -0.899999999999994, -3.10520353600211 ) );
#413 = CARTESIAN_POINT( '', ( 0.000000000000000, -0.899999999999994, 3.10520353600211 ) );
#414 = CARTESIAN_POINT( '', ( 0.000000000000000, -0.899999999999994, -10.5000000000000 ) );
#415 = VECTOR( '', #476, 1000.00000000000 );
#416 = CARTESIAN_POINT( '', ( 0.766999999999999, -0.899999999999994, 3.89743505398102 ) );
#417 = CARTESIAN_POINT( '', ( 0.510490421567081, -0.899999999999994, 3.63417516651127 ) );
#418 = CARTESIAN_POINT( '', ( 0.254616510453987, -0.899999999999994, 3.37029893756073 ) );
#419 = CARTESIAN_POINT( '', ( -1.59249995932834E-15, -0.899999999999994, 3.10520353600211 ) );
#420 = CARTESIAN_POINT( '', ( -2.56229099095225E-16, -0.899999999999994, -3.10520353600211 ) );
#421 = CARTESIAN_POINT( '', ( 0.254623855499881, -0.899999999999994, -3.37030658489628 ) );
#422 = CARTESIAN_POINT( '', ( 0.510496360619597, -0.899999999999994, -3.63418126185597 ) );
#423 = CARTESIAN_POINT( '', ( 0.767000000000001, -0.899999999999994, -3.89743505398102 ) );
#424 = COLOUR_RGB( '', 0.689999997600000, 0.689999997600000, 0.689999997600000 );
#425 = AXIS2_PLACEMENT_3D( '', #477, #478, #479 );
#426 = COLOUR_RGB( '', 0.689999997600000, 0.689999997600000, 0.689999997600000 );
#427 = CARTESIAN_POINT( '', ( -1.39402322506363E-15, 0.900000000000006, 3.10520353600211 ) );
#428 = CARTESIAN_POINT( '', ( 0.254623855499880, 0.900000000000006, 3.37030658489628 ) );
#429 = CARTESIAN_POINT( '', ( 0.510496360619596, 0.900000000000006, 3.63418126185596 ) );
#430 = CARTESIAN_POINT( '', ( 0.767000000000000, 0.900000000000006, 3.89743505398102 ) );
#431 = CARTESIAN_POINT( '', ( 0.767000000000000, 0.900000000000006, -3.89743505398102 ) );
#432 = CARTESIAN_POINT( '', ( 0.510490421567082, 0.900000000000006, -3.63417516651128 ) );
#433 = CARTESIAN_POINT( '', ( 0.254616510453989, 0.900000000000006, -3.37029893756074 ) );
#434 = CARTESIAN_POINT( '', ( 6.25771914247649E-16, 0.900000000000006, -3.10520353600211 ) );
#435 = COLOUR_RGB( '', 0.689999997600000, 0.689999997600000, 0.689999997600000 );
#436 = COLOUR_RGB( '', 0.689999997600000, 0.689999997600000, 0.689999997600000 );
#437 = COLOUR_RGB( '', 0.689999997600000, 0.689999997600000, 0.689999997600000 );
#438 = COLOUR_RGB( '', 0.689999997600000, 0.689999997600000, 0.689999997600000 );
#439 = CARTESIAN_POINT( '', ( 39.0079778228192, 3.61345751799888E-15, 0.000000000000000 ) );
#440 = DIRECTION( '', ( 1.00000000000000, -6.12323399573677E-17, -0.000000000000000 ) );
#441 = DIRECTION( '', ( 6.12323399573677E-17, 1.00000000000000, 0.000000000000000 ) );
#442 = CARTESIAN_POINT( '', ( 37.0000000000000, 3.73641069867260E-15, 0.000000000000000 ) );
#443 = DIRECTION( '', ( 1.00000000000000, -6.12323399573677E-17, -0.000000000000000 ) );
#444 = DIRECTION( '', ( 6.12323399573677E-17, 1.00000000000000, 0.000000000000000 ) );
#445 = CARTESIAN_POINT( '', ( 3.00000000000000, 5.81831025722310E-15, 0.000000000000000 ) );
#446 = DIRECTION( '', ( -1.00000000000000, 0.000000000000000, 0.000000000000000 ) );
#447 = DIRECTION( '', ( 0.000000000000000, 0.000000000000000, 1.00000000000000 ) );
#448 = DIRECTION( '', ( 0.000000000000000, 0.000000000000000, 1.00000000000000 ) );
#449 = CARTESIAN_POINT( '', ( 3.00000000000000, 5.81831025722310E-15, 0.000000000000000 ) );
#450 = DIRECTION( '', ( -1.00000000000000, 0.000000000000000, 0.000000000000000 ) );
#451 = DIRECTION( '', ( 0.000000000000000, 0.000000000000000, 1.00000000000000 ) );
#452 = DIRECTION( '', ( 0.000000000000000, 0.000000000000000, -1.00000000000000 ) );
#453 = CARTESIAN_POINT( '', ( 0.000000000000000, 6.00200727709521E-15, 0.000000000000000 ) );
#454 = DIRECTION( '', ( 1.00000000000000, -6.12323399573677E-17, -0.000000000000000 ) );
#455 = DIRECTION( '', ( 6.12323399573677E-17, 1.00000000000000, 0.000000000000000 ) );
#456 = DIRECTION( '', ( 0.000000000000000, 0.000000000000000, -1.00000000000000 ) );
#457 = CARTESIAN_POINT( '', ( 32.5000000000000, 4.01195622848076E-15, 0.000000000000000 ) );
#458 = DIRECTION( '', ( 1.00000000000000, -6.12323399573677E-17, -0.000000000000000 ) );
#459 = DIRECTION( '', ( 6.12323399573677E-17, 1.00000000000000, 0.000000000000000 ) );
#460 = CARTESIAN_POINT( '', ( 0.766999999999997, 5.95504207234791E-15, 0.000000000000000 ) );
#461 = DIRECTION( '', ( 1.00000000000000, -6.12323399573677E-17, -0.000000000000000 ) );
#462 = DIRECTION( '', ( 6.12323399573677E-17, 1.00000000000000, 0.000000000000000 ) );
#463 = DIRECTION( '', ( 1.00000000000000, -6.12323399573677E-17, -0.000000000000000 ) );
#464 = DIRECTION( '', ( 1.00000000000000, -6.12323399573677E-17, -0.000000000000000 ) );
#465 = CARTESIAN_POINT( '', ( 0.766999999999997, 5.95504207234791E-15, 0.000000000000000 ) );
#466 = DIRECTION( '', ( 1.00000000000000, -6.12323399573677E-17, -0.000000000000000 ) );
#467 = DIRECTION( '', ( 6.12323399573677E-17, 1.00000000000000, 0.000000000000000 ) );
#468 = DIRECTION( '', ( 1.00000000000000, -6.12323399573677E-17, -0.000000000000000 ) );
#469 = DIRECTION( '', ( 1.00000000000000, -6.12323399573677E-17, -0.000000000000000 ) );
#470 = CARTESIAN_POINT( '', ( 37.0000000000000, 3.73641069867260E-15, 0.000000000000000 ) );
#471 = DIRECTION( '', ( 1.00000000000000, -6.12323399573676E-17, -0.000000000000000 ) );
#472 = DIRECTION( '', ( 6.12323399573677E-17, 1.00000000000000, 0.000000000000000 ) );
#473 = CARTESIAN_POINT( '', ( 33.2217250000000, 3.96776331792503E-15, 0.000000000000000 ) );
#474 = DIRECTION( '', ( 1.00000000000000, -6.12323399573676E-17, -0.000000000000000 ) );
#475 = DIRECTION( '', ( 6.12323399573677E-17, 1.00000000000000, 0.000000000000000 ) );
#476 = DIRECTION( '', ( 0.000000000000000, 0.000000000000000, 1.00000000000000 ) );
#477 = CARTESIAN_POINT( '', ( 0.000000000000000, 6.00200727709521E-15, 0.000000000000000 ) );
#478 = DIRECTION( '', ( 1.00000000000000, -6.12323399573677E-17, -0.000000000000000 ) );
#479 = DIRECTION( '', ( 6.12323399573677E-17, 1.00000000000000, 0.000000000000000 ) );
ENDSEC;
END-ISO-10303-21;
