ISO-10303-21;
HEADER;
/****************************************************************
 * Generated by software with PDE/Lib inside                    *
 * PDElib Version v51a, created Tue 01/15/2008                  *
 * International Technegroup Inc. (www.iti-oh.com)              *
 ****************************************************************/
FILE_DESCRIPTION((''),'2;1');
FILE_NAME('S:\\Drawings\\Web Drawings Completed with mm\\vacuum accessories\\3905.stp','2008-08-01T08:22:43',('Dan Preston'),(''),'Autodesk Inventor 2009','Autodesk Inventor 2009','');
FILE_SCHEMA(('AUTOMOTIVE_DESIGN { 1 0 10303 214 1 1 1 1 }'));
ENDSEC;
DATA;
#5=APPLICATION_CONTEXT('automotive design');
#6=APPLICATION_PROTOCOL_DEFINITION('International Standard','automotive_design',2001,#5);
#7=PRODUCT_CONTEXT('',#5,'mechanical');
#8=PRODUCT('3905','3905',$,(#7));
#9=PRODUCT_RELATED_PRODUCT_CATEGORY('part',$,(#8));
#10=PRODUCT_DEFINITION_FORMATION('',$,#8);
#11=PRODUCT_DEFINITION_CONTEXT('part definition',#5,'design');
#12=PRODUCT_DEFINITION('',$,#10,#11);
#18=(NAMED_UNIT(*)PLANE_ANGLE_UNIT()SI_UNIT($,.RADIAN.));
#19=DIMENSIONAL_EXPONENTS(0.0,0.0,0.0,0.0,0.0,0.0,0.0);
#20=PLANE_ANGLE_MEASURE_WITH_UNIT(PLANE_ANGLE_MEASURE(0.017453292500000),#18);
#24=(CONVERSION_BASED_UNIT('DEGREE',#20)NAMED_UNIT(#19)PLANE_ANGLE_UNIT());
#28=(NAMED_UNIT(*)SI_UNIT($,.STERADIAN.)SOLID_ANGLE_UNIT());
#32=(LENGTH_UNIT()NAMED_UNIT(*)SI_UNIT(.CENTI.,.METRE.));
#33=DIMENSIONAL_EXPONENTS(1.0,0.0,0.0,0.0,0.0,0.0,0.0);
#34=LENGTH_MEASURE_WITH_UNIT(LENGTH_MEASURE(2.540000000000000),#32);
#38=(CONVERSION_BASED_UNIT('INCH',#34)LENGTH_UNIT()NAMED_UNIT(#33));
#40=UNCERTAINTY_MEASURE_WITH_UNIT(LENGTH_MEASURE(0.000393700787402),#38,'DISTANCE_ACCURACY_VALUE','');
#42=(GEOMETRIC_REPRESENTATION_CONTEXT(3)GLOBAL_UNCERTAINTY_ASSIGNED_CONTEXT((#40))GLOBAL_UNIT_ASSIGNED_CONTEXT((#24,#28,#38))REPRESENTATION_CONTEXT('None','None'));
#43=AXIS2_PLACEMENT_3D('',#44,#45,#46);
#44=CARTESIAN_POINT('',(0.0,0.0,0.0));
#45=DIRECTION('',(0.0,0.0,1.0));
#46=DIRECTION('',(1.0,0.0,0.0));
#47=SHAPE_REPRESENTATION('',(#43),#42);
#48=PRODUCT_DEFINITION_SHAPE('','',#12);
#49=SHAPE_DEFINITION_REPRESENTATION(#48,#47);
#55=(NAMED_UNIT(*)PLANE_ANGLE_UNIT()SI_UNIT($,.RADIAN.));
#56=DIMENSIONAL_EXPONENTS(0.0,0.0,0.0,0.0,0.0,0.0,0.0);
#57=PLANE_ANGLE_MEASURE_WITH_UNIT(PLANE_ANGLE_MEASURE(0.017453292500000),#55);
#61=(CONVERSION_BASED_UNIT('DEGREE',#57)NAMED_UNIT(#56)PLANE_ANGLE_UNIT());
#65=(NAMED_UNIT(*)SI_UNIT($,.STERADIAN.)SOLID_ANGLE_UNIT());
#69=(LENGTH_UNIT()NAMED_UNIT(*)SI_UNIT(.MILLI.,.METRE.));
#71=UNCERTAINTY_MEASURE_WITH_UNIT(LENGTH_MEASURE(0.000001000000000),#69,'DISTANCE_ACCURACY_VALUE','');
#73=(GEOMETRIC_REPRESENTATION_CONTEXT(3)GLOBAL_UNCERTAINTY_ASSIGNED_CONTEXT((#71))GLOBAL_UNIT_ASSIGNED_CONTEXT((#61,#65,#69))REPRESENTATION_CONTEXT('','3D'));
#74=CARTESIAN_POINT('',(-0.698220642861527,0.002567039809484,0.0));
#75=DIRECTION('',(1.0,0.0,0.0));
#76=DIRECTION('',(0.0,-1.0,0.0));
#77=AXIS2_PLACEMENT_3D('',#74,#75,#76);
#78=CONICAL_SURFACE('',#77,0.224760676919532,44.999999999999993);
#79=CARTESIAN_POINT('',(-0.683220642861527,0.242327716729017,2.936124E-017));
#80=VERTEX_POINT('',#79);
#81=CARTESIAN_POINT('',(-0.683220642861527,0.002567039809484,0.0));
#82=DIRECTION('',(1.0,0.0,0.0));
#83=DIRECTION('',(0.0,-1.0,0.0));
#84=AXIS2_PLACEMENT_3D('',#81,#82,#83);
#85=CIRCLE('',#84,0.239760676919532);
#86=EDGE_CURVE('',#80,#80,#85,.T.);
#87=ORIENTED_EDGE('',*,*,#86,.T.);
#88=EDGE_LOOP('',(#87));
#89=FACE_OUTER_BOUND('',#88,.T.);
#90=CARTESIAN_POINT('',(-0.713220642861527,0.212327716729017,-2.568743E-017));
#91=VERTEX_POINT('',#90);
#92=CARTESIAN_POINT('',(-0.713220642861527,0.002567039809484,0.0));
#93=DIRECTION('',(-1.0,0.0,0.0));
#94=DIRECTION('',(0.0,-1.0,0.0));
#95=AXIS2_PLACEMENT_3D('',#92,#93,#94);
#96=CIRCLE('',#95,0.209760676919532);
#97=EDGE_CURVE('',#91,#91,#96,.T.);
#98=ORIENTED_EDGE('',*,*,#97,.T.);
#99=EDGE_LOOP('',(#98));
#100=FACE_BOUND('',#99,.T.);
#101=ADVANCED_FACE('',(#89,#100),#78,.F.);
#102=CARTESIAN_POINT('',(-2.558229201908372,0.002567039809484,0.0));
#103=DIRECTION('',(1.0,0.0,0.0));
#104=DIRECTION('',(0.0,1.0,0.0));
#105=AXIS2_PLACEMENT_3D('',#102,#103,#104);
#106=CYLINDRICAL_SURFACE('',#105,0.209760676919532);
#107=CARTESIAN_POINT('',(-4.198220642861528,0.212327716729017,0.0));
#108=VERTEX_POINT('',#107);
#109=CARTESIAN_POINT('',(-4.198220642861528,0.002567039809484,0.0));
#110=DIRECTION('',(1.0,0.0,0.0));
#111=DIRECTION('',(0.0,1.0,0.0));
#112=AXIS2_PLACEMENT_3D('',#109,#110,#111);
#113=CIRCLE('',#112,0.209760676919532);
#114=EDGE_CURVE('',#108,#108,#113,.T.);
#115=ORIENTED_EDGE('',*,*,#114,.F.);
#116=EDGE_LOOP('',(#115));
#117=FACE_OUTER_BOUND('',#116,.T.);
#118=ORIENTED_EDGE('',*,*,#97,.F.);
#119=EDGE_LOOP('',(#118));
#120=FACE_BOUND('',#119,.T.);
#121=ADVANCED_FACE('',(#117,#120),#106,.F.);
#122=CARTESIAN_POINT('',(-0.683220642861527,0.482447378269251,0.0));
#123=DIRECTION('',(1.0,0.0,0.0));
#124=DIRECTION('',(0.0,0.0,-1.0));
#125=AXIS2_PLACEMENT_3D('',#122,#123,#124);
#126=PLANE('',#125);
#127=CARTESIAN_POINT('',(-0.683220642861527,0.752567039809484,0.0));
#128=VERTEX_POINT('',#127);
#129=CARTESIAN_POINT('',(-0.683220642861527,0.002567039809484,0.0));
#130=DIRECTION('',(1.0,0.0,0.0));
#131=DIRECTION('',(0.0,1.0,0.0));
#132=AXIS2_PLACEMENT_3D('',#129,#130,#131);
#133=CIRCLE('',#132,0.750000000000000);
#134=EDGE_CURVE('',#128,#128,#133,.T.);
#135=ORIENTED_EDGE('',*,*,#134,.T.);
#136=EDGE_LOOP('',(#135));
#137=FACE_OUTER_BOUND('',#136,.T.);
#138=ORIENTED_EDGE('',*,*,#86,.F.);
#139=EDGE_LOOP('',(#138));
#140=FACE_BOUND('',#139,.T.);
#141=ADVANCED_FACE('',(#137,#140),#126,.T.);
#142=CARTESIAN_POINT('',(-4.198220642861528,0.198495601478729,0.0));
#143=DIRECTION('',(1.0,0.0,0.0));
#144=DIRECTION('',(0.0,0.0,-1.0));
#145=AXIS2_PLACEMENT_3D('',#142,#143,#144);
#146=PLANE('',#145);
#147=ORIENTED_EDGE('',*,*,#114,.T.);
#148=EDGE_LOOP('',(#147));
#149=FACE_OUTER_BOUND('',#148,.T.);
#150=CARTESIAN_POINT('',(-4.198220642861528,0.184663486228440,0.0));
#151=VERTEX_POINT('',#150);
#152=CARTESIAN_POINT('',(-4.198220642861528,0.002567039809484,0.0));
#153=DIRECTION('',(1.0,0.0,0.0));
#154=DIRECTION('',(0.0,1.0,0.0));
#155=AXIS2_PLACEMENT_3D('',#152,#153,#154);
#156=CIRCLE('',#155,0.182096446418956);
#157=EDGE_CURVE('',#151,#151,#156,.T.);
#158=ORIENTED_EDGE('',*,*,#157,.F.);
#159=EDGE_LOOP('',(#158));
#160=FACE_BOUND('',#159,.T.);
#161=ADVANCED_FACE('',(#149,#160),#146,.T.);
#162=CARTESIAN_POINT('',(-4.611243822548129,0.002567039809484,0.0));
#163=DIRECTION('',(1.0,0.0,0.0));
#164=DIRECTION('',(0.0,1.0,0.0));
#165=AXIS2_PLACEMENT_3D('',#162,#163,#164);
#166=CYLINDRICAL_SURFACE('',#165,0.182096446418956);
#167=ORIENTED_EDGE('',*,*,#157,.T.);
#168=EDGE_LOOP('',(#167));
#169=FACE_OUTER_BOUND('',#168,.T.);
#170=CARTESIAN_POINT('',(-4.914220642861528,0.184663486228440,0.0));
#171=VERTEX_POINT('',#170);
#172=CARTESIAN_POINT('',(-4.914220642861528,0.002567039809484,0.0));
#173=DIRECTION('',(1.0,0.0,0.0));
#174=DIRECTION('',(0.0,1.0,0.0));
#175=AXIS2_PLACEMENT_3D('',#172,#173,#174);
#176=CIRCLE('',#175,0.182096446418956);
#177=EDGE_CURVE('',#171,#171,#176,.T.);
#178=ORIENTED_EDGE('',*,*,#177,.F.);
#179=EDGE_LOOP('',(#178));
#180=FACE_BOUND('',#179,.T.);
#181=ADVANCED_FACE('',(#169,#180),#166,.F.);
#182=CARTESIAN_POINT('',(-4.914220642861528,0.225346652292201,0.0));
#183=DIRECTION('',(-1.0,0.0,0.0));
#184=DIRECTION('',(0.0,0.0,1.0));
#185=AXIS2_PLACEMENT_3D('',#182,#183,#184);
#186=PLANE('',#185);
#187=CARTESIAN_POINT('',(-4.914220642861528,0.266029818355961,0.0));
#188=VERTEX_POINT('',#187);
#189=CARTESIAN_POINT('',(-4.914220642861528,0.002567039809484,0.0));
#190=DIRECTION('',(1.0,0.0,0.0));
#191=DIRECTION('',(0.0,1.0,0.0));
#192=AXIS2_PLACEMENT_3D('',#189,#190,#191);
#193=CIRCLE('',#192,0.263462778546477);
#194=EDGE_CURVE('',#188,#188,#193,.T.);
#195=ORIENTED_EDGE('',*,*,#194,.F.);
#196=EDGE_LOOP('',(#195));
#197=FACE_OUTER_BOUND('',#196,.T.);
#198=ORIENTED_EDGE('',*,*,#177,.T.);
#199=EDGE_LOOP('',(#198));
#200=FACE_BOUND('',#199,.T.);
#201=ADVANCED_FACE('',(#197,#200),#186,.T.);
#202=CARTESIAN_POINT('',(-4.698720642861528,0.002567039809484,0.0));
#203=DIRECTION('',(1.0,0.0,0.0));
#204=DIRECTION('',(0.0,1.0,0.0));
#205=AXIS2_PLACEMENT_3D('',#202,#203,#204);
#206=CONICAL_SURFACE('',#205,0.270159841719313,1.780000000000007);
#207=CARTESIAN_POINT('',(-4.483220642861528,0.279423944701634,0.0));
#208=VERTEX_POINT('',#207);
#209=CARTESIAN_POINT('',(-4.483220642861528,0.002567039809484,0.0));
#210=DIRECTION('',(1.0,0.0,0.0));
#211=DIRECTION('',(0.0,1.0,0.0));
#212=AXIS2_PLACEMENT_3D('',#209,#210,#211);
#213=CIRCLE('',#212,0.276856904892149);
#214=EDGE_CURVE('',#208,#208,#213,.T.);
#215=ORIENTED_EDGE('',*,*,#214,.F.);
#216=EDGE_LOOP('',(#215));
#217=FACE_OUTER_BOUND('',#216,.T.);
#218=ORIENTED_EDGE('',*,*,#194,.T.);
#219=EDGE_LOOP('',(#218));
#220=FACE_BOUND('',#219,.T.);
#221=ADVANCED_FACE('',(#217,#220),#206,.T.);
#222=CARTESIAN_POINT('',(-4.340720642861528,0.002567039809484,0.0));
#223=DIRECTION('',(-1.0,0.0,0.0));
#224=DIRECTION('',(0.0,1.0,0.0));
#225=AXIS2_PLACEMENT_3D('',#222,#223,#224);
#226=CONICAL_SURFACE('',#225,0.272428452446074,1.779999999999973);
#227=CARTESIAN_POINT('',(-4.198220642861528,0.270567039809484,0.0));
#228=VERTEX_POINT('',#227);
#229=CARTESIAN_POINT('',(-4.198220642861528,0.002567039809484,0.0));
#230=DIRECTION('',(1.0,0.0,0.0));
#231=DIRECTION('',(0.0,1.0,0.0));
#232=AXIS2_PLACEMENT_3D('',#229,#230,#231);
#233=CIRCLE('',#232,0.267999999999999);
#234=EDGE_CURVE('',#228,#228,#233,.T.);
#235=ORIENTED_EDGE('',*,*,#234,.F.);
#236=EDGE_LOOP('',(#235));
#237=FACE_OUTER_BOUND('',#236,.T.);
#238=ORIENTED_EDGE('',*,*,#214,.T.);
#239=EDGE_LOOP('',(#238));
#240=FACE_BOUND('',#239,.T.);
#241=ADVANCED_FACE('',(#237,#240),#226,.T.);
#242=CARTESIAN_POINT('',(-4.198220642861528,0.511567039809484,0.0));
#243=DIRECTION('',(-1.0,0.0,0.0));
#244=DIRECTION('',(0.0,0.0,1.0));
#245=AXIS2_PLACEMENT_3D('',#242,#243,#244);
#246=PLANE('',#245);
#247=CARTESIAN_POINT('',(-4.198220642861528,0.752567039809484,0.0));
#248=VERTEX_POINT('',#247);
#249=CARTESIAN_POINT('',(-4.198220642861528,0.002567039809484,0.0));
#250=DIRECTION('',(1.0,0.0,0.0));
#251=DIRECTION('',(0.0,1.0,0.0));
#252=AXIS2_PLACEMENT_3D('',#249,#250,#251);
#253=CIRCLE('',#252,0.749999999999999);
#254=EDGE_CURVE('',#248,#248,#253,.T.);
#255=ORIENTED_EDGE('',*,*,#254,.F.);
#256=EDGE_LOOP('',(#255));
#257=FACE_OUTER_BOUND('',#256,.T.);
#258=ORIENTED_EDGE('',*,*,#234,.T.);
#259=EDGE_LOOP('',(#258));
#260=FACE_BOUND('',#259,.T.);
#261=ADVANCED_FACE('',(#257,#260),#246,.T.);
#262=CARTESIAN_POINT('',(-2.440720642861527,0.002567039809484,0.0));
#263=DIRECTION('',(1.0,0.0,0.0));
#264=DIRECTION('',(0.0,1.0,0.0));
#265=AXIS2_PLACEMENT_3D('',#262,#263,#264);
#266=CYLINDRICAL_SURFACE('',#265,0.750000000000000);
#267=ORIENTED_EDGE('',*,*,#134,.F.);
#268=EDGE_LOOP('',(#267));
#269=FACE_OUTER_BOUND('',#268,.T.);
#270=ORIENTED_EDGE('',*,*,#254,.T.);
#271=EDGE_LOOP('',(#270));
#272=FACE_BOUND('',#271,.T.);
#273=ADVANCED_FACE('',(#269,#272),#266,.T.);
#274=CLOSED_SHELL('',(#101,#121,#141,#161,#181,#201,#221,#241,#261,#273));
#275=MANIFOLD_SOLID_BREP('',#274);
#276=COLOUR_RGB('Default',0.752941012382507,0.752941012382507,0.752941012382507);
#277=FILL_AREA_STYLE_COLOUR('Default',#276);
#278=FILL_AREA_STYLE('Default',(#277));
#279=SURFACE_STYLE_FILL_AREA(#278);
#280=SURFACE_SIDE_STYLE('Default',(#279));
#281=SURFACE_STYLE_USAGE(.BOTH.,#280);
#282=PRESENTATION_STYLE_ASSIGNMENT((#281));
#283=STYLED_ITEM('',(#282),#275);
#284=MECHANICAL_DESIGN_GEOMETRIC_PRESENTATION_REPRESENTATION('',(#283),#42);
#285=ADVANCED_BREP_SHAPE_REPRESENTATION('ABSR',(#275),#42);
#286=SHAPE_REPRESENTATION_RELATIONSHIP('SRR','None',#285,#47);
ENDSEC;
END-ISO-10303-21;
