ISO-10303-21;
HEADER;
FILE_DESCRIPTION( ( 'STEP AP214' ), '1' );
FILE_NAME( '//goodhand-server/Shared Folders/GoodHand Data/Kipp CAD/K0390/K0390.101X65.stp', '2020-12-07T10:15:40', ( '' ), ( '' ), ' ', 'PARTsolutions', ' ' );
FILE_SCHEMA( ( 'AUTOMOTIVE_DESIGN { 1 0 10303 214 1 1 1 1 }' ) );
ENDSEC;
DATA;
#1 = MECHANICAL_DESIGN_GEOMETRIC_PRESENTATION_REPRESENTATION( ' ', ( #10, #11, #12, #13, #14, #15, #16, #17, #18, #19, #20, #21, #22 ), #6 );
#2 = PRODUCT_DEFINITION_CONTEXT( '', #23, 'design' );
#3 = APPLICATION_PROTOCOL_DEFINITION( 'international standard', 'automotive_design', 2001, #23 );
#4 = PRODUCT_CATEGORY_RELATIONSHIP( 'NONE', 'NONE', #24, #25 );
#5 = SHAPE_DEFINITION_REPRESENTATION( #26, #27 );
#6 =  ( GEOMETRIC_REPRESENTATION_CONTEXT( 3 )GLOBAL_UNCERTAINTY_ASSIGNED_CONTEXT( ( #30 ) )GLOBAL_UNIT_ASSIGNED_CONTEXT( ( #32, #33, #34 ) )REPRESENTATION_CONTEXT( 'NONE', 'WORKSPACE' ) );
#10 = STYLED_ITEM( '', ( #36 ), #37 );
#11 = STYLED_ITEM( '', ( #38 ), #39 );
#12 = STYLED_ITEM( '', ( #40 ), #41 );
#13 = STYLED_ITEM( '', ( #42 ), #43 );
#14 = STYLED_ITEM( '', ( #44 ), #45 );
#15 = STYLED_ITEM( '', ( #46 ), #47 );
#16 = STYLED_ITEM( '', ( #48 ), #49 );
#17 = STYLED_ITEM( '', ( #50 ), #51 );
#18 = STYLED_ITEM( '', ( #52 ), #53 );
#19 = STYLED_ITEM( '', ( #54 ), #55 );
#20 = STYLED_ITEM( '', ( #56 ), #57 );
#21 = STYLED_ITEM( '', ( #58 ), #59 );
#22 = STYLED_ITEM( '', ( #60 ), #61 );
#23 = APPLICATION_CONTEXT( 'core data for automotive mechanical design processes' );
#24 = PRODUCT_CATEGORY( 'part', 'NONE' );
#25 = PRODUCT_RELATED_PRODUCT_CATEGORY( 'detail', ' ', ( #62 ) );
#26 = PRODUCT_DEFINITION_SHAPE( 'NONE', 'NONE', #63 );
#27 = ADVANCED_BREP_SHAPE_REPRESENTATION( '_K0390.101X65', ( #64, #65 ), #6 );
#30 = UNCERTAINTY_MEASURE_WITH_UNIT( LENGTH_MEASURE( 0.00100000000000000 ), #32, '', '' );
#32 =  ( CONVERSION_BASED_UNIT( 'MILLIMETRE', #68 )LENGTH_UNIT(  )NAMED_UNIT( #71 ) );
#33 =  ( NAMED_UNIT( #73 )PLANE_ANGLE_UNIT(  )SI_UNIT( $, .RADIAN. ) );
#34 =  ( NAMED_UNIT( #73 )SI_UNIT( $, .STERADIAN. )SOLID_ANGLE_UNIT(  ) );
#36 = PRESENTATION_STYLE_ASSIGNMENT( ( #79 ) );
#37 = ADVANCED_FACE( '', ( #80 ), #81, .F. );
#38 = PRESENTATION_STYLE_ASSIGNMENT( ( #82 ) );
#39 = ADVANCED_FACE( '', ( #83 ), #84, .T. );
#40 = PRESENTATION_STYLE_ASSIGNMENT( ( #85 ) );
#41 = ADVANCED_FACE( '', ( #86 ), #87, .F. );
#42 = PRESENTATION_STYLE_ASSIGNMENT( ( #88 ) );
#43 = ADVANCED_FACE( '', ( #89 ), #90, .T. );
#44 = PRESENTATION_STYLE_ASSIGNMENT( ( #91 ) );
#45 = ADVANCED_FACE( '', ( #92 ), #93, .F. );
#46 = PRESENTATION_STYLE_ASSIGNMENT( ( #94 ) );
#47 = ADVANCED_FACE( '', ( #95, #96 ), #97, .T. );
#48 = PRESENTATION_STYLE_ASSIGNMENT( ( #98 ) );
#49 = ADVANCED_FACE( '', ( #99 ), #100, .F. );
#50 = PRESENTATION_STYLE_ASSIGNMENT( ( #101 ) );
#51 = ADVANCED_FACE( '', ( #102, #103 ), #104, .T. );
#52 = PRESENTATION_STYLE_ASSIGNMENT( ( #105 ) );
#53 = ADVANCED_FACE( '', ( #106, #107 ), #108, .T. );
#54 = PRESENTATION_STYLE_ASSIGNMENT( ( #109 ) );
#55 = ADVANCED_FACE( '', ( #110, #111 ), #112, .T. );
#56 = PRESENTATION_STYLE_ASSIGNMENT( ( #113 ) );
#57 = ADVANCED_FACE( '', ( #114, #115 ), #116, .F. );
#58 = PRESENTATION_STYLE_ASSIGNMENT( ( #117 ) );
#59 = ADVANCED_FACE( '', ( #118, #119 ), #120, .T. );
#60 = PRESENTATION_STYLE_ASSIGNMENT( ( #121 ) );
#61 = ADVANCED_FACE( '', ( #122 ), #123, .T. );
#62 = PRODUCT( '_K0390.101X65', '_K0390.101X65', 'PART-_K0390.101X65-DESC', ( #124 ) );
#63 = PRODUCT_DEFINITION( 'NONE', 'NONE', #125, #2 );
#64 = MANIFOLD_SOLID_BREP( '_K0390.101X65', #126 );
#65 = AXIS2_PLACEMENT_3D( '', #127, #128, #129 );
#68 = LENGTH_MEASURE_WITH_UNIT( LENGTH_MEASURE( 1.00000000000000 ), #130 );
#71 = DIMENSIONAL_EXPONENTS( 1.00000000000000, 0.000000000000000, 0.000000000000000, 0.000000000000000, 0.000000000000000, 0.000000000000000, 0.000000000000000 );
#73 = DIMENSIONAL_EXPONENTS( 0.000000000000000, 0.000000000000000, 0.000000000000000, 0.000000000000000, 0.000000000000000, 0.000000000000000, 0.000000000000000 );
#79 = SURFACE_STYLE_USAGE( .BOTH., #131 );
#80 = FACE_OUTER_BOUND( '', #132, .T. );
#81 = PLANE( '', #133 );
#82 = SURFACE_STYLE_USAGE( .BOTH., #134 );
#83 = FACE_OUTER_BOUND( '', #135, .T. );
#84 = CONICAL_SURFACE( '', #136, 4.08000000000000, 0.785398163400000 );
#85 = SURFACE_STYLE_USAGE( .BOTH., #137 );
#86 = FACE_OUTER_BOUND( '', #138, .T. );
#87 = PLANE( '', #139 );
#88 = SURFACE_STYLE_USAGE( .BOTH., #140 );
#89 = FACE_OUTER_BOUND( '', #141, .T. );
#90 = PLANE( '', #142 );
#91 = SURFACE_STYLE_USAGE( .BOTH., #143 );
#92 = FACE_OUTER_BOUND( '', #144, .T. );
#93 = PLANE( '', #145 );
#94 = SURFACE_STYLE_USAGE( .BOTH., #146 );
#95 = FACE_OUTER_BOUND( '', #147, .T. );
#96 = FACE_OUTER_BOUND( '', #148, .T. );
#97 = CYLINDRICAL_SURFACE( '', #149, 5.00000000000000 );
#98 = SURFACE_STYLE_USAGE( .BOTH., #150 );
#99 = FACE_OUTER_BOUND( '', #151, .T. );
#100 = PLANE( '', #152 );
#101 = SURFACE_STYLE_USAGE( .BOTH., #153 );
#102 = FACE_OUTER_BOUND( '', #154, .T. );
#103 = FACE_OUTER_BOUND( '', #155, .T. );
#104 = CYLINDRICAL_SURFACE( '', #156, 4.00000000000000 );
#105 = SURFACE_STYLE_USAGE( .BOTH., #157 );
#106 = FACE_BOUND( '', #158, .T. );
#107 = FACE_OUTER_BOUND( '', #159, .T. );
#108 = CONICAL_SURFACE( '', #160, 5.00000000000000, 1.01679700410000 );
#109 = SURFACE_STYLE_USAGE( .BOTH., #161 );
#110 = FACE_OUTER_BOUND( '', #162, .T. );
#111 = FACE_OUTER_BOUND( '', #163, .T. );
#112 = CYLINDRICAL_SURFACE( '', #164, 3.60000000000000 );
#113 = SURFACE_STYLE_USAGE( .BOTH., #165 );
#114 = FACE_OUTER_BOUND( '', #166, .T. );
#115 = FACE_BOUND( '', #167, .T. );
#116 = PLANE( '', #168 );
#117 = SURFACE_STYLE_USAGE( .BOTH., #169 );
#118 = FACE_BOUND( '', #170, .T. );
#119 = FACE_OUTER_BOUND( '', #171, .T. );
#120 = SPHERICAL_SURFACE( '', #172, 6.70960000000000 );
#121 = SURFACE_STYLE_USAGE( .BOTH., #173 );
#122 = FACE_OUTER_BOUND( '', #174, .T. );
#123 = CONICAL_SURFACE( '', #175, 4.08000000000000, 0.785398163400000 );
#124 = PRODUCT_CONTEXT( '', #23, 'mechanical' );
#125 = PRODUCT_DEFINITION_FORMATION_WITH_SPECIFIED_SOURCE( ' ', 'NONE', #62, .NOT_KNOWN. );
#126 = CLOSED_SHELL( '', ( #37, #49, #59, #51, #57, #55, #53, #47, #39, #45, #61, #41, #43 ) );
#127 = CARTESIAN_POINT( '', ( 0.000000000000000, 0.000000000000000, 0.000000000000000 ) );
#128 = DIRECTION( '', ( 0.000000000000000, 0.000000000000000, 1.00000000000000 ) );
#129 = DIRECTION( '', ( 1.00000000000000, 0.000000000000000, 0.000000000000000 ) );
#130 =  ( LENGTH_UNIT(  )NAMED_UNIT( #71 )SI_UNIT( .MILLI., .METRE. ) );
#131 = SURFACE_SIDE_STYLE( '', ( #177 ) );
#132 = EDGE_LOOP( '', ( #178, #179, #180, #181, #182, #183 ) );
#133 = AXIS2_PLACEMENT_3D( '', #184, #185, #186 );
#134 = SURFACE_SIDE_STYLE( '', ( #187 ) );
#135 = EDGE_LOOP( '', ( #188, #189, #190, #191 ) );
#136 = AXIS2_PLACEMENT_3D( '', #192, #193, #194 );
#137 = SURFACE_SIDE_STYLE( '', ( #195 ) );
#138 = EDGE_LOOP( '', ( #196, #197 ) );
#139 = AXIS2_PLACEMENT_3D( '', #198, #199, #200 );
#140 = SURFACE_SIDE_STYLE( '', ( #201 ) );
#141 = EDGE_LOOP( '', ( #202, #203, #204, #205 ) );
#142 = AXIS2_PLACEMENT_3D( '', #206, #207, #208 );
#143 = SURFACE_SIDE_STYLE( '', ( #209 ) );
#144 = EDGE_LOOP( '', ( #210, #211 ) );
#145 = AXIS2_PLACEMENT_3D( '', #212, #213, #214 );
#146 = SURFACE_SIDE_STYLE( '', ( #215 ) );
#147 = EDGE_LOOP( '', ( #216 ) );
#148 = EDGE_LOOP( '', ( #217, #218, #219, #220, #221, #222, #223, #224 ) );
#149 = AXIS2_PLACEMENT_3D( '', #225, #226, #227 );
#150 = SURFACE_SIDE_STYLE( '', ( #228 ) );
#151 = EDGE_LOOP( '', ( #229, #230, #231, #232, #233, #234 ) );
#152 = AXIS2_PLACEMENT_3D( '', #235, #236, #237 );
#153 = SURFACE_SIDE_STYLE( '', ( #238 ) );
#154 = EDGE_LOOP( '', ( #239 ) );
#155 = EDGE_LOOP( '', ( #240 ) );
#156 = AXIS2_PLACEMENT_3D( '', #241, #242, #243 );
#157 = SURFACE_SIDE_STYLE( '', ( #244 ) );
#158 = EDGE_LOOP( '', ( #245 ) );
#159 = EDGE_LOOP( '', ( #246 ) );
#160 = AXIS2_PLACEMENT_3D( '', #247, #248, #249 );
#161 = SURFACE_SIDE_STYLE( '', ( #250 ) );
#162 = EDGE_LOOP( '', ( #251 ) );
#163 = EDGE_LOOP( '', ( #252 ) );
#164 = AXIS2_PLACEMENT_3D( '', #253, #254, #255 );
#165 = SURFACE_SIDE_STYLE( '', ( #256 ) );
#166 = EDGE_LOOP( '', ( #257 ) );
#167 = EDGE_LOOP( '', ( #258 ) );
#168 = AXIS2_PLACEMENT_3D( '', #259, #260, #261 );
#169 = SURFACE_SIDE_STYLE( '', ( #262 ) );
#170 = VERTEX_LOOP( '', #263 );
#171 = EDGE_LOOP( '', ( #264 ) );
#172 = AXIS2_PLACEMENT_3D( '', #265, #266, #267 );
#173 = SURFACE_SIDE_STYLE( '', ( #268 ) );
#174 = EDGE_LOOP( '', ( #269, #270, #271, #272 ) );
#175 = AXIS2_PLACEMENT_3D( '', #273, #274, #275 );
#177 = SURFACE_STYLE_FILL_AREA( #276 );
#178 = ORIENTED_EDGE( '', *, *, #277, .F. );
#179 = ORIENTED_EDGE( '', *, *, #278, .T. );
#180 = ORIENTED_EDGE( '', *, *, #279, .F. );
#181 = ORIENTED_EDGE( '', *, *, #280, .F. );
#182 = ORIENTED_EDGE( '', *, *, #281, .F. );
#183 = ORIENTED_EDGE( '', *, *, #282, .F. );
#184 = CARTESIAN_POINT( '', ( 3.00000000000001, 0.900000000000013, 10.5000000000000 ) );
#185 = DIRECTION( '', ( 0.000000000000000, 1.00000000000000, 0.000000000000000 ) );
#186 = DIRECTION( '', ( 0.000000000000000, -0.000000000000000, 1.00000000000000 ) );
#187 = SURFACE_STYLE_FILL_AREA( #283 );
#188 = ORIENTED_EDGE( '', *, *, #284, .T. );
#189 = ORIENTED_EDGE( '', *, *, #277, .T. );
#190 = ORIENTED_EDGE( '', *, *, #285, .F. );
#191 = ORIENTED_EDGE( '', *, *, #279, .T. );
#192 = CARTESIAN_POINT( '', ( 1.38777878078145E-14, 1.28618862942302E-14, 0.000000000000000 ) );
#193 = DIRECTION( '', ( 1.00000000000000, -6.12323399573677E-17, -0.000000000000000 ) );
#194 = DIRECTION( '', ( 6.12323399573677E-17, 1.00000000000000, 0.000000000000000 ) );
#195 = SURFACE_STYLE_FILL_AREA( #286 );
#196 = ORIENTED_EDGE( '', *, *, #284, .F. );
#197 = ORIENTED_EDGE( '', *, *, #278, .F. );
#198 = CARTESIAN_POINT( '', ( 1.40859407416890E-14, 1.28618862942302E-14, 0.000000000000000 ) );
#199 = DIRECTION( '', ( 1.00000000000000, -6.12323399573677E-17, -0.000000000000000 ) );
#200 = DIRECTION( '', ( 6.12323399573677E-17, 1.00000000000000, 0.000000000000000 ) );
#201 = SURFACE_STYLE_FILL_AREA( #287 );
#202 = ORIENTED_EDGE( '', *, *, #288, .T. );
#203 = ORIENTED_EDGE( '', *, *, #289, .T. );
#204 = ORIENTED_EDGE( '', *, *, #290, .T. );
#205 = ORIENTED_EDGE( '', *, *, #281, .T. );
#206 = CARTESIAN_POINT( '', ( 3.00000000000001, -0.000000000000000, -0.000000000000000 ) );
#207 = DIRECTION( '', ( -1.00000000000000, 0.000000000000000, 0.000000000000000 ) );
#208 = DIRECTION( '', ( 0.000000000000000, 0.000000000000000, 1.00000000000000 ) );
#209 = SURFACE_STYLE_FILL_AREA( #291 );
#210 = ORIENTED_EDGE( '', *, *, #292, .F. );
#211 = ORIENTED_EDGE( '', *, *, #293, .F. );
#212 = CARTESIAN_POINT( '', ( 1.40859407416890E-14, 1.28618862942302E-14, 0.000000000000000 ) );
#213 = DIRECTION( '', ( 1.00000000000000, -6.12323399573677E-17, -0.000000000000000 ) );
#214 = DIRECTION( '', ( 6.12323399573677E-17, 1.00000000000000, 0.000000000000000 ) );
#215 = SURFACE_STYLE_FILL_AREA( #294 );
#216 = ORIENTED_EDGE( '', *, *, #295, .F. );
#217 = ORIENTED_EDGE( '', *, *, #296, .T. );
#218 = ORIENTED_EDGE( '', *, *, #297, .T. );
#219 = ORIENTED_EDGE( '', *, *, #288, .F. );
#220 = ORIENTED_EDGE( '', *, *, #280, .T. );
#221 = ORIENTED_EDGE( '', *, *, #285, .T. );
#222 = ORIENTED_EDGE( '', *, *, #282, .T. );
#223 = ORIENTED_EDGE( '', *, *, #290, .F. );
#224 = ORIENTED_EDGE( '', *, *, #298, .T. );
#225 = CARTESIAN_POINT( '', ( 65.0000000000000, 8.88178419700125E-15, 0.000000000000000 ) );
#226 = DIRECTION( '', ( -1.00000000000000, 6.12323399573677E-17, 0.000000000000000 ) );
#227 = DIRECTION( '', ( 6.12323399573677E-17, 1.00000000000000, 0.000000000000000 ) );
#228 = SURFACE_STYLE_FILL_AREA( #299 );
#229 = ORIENTED_EDGE( '', *, *, #293, .T. );
#230 = ORIENTED_EDGE( '', *, *, #300, .F. );
#231 = ORIENTED_EDGE( '', *, *, #298, .F. );
#232 = ORIENTED_EDGE( '', *, *, #289, .F. );
#233 = ORIENTED_EDGE( '', *, *, #297, .F. );
#234 = ORIENTED_EDGE( '', *, *, #301, .F. );
#235 = CARTESIAN_POINT( '', ( 3.00000000000001, -0.899999999999987, -10.5000000000000 ) );
#236 = DIRECTION( '', ( 0.000000000000000, -1.00000000000000, 0.000000000000000 ) );
#237 = DIRECTION( '', ( 0.000000000000000, 0.000000000000000, -1.00000000000000 ) );
#238 = SURFACE_STYLE_FILL_AREA( #302 );
#239 = ORIENTED_EDGE( '', *, *, #303, .F. );
#240 = ORIENTED_EDGE( '', *, *, #304, .T. );
#241 = CARTESIAN_POINT( '', ( 65.0000000000000, 8.88178419700125E-15, 0.000000000000000 ) );
#242 = DIRECTION( '', ( -1.00000000000000, 6.12323399573677E-17, 0.000000000000000 ) );
#243 = DIRECTION( '', ( 6.12323399573677E-17, 1.00000000000000, 0.000000000000000 ) );
#244 = SURFACE_STYLE_FILL_AREA( #305 );
#245 = ORIENTED_EDGE( '', *, *, #306, .F. );
#246 = ORIENTED_EDGE( '', *, *, #295, .T. );
#247 = CARTESIAN_POINT( '', ( 56.0000000000000, 9.43287525661756E-15, 0.000000000000000 ) );
#248 = DIRECTION( '', ( -1.00000000000000, 6.12323399573677E-17, -0.000000000000000 ) );
#249 = DIRECTION( '', ( -6.12323399573677E-17, -1.00000000000000, 0.000000000000000 ) );
#250 = SURFACE_STYLE_FILL_AREA( #307 );
#251 = ORIENTED_EDGE( '', *, *, #308, .F. );
#252 = ORIENTED_EDGE( '', *, *, #306, .T. );
#253 = CARTESIAN_POINT( '', ( 65.0000000000000, 8.88178419700125E-15, 0.000000000000000 ) );
#254 = DIRECTION( '', ( -1.00000000000000, 6.12323399573677E-17, 0.000000000000000 ) );
#255 = DIRECTION( '', ( 6.12323399573677E-17, 1.00000000000000, 0.000000000000000 ) );
#256 = SURFACE_STYLE_FILL_AREA( #309 );
#257 = ORIENTED_EDGE( '', *, *, #304, .F. );
#258 = ORIENTED_EDGE( '', *, *, #308, .T. );
#259 = CARTESIAN_POINT( '', ( 60.5000000000000, 3.60000000000001, 0.000000000000000 ) );
#260 = DIRECTION( '', ( 1.00000000000000, -6.12323399573677E-17, -0.000000000000000 ) );
#261 = DIRECTION( '', ( 6.12323399573677E-17, 1.00000000000000, 0.000000000000000 ) );
#262 = SURFACE_STYLE_FILL_AREA( #310 );
#263 = VERTEX_POINT( '', #311 );
#264 = ORIENTED_EDGE( '', *, *, #303, .T. );
#265 = CARTESIAN_POINT( '', ( 58.2903999999999, -9.10729824887824E-15, 0.000000000000000 ) );
#266 = DIRECTION( '', ( 1.00000000000000, 0.000000000000000, 0.000000000000000 ) );
#267 = DIRECTION( '', ( 0.000000000000000, 1.00000000000000, 0.000000000000000 ) );
#268 = SURFACE_STYLE_FILL_AREA( #312 );
#269 = ORIENTED_EDGE( '', *, *, #296, .F. );
#270 = ORIENTED_EDGE( '', *, *, #300, .T. );
#271 = ORIENTED_EDGE( '', *, *, #292, .T. );
#272 = ORIENTED_EDGE( '', *, *, #301, .T. );
#273 = CARTESIAN_POINT( '', ( 1.38777878078145E-14, 1.28618862942302E-14, 0.000000000000000 ) );
#274 = DIRECTION( '', ( 1.00000000000000, -6.12323399573677E-17, -0.000000000000000 ) );
#275 = DIRECTION( '', ( 6.12323399573677E-17, 1.00000000000000, 0.000000000000000 ) );
#276 = FILL_AREA_STYLE( '', ( #313 ) );
#277 = EDGE_CURVE( '', #314, #315, #316, .T. );
#278 = EDGE_CURVE( '', #314, #317, #318, .T. );
#279 = EDGE_CURVE( '', #319, #317, #320, .T. );
#280 = EDGE_CURVE( '', #321, #319, #322, .F. );
#281 = EDGE_CURVE( '', #323, #321, #324, .T. );
#282 = EDGE_CURVE( '', #315, #323, #325, .T. );
#283 = FILL_AREA_STYLE( '', ( #326 ) );
#284 = EDGE_CURVE( '', #317, #314, #327, .T. );
#285 = EDGE_CURVE( '', #319, #315, #328, .T. );
#286 = FILL_AREA_STYLE( '', ( #329 ) );
#287 = FILL_AREA_STYLE( '', ( #330 ) );
#288 = EDGE_CURVE( '', #321, #331, #332, .T. );
#289 = EDGE_CURVE( '', #331, #333, #334, .T. );
#290 = EDGE_CURVE( '', #333, #323, #335, .T. );
#291 = FILL_AREA_STYLE( '', ( #336 ) );
#292 = EDGE_CURVE( '', #337, #338, #339, .T. );
#293 = EDGE_CURVE( '', #338, #337, #340, .T. );
#294 = FILL_AREA_STYLE( '', ( #341 ) );
#295 = EDGE_CURVE( '', #342, #342, #343, .T. );
#296 = EDGE_CURVE( '', #344, #345, #346, .T. );
#297 = EDGE_CURVE( '', #345, #331, #347, .T. );
#298 = EDGE_CURVE( '', #333, #344, #348, .F. );
#299 = FILL_AREA_STYLE( '', ( #349 ) );
#300 = EDGE_CURVE( '', #344, #337, #350, .T. );
#301 = EDGE_CURVE( '', #338, #345, #351, .T. );
#302 = FILL_AREA_STYLE( '', ( #352 ) );
#303 = EDGE_CURVE( '', #353, #353, #354, .T. );
#304 = EDGE_CURVE( '', #355, #355, #356, .T. );
#305 = FILL_AREA_STYLE( '', ( #357 ) );
#306 = EDGE_CURVE( '', #358, #358, #359, .T. );
#307 = FILL_AREA_STYLE( '', ( #360 ) );
#308 = EDGE_CURVE( '', #361, #361, #362, .T. );
#309 = FILL_AREA_STYLE( '', ( #363 ) );
#310 = FILL_AREA_STYLE( '', ( #364 ) );
#311 = CARTESIAN_POINT( '', ( 65.0000000000000, -9.10729824887824E-15, 0.000000000000000 ) );
#312 = FILL_AREA_STYLE( '', ( #365 ) );
#313 = FILL_AREA_STYLE_COLOUR( '', #366 );
#314 = VERTEX_POINT( '', #367 );
#315 = VERTEX_POINT( '', #368 );
#316 = B_SPLINE_CURVE_WITH_KNOTS( '', 3, ( #369, #370, #371, #372 ), .UNSPECIFIED., .F., .F., ( 4, 4 ), ( 0.0201757967681981, 0.0214894077203397 ), .UNSPECIFIED. );
#317 = VERTEX_POINT( '', #373 );
#318 = LINE( '', #374, #375 );
#319 = VERTEX_POINT( '', #376 );
#320 = B_SPLINE_CURVE_WITH_KNOTS( '', 3, ( #377, #378, #379, #380 ), .UNSPECIFIED., .F., .F., ( 4, 4 ), ( 0.00855302721908257, 0.00986748988713588 ), .UNSPECIFIED. );
#321 = VERTEX_POINT( '', #381 );
#322 = LINE( '', #382, #383 );
#323 = VERTEX_POINT( '', #384 );
#324 = LINE( '', #385, #386 );
#325 = LINE( '', #387, #388 );
#326 = FILL_AREA_STYLE_COLOUR( '', #389 );
#327 = CIRCLE( '', #390, 4.08000000000000 );
#328 = CIRCLE( '', #391, 5.00000000000000 );
#329 = FILL_AREA_STYLE_COLOUR( '', #392 );
#330 = FILL_AREA_STYLE_COLOUR( '', #393 );
#331 = VERTEX_POINT( '', #394 );
#332 = CIRCLE( '', #395, 5.00000000000000 );
#333 = VERTEX_POINT( '', #396 );
#334 = LINE( '', #397, #398 );
#335 = CIRCLE( '', #399, 5.00000000000000 );
#336 = FILL_AREA_STYLE_COLOUR( '', #400 );
#337 = VERTEX_POINT( '', #401 );
#338 = VERTEX_POINT( '', #402 );
#339 = CIRCLE( '', #403, 4.08000000000000 );
#340 = LINE( '', #404, #405 );
#341 = FILL_AREA_STYLE_COLOUR( '', #406 );
#342 = VERTEX_POINT( '', #407 );
#343 = CIRCLE( '', #408, 5.00000000000000 );
#344 = VERTEX_POINT( '', #409 );
#345 = VERTEX_POINT( '', #410 );
#346 = CIRCLE( '', #411, 5.00000000000000 );
#347 = LINE( '', #412, #413 );
#348 = LINE( '', #414, #415 );
#349 = FILL_AREA_STYLE_COLOUR( '', #416 );
#350 = B_SPLINE_CURVE_WITH_KNOTS( '', 3, ( #417, #418, #419, #420 ), .UNSPECIFIED., .F., .F., ( 4, 4 ), ( 0.00855302721908256, 0.00986748988713588 ), .UNSPECIFIED. );
#351 = B_SPLINE_CURVE_WITH_KNOTS( '', 3, ( #421, #422, #423, #424 ), .UNSPECIFIED., .F., .F., ( 4, 4 ), ( 0.0201757967681981, 0.0214894077203397 ), .UNSPECIFIED. );
#352 = FILL_AREA_STYLE_COLOUR( '', #425 );
#353 = VERTEX_POINT( '', #426 );
#354 = CIRCLE( '', #427, 4.00000000000000 );
#355 = VERTEX_POINT( '', #428 );
#356 = CIRCLE( '', #429, 4.00000000000000 );
#357 = FILL_AREA_STYLE_COLOUR( '', #430 );
#358 = VERTEX_POINT( '', #431 );
#359 = CIRCLE( '', #432, 3.60000000000000 );
#360 = FILL_AREA_STYLE_COLOUR( '', #433 );
#361 = VERTEX_POINT( '', #434 );
#362 = CIRCLE( '', #435, 3.60000000000000 );
#363 = FILL_AREA_STYLE_COLOUR( '', #436 );
#364 = FILL_AREA_STYLE_COLOUR( '', #437 );
#365 = FILL_AREA_STYLE_COLOUR( '', #438 );
#366 = COLOUR_RGB( '', 0.689999997600000, 0.689999997600000, 0.689999997600000 );
#367 = CARTESIAN_POINT( '', ( 1.42108547152020E-14, 0.900000000000013, 3.97949745570970 ) );
#368 = CARTESIAN_POINT( '', ( 0.920000000000018, 0.900000000000017, 4.91833305094317 ) );
#369 = CARTESIAN_POINT( '', ( 1.42917761689114E-14, 0.900000000000013, 3.97949745570970 ) );
#370 = CARTESIAN_POINT( '', ( 0.305938770650485, 0.900000000000013, 4.29316273584777 ) );
#371 = CARTESIAN_POINT( '', ( 0.612741841782430, 0.900000000000013, 4.60597299415659 ) );
#372 = CARTESIAN_POINT( '', ( 0.920000000000016, 0.900000000000013, 4.91833305094317 ) );
#373 = CARTESIAN_POINT( '', ( 1.42108547152020E-14, 0.900000000000013, -3.97949745570970 ) );
#374 = CARTESIAN_POINT( '', ( 1.42108547152020E-14, 0.900000000000013, 10.5000000000000 ) );
#375 = VECTOR( '', #439, 1000.00000000000 );
#376 = CARTESIAN_POINT( '', ( 0.920000000000018, 0.900000000000017, -4.91833305094317 ) );
#377 = CARTESIAN_POINT( '', ( 0.920000000000018, 0.900000000000013, -4.91833305094317 ) );
#378 = CARTESIAN_POINT( '', ( 0.612739261072136, 0.900000000000013, -4.60597037059464 ) );
#379 = CARTESIAN_POINT( '', ( 0.305935608496542, 0.900000000000013, -4.29315949383336 ) );
#380 = CARTESIAN_POINT( '', ( 1.49051969899573E-14, 0.900000000000013, -3.97949745570970 ) );
#381 = CARTESIAN_POINT( '', ( 3.00000000000002, 0.900000000000013, -4.91833305094317 ) );
#382 = CARTESIAN_POINT( '', ( 65.0000000000000, 0.900000000000013, -4.91833305094317 ) );
#383 = VECTOR( '', #440, 1000.00000000000 );
#384 = CARTESIAN_POINT( '', ( 3.00000000000002, 0.900000000000013, 4.91833305094317 ) );
#385 = CARTESIAN_POINT( '', ( 3.00000000000001, 0.900000000000013, 10.5000000000000 ) );
#386 = VECTOR( '', #441, 1000.00000000000 );
#387 = CARTESIAN_POINT( '', ( 65.0000000000000, 0.900000000000013, 4.91833305094317 ) );
#388 = VECTOR( '', #442, 1000.00000000000 );
#389 = COLOUR_RGB( '', 0.689999997600000, 0.689999997600000, 0.689999997600000 );
#390 = AXIS2_PLACEMENT_3D( '', #443, #444, #445 );
#391 = AXIS2_PLACEMENT_3D( '', #446, #447, #448 );
#392 = COLOUR_RGB( '', 0.689999997600000, 0.689999997600000, 0.689999997600000 );
#393 = COLOUR_RGB( '', 0.689999997600000, 0.689999997600000, 0.689999997600000 );
#394 = CARTESIAN_POINT( '', ( 3.00000000000002, -0.899999999999987, -4.91833305094317 ) );
#395 = AXIS2_PLACEMENT_3D( '', #449, #450, #451 );
#396 = CARTESIAN_POINT( '', ( 3.00000000000002, -0.899999999999987, 4.91833305094317 ) );
#397 = CARTESIAN_POINT( '', ( 3.00000000000001, -0.899999999999987, -10.5000000000000 ) );
#398 = VECTOR( '', #452, 1000.00000000000 );
#399 = AXIS2_PLACEMENT_3D( '', #453, #454, #455 );
#400 = COLOUR_RGB( '', 0.689999997600000, 0.689999997600000, 0.689999997600000 );
#401 = CARTESIAN_POINT( '', ( 1.42108547152020E-14, -0.899999999999987, 3.97949745570970 ) );
#402 = CARTESIAN_POINT( '', ( 1.42108547152020E-14, -0.899999999999987, -3.97949745570970 ) );
#403 = AXIS2_PLACEMENT_3D( '', #456, #457, #458 );
#404 = CARTESIAN_POINT( '', ( 1.42108547152020E-14, -0.899999999999987, -10.5000000000000 ) );
#405 = VECTOR( '', #459, 1000.00000000000 );
#406 = COLOUR_RGB( '', 0.689999997600000, 0.689999997600000, 0.689999997600000 );
#407 = CARTESIAN_POINT( '', ( 56.0000000000000, 5.00000000000001, 0.000000000000000 ) );
#408 = AXIS2_PLACEMENT_3D( '', #460, #461, #462 );
#409 = CARTESIAN_POINT( '', ( 0.920000000000018, -0.899999999999983, 4.91833305094317 ) );
#410 = CARTESIAN_POINT( '', ( 0.920000000000018, -0.899999999999983, -4.91833305094317 ) );
#411 = AXIS2_PLACEMENT_3D( '', #463, #464, #465 );
#412 = CARTESIAN_POINT( '', ( 65.0000000000000, -0.899999999999987, -4.91833305094317 ) );
#413 = VECTOR( '', #466, 1000.00000000000 );
#414 = CARTESIAN_POINT( '', ( 65.0000000000000, -0.899999999999987, 4.91833305094317 ) );
#415 = VECTOR( '', #467, 1000.00000000000 );
#416 = COLOUR_RGB( '', 0.689999997600000, 0.689999997600000, 0.689999997600000 );
#417 = CARTESIAN_POINT( '', ( 0.920000000000018, -0.899999999999987, 4.91833305094317 ) );
#418 = CARTESIAN_POINT( '', ( 0.612739261072135, -0.899999999999987, 4.60597037059464 ) );
#419 = CARTESIAN_POINT( '', ( 0.305935608496540, -0.899999999999987, 4.29315949383336 ) );
#420 = CARTESIAN_POINT( '', ( 1.22434683176157E-14, -0.899999999999987, 3.97949745570970 ) );
#421 = CARTESIAN_POINT( '', ( 1.37949482414820E-14, -0.899999999999987, -3.97949745570970 ) );
#422 = CARTESIAN_POINT( '', ( 0.305938770650485, -0.899999999999987, -4.29316273584777 ) );
#423 = CARTESIAN_POINT( '', ( 0.612741841782431, -0.899999999999987, -4.60597299415659 ) );
#424 = CARTESIAN_POINT( '', ( 0.920000000000019, -0.899999999999987, -4.91833305094317 ) );
#425 = COLOUR_RGB( '', 0.689999997600000, 0.689999997600000, 0.689999997600000 );
#426 = CARTESIAN_POINT( '', ( 63.6773037637589, 4.00000000000001, 0.000000000000000 ) );
#427 = AXIS2_PLACEMENT_3D( '', #468, #469, #470 );
#428 = CARTESIAN_POINT( '', ( 60.5000000000000, 4.00000000000001, 0.000000000000000 ) );
#429 = AXIS2_PLACEMENT_3D( '', #471, #472, #473 );
#430 = COLOUR_RGB( '', 0.689999997600000, 0.689999997600000, 0.689999997600000 );
#431 = CARTESIAN_POINT( '', ( 56.8660700000000, 3.60000000000001, 0.000000000000000 ) );
#432 = AXIS2_PLACEMENT_3D( '', #474, #475, #476 );
#433 = COLOUR_RGB( '', 0.689999997600000, 0.689999997600000, 0.689999997600000 );
#434 = CARTESIAN_POINT( '', ( 60.5000000000000, 3.60000000000001, 0.000000000000000 ) );
#435 = AXIS2_PLACEMENT_3D( '', #477, #478, #479 );
#436 = COLOUR_RGB( '', 0.689999997600000, 0.689999997600000, 0.689999997600000 );
#437 = COLOUR_RGB( '', 0.689999997600000, 0.689999997600000, 0.689999997600000 );
#438 = COLOUR_RGB( '', 0.689999997600000, 0.689999997600000, 0.689999997600000 );
#439 = DIRECTION( '', ( 0.000000000000000, 0.000000000000000, -1.00000000000000 ) );
#440 = DIRECTION( '', ( 1.00000000000000, -6.12323399573677E-17, -0.000000000000000 ) );
#441 = DIRECTION( '', ( 0.000000000000000, 0.000000000000000, -1.00000000000000 ) );
#442 = DIRECTION( '', ( 1.00000000000000, -6.12323399573677E-17, -0.000000000000000 ) );
#443 = CARTESIAN_POINT( '', ( 1.38777878078145E-14, 1.28618862942302E-14, 0.000000000000000 ) );
#444 = DIRECTION( '', ( 1.00000000000000, -6.12323399573677E-17, -0.000000000000000 ) );
#445 = DIRECTION( '', ( 6.12323399573677E-17, 1.00000000000000, 0.000000000000000 ) );
#446 = CARTESIAN_POINT( '', ( 0.920000000000018, 1.28055525414694E-14, 0.000000000000000 ) );
#447 = DIRECTION( '', ( 1.00000000000000, -6.12323399573677E-17, -0.000000000000000 ) );
#448 = DIRECTION( '', ( 6.12323399573677E-17, 1.00000000000000, 0.000000000000000 ) );
#449 = CARTESIAN_POINT( '', ( 3.00000000000002, 1.26781892743580E-14, 0.000000000000000 ) );
#450 = DIRECTION( '', ( -1.00000000000000, 0.000000000000000, 0.000000000000000 ) );
#451 = DIRECTION( '', ( 0.000000000000000, 0.000000000000000, 1.00000000000000 ) );
#452 = DIRECTION( '', ( 0.000000000000000, 0.000000000000000, 1.00000000000000 ) );
#453 = CARTESIAN_POINT( '', ( 3.00000000000002, 1.26781892743580E-14, 0.000000000000000 ) );
#454 = DIRECTION( '', ( -1.00000000000000, 0.000000000000000, 0.000000000000000 ) );
#455 = DIRECTION( '', ( 0.000000000000000, 0.000000000000000, 1.00000000000000 ) );
#456 = CARTESIAN_POINT( '', ( 1.38777878078145E-14, 1.28618862942302E-14, 0.000000000000000 ) );
#457 = DIRECTION( '', ( 1.00000000000000, -6.12323399573677E-17, -0.000000000000000 ) );
#458 = DIRECTION( '', ( 6.12323399573677E-17, 1.00000000000000, 0.000000000000000 ) );
#459 = DIRECTION( '', ( 0.000000000000000, 0.000000000000000, 1.00000000000000 ) );
#460 = CARTESIAN_POINT( '', ( 56.0000000000000, 9.43287525661756E-15, 0.000000000000000 ) );
#461 = DIRECTION( '', ( 1.00000000000000, -6.12323399573677E-17, -0.000000000000000 ) );
#462 = DIRECTION( '', ( 6.12323399573677E-17, 1.00000000000000, 0.000000000000000 ) );
#463 = CARTESIAN_POINT( '', ( 0.920000000000018, 1.28055525414694E-14, 0.000000000000000 ) );
#464 = DIRECTION( '', ( 1.00000000000000, -6.12323399573677E-17, -0.000000000000000 ) );
#465 = DIRECTION( '', ( 6.12323399573677E-17, 1.00000000000000, 0.000000000000000 ) );
#466 = DIRECTION( '', ( 1.00000000000000, -6.12323399573677E-17, -0.000000000000000 ) );
#467 = DIRECTION( '', ( 1.00000000000000, -6.12323399573677E-17, -0.000000000000000 ) );
#468 = CARTESIAN_POINT( '', ( 63.6773037637589, 8.96277598259910E-15, 0.000000000000000 ) );
#469 = DIRECTION( '', ( 1.00000000000000, -6.12323399573677E-17, -0.000000000000000 ) );
#470 = DIRECTION( '', ( 6.12323399573677E-17, 1.00000000000000, 0.000000000000000 ) );
#471 = CARTESIAN_POINT( '', ( 60.5000000000000, 9.15732972680941E-15, 0.000000000000000 ) );
#472 = DIRECTION( '', ( 1.00000000000000, -6.12323399573677E-17, -0.000000000000000 ) );
#473 = DIRECTION( '', ( 6.12323399573677E-17, 1.00000000000000, 0.000000000000000 ) );
#474 = CARTESIAN_POINT( '', ( 56.8660700000000, 9.37984376395068E-15, 0.000000000000000 ) );
#475 = DIRECTION( '', ( 1.00000000000000, -6.12323399573677E-17, -0.000000000000000 ) );
#476 = DIRECTION( '', ( 6.12323399573677E-17, 1.00000000000000, 0.000000000000000 ) );
#477 = CARTESIAN_POINT( '', ( 60.5000000000000, 9.15732972680941E-15, 0.000000000000000 ) );
#478 = DIRECTION( '', ( 1.00000000000000, -6.12323399573677E-17, -0.000000000000000 ) );
#479 = DIRECTION( '', ( 6.12323399573677E-17, 1.00000000000000, 0.000000000000000 ) );
ENDSEC;
END-ISO-10303-21;
