ISO-10303-21;
HEADER;
FILE_DESCRIPTION( ( 'STEP AP214' ), '1' );
FILE_NAME( '//goodhand-server/Shared Folders/GoodHand Data/Kipp CAD/K0163/K0163.1200X18.stp', '2020-11-26T10:29:52', ( '' ), ( '' ), ' ', 'PARTsolutions', ' ' );
FILE_SCHEMA( ( 'AUTOMOTIVE_DESIGN { 1 0 10303 214 1 1 1 1 }' ) );
ENDSEC;
DATA;
#1 = MECHANICAL_DESIGN_GEOMETRIC_PRESENTATION_REPRESENTATION( ' ', ( #10, #11, #12, #13, #14, #15, #16, #17, #18, #19, #20, #21, #22, #23, #24 ), #6 );
#2 = PRODUCT_DEFINITION_CONTEXT( '', #25, 'design' );
#3 = APPLICATION_PROTOCOL_DEFINITION( 'international standard', 'automotive_design', 2001, #25 );
#4 = PRODUCT_CATEGORY_RELATIONSHIP( 'NONE', 'NONE', #26, #27 );
#5 = SHAPE_DEFINITION_REPRESENTATION( #28, #29 );
#6 =  ( GEOMETRIC_REPRESENTATION_CONTEXT( 3 )GLOBAL_UNCERTAINTY_ASSIGNED_CONTEXT( ( #32 ) )GLOBAL_UNIT_ASSIGNED_CONTEXT( ( #34, #35, #36 ) )REPRESENTATION_CONTEXT( 'NONE', 'WORKSPACE' ) );
#10 = STYLED_ITEM( '', ( #38 ), #39 );
#11 = STYLED_ITEM( '', ( #40 ), #41 );
#12 = STYLED_ITEM( '', ( #42 ), #43 );
#13 = STYLED_ITEM( '', ( #44 ), #45 );
#14 = STYLED_ITEM( '', ( #46 ), #47 );
#15 = STYLED_ITEM( '', ( #48 ), #49 );
#16 = STYLED_ITEM( '', ( #50 ), #51 );
#17 = STYLED_ITEM( '', ( #52 ), #53 );
#18 = STYLED_ITEM( '', ( #54 ), #55 );
#19 = STYLED_ITEM( '', ( #56 ), #57 );
#20 = STYLED_ITEM( '', ( #58 ), #59 );
#21 = STYLED_ITEM( '', ( #60 ), #61 );
#22 = STYLED_ITEM( '', ( #62 ), #63 );
#23 = STYLED_ITEM( '', ( #64 ), #65 );
#24 = STYLED_ITEM( '', ( #66 ), #67 );
#25 = APPLICATION_CONTEXT( 'core data for automotive mechanical design processes' );
#26 = PRODUCT_CATEGORY( 'part', 'NONE' );
#27 = PRODUCT_RELATED_PRODUCT_CATEGORY( 'detail', ' ', ( #68 ) );
#28 = PRODUCT_DEFINITION_SHAPE( 'NONE', 'NONE', #69 );
#29 = ADVANCED_BREP_SHAPE_REPRESENTATION( '_K0163.1200X18', ( #70, #71 ), #6 );
#32 = UNCERTAINTY_MEASURE_WITH_UNIT( LENGTH_MEASURE( 0.00100000000000000 ), #34, '', '' );
#34 =  ( CONVERSION_BASED_UNIT( 'MILLIMETRE', #74 )LENGTH_UNIT(  )NAMED_UNIT( #77 ) );
#35 =  ( NAMED_UNIT( #79 )PLANE_ANGLE_UNIT(  )SI_UNIT( $, .RADIAN. ) );
#36 =  ( NAMED_UNIT( #79 )SI_UNIT( $, .STERADIAN. )SOLID_ANGLE_UNIT(  ) );
#38 = PRESENTATION_STYLE_ASSIGNMENT( ( #85 ) );
#39 = ADVANCED_FACE( '', ( #86 ), #87, .T. );
#40 = PRESENTATION_STYLE_ASSIGNMENT( ( #88 ) );
#41 = ADVANCED_FACE( '', ( #89, #90 ), #91, .F. );
#42 = PRESENTATION_STYLE_ASSIGNMENT( ( #92 ) );
#43 = ADVANCED_FACE( '', ( #93, #94 ), #95, .T. );
#44 = PRESENTATION_STYLE_ASSIGNMENT( ( #96 ) );
#45 = ADVANCED_FACE( '', ( #97 ), #98, .F. );
#46 = PRESENTATION_STYLE_ASSIGNMENT( ( #99 ) );
#47 = ADVANCED_FACE( '', ( #100, #101 ), #102, .T. );
#48 = PRESENTATION_STYLE_ASSIGNMENT( ( #103 ) );
#49 = ADVANCED_FACE( '', ( #104, #105 ), #106, .F. );
#50 = PRESENTATION_STYLE_ASSIGNMENT( ( #107 ) );
#51 = ADVANCED_FACE( '', ( #108 ), #109, .T. );
#52 = PRESENTATION_STYLE_ASSIGNMENT( ( #110 ) );
#53 = ADVANCED_FACE( '', ( #111, #112 ), #113, .F. );
#54 = PRESENTATION_STYLE_ASSIGNMENT( ( #114 ) );
#55 = ADVANCED_FACE( '', ( #115 ), #116, .T. );
#56 = PRESENTATION_STYLE_ASSIGNMENT( ( #117 ) );
#57 = ADVANCED_FACE( '', ( #118, #119, #120 ), #121, .T. );
#58 = PRESENTATION_STYLE_ASSIGNMENT( ( #122 ) );
#59 = ADVANCED_FACE( '', ( #123, #124 ), #125, .T. );
#60 = PRESENTATION_STYLE_ASSIGNMENT( ( #126 ) );
#61 = ADVANCED_FACE( '', ( #127, #128 ), #129, .F. );
#62 = PRESENTATION_STYLE_ASSIGNMENT( ( #130 ) );
#63 = ADVANCED_FACE( '', ( #131, #132 ), #133, .F. );
#64 = PRESENTATION_STYLE_ASSIGNMENT( ( #134 ) );
#65 = ADVANCED_FACE( '', ( #135, #136 ), #137, .T. );
#66 = PRESENTATION_STYLE_ASSIGNMENT( ( #138 ) );
#67 = ADVANCED_FACE( '', ( #139, #140 ), #141, .F. );
#68 = PRODUCT( '_K0163.1200X18', '_K0163.1200X18', 'PART-_K0163.1200X18-DESC', ( #142 ) );
#69 = PRODUCT_DEFINITION( 'NONE', 'NONE', #143, #2 );
#70 = MANIFOLD_SOLID_BREP( '_K0163.1200X18', #144 );
#71 = AXIS2_PLACEMENT_3D( '', #145, #146, #147 );
#74 = LENGTH_MEASURE_WITH_UNIT( LENGTH_MEASURE( 1.00000000000000 ), #148 );
#77 = DIMENSIONAL_EXPONENTS( 1.00000000000000, 0.000000000000000, 0.000000000000000, 0.000000000000000, 0.000000000000000, 0.000000000000000, 0.000000000000000 );
#79 = DIMENSIONAL_EXPONENTS( 0.000000000000000, 0.000000000000000, 0.000000000000000, 0.000000000000000, 0.000000000000000, 0.000000000000000, 0.000000000000000 );
#85 = SURFACE_STYLE_USAGE( .BOTH., #149 );
#86 = FACE_OUTER_BOUND( '', #150, .T. );
#87 = PLANE( '', #151 );
#88 = SURFACE_STYLE_USAGE( .BOTH., #152 );
#89 = FACE_BOUND( '', #153, .T. );
#90 = FACE_OUTER_BOUND( '', #154, .T. );
#91 = PLANE( '', #155 );
#92 = SURFACE_STYLE_USAGE( .BOTH., #156 );
#93 = FACE_OUTER_BOUND( '', #157, .T. );
#94 = FACE_OUTER_BOUND( '', #158, .T. );
#95 = TOROIDAL_SURFACE( '', #159, 90.0349341703000, 20.0000000000000 );
#96 = SURFACE_STYLE_USAGE( .BOTH., #160 );
#97 = FACE_OUTER_BOUND( '', #161, .T. );
#98 = CYLINDRICAL_SURFACE( '', #162, 9.00000000000000 );
#99 = SURFACE_STYLE_USAGE( .BOTH., #163 );
#100 = FACE_OUTER_BOUND( '', #164, .T. );
#101 = FACE_OUTER_BOUND( '', #165, .T. );
#102 = CYLINDRICAL_SURFACE( '', #166, 20.0000000000000 );
#103 = SURFACE_STYLE_USAGE( .BOTH., #167 );
#104 = FACE_BOUND( '', #168, .T. );
#105 = FACE_OUTER_BOUND( '', #169, .T. );
#106 = CONICAL_SURFACE( '', #170, 86.5000000000000, 0.481751705800000 );
#107 = SURFACE_STYLE_USAGE( .BOTH., #171 );
#108 = FACE_OUTER_BOUND( '', #172, .T. );
#109 = PLANE( '', #173 );
#110 = SURFACE_STYLE_USAGE( .BOTH., #174 );
#111 = FACE_OUTER_BOUND( '', #175, .T. );
#112 = FACE_BOUND( '', #176, .T. );
#113 = PLANE( '', #177 );
#114 = SURFACE_STYLE_USAGE( .BOTH., #178 );
#115 = FACE_OUTER_BOUND( '', #179, .T. );
#116 = PLANE( '', #180 );
#117 = SURFACE_STYLE_USAGE( .BOTH., #181 );
#118 = FACE_BOUND( '', #182, .T. );
#119 = FACE_OUTER_BOUND( '', #183, .T. );
#120 = FACE_OUTER_BOUND( '', #184, .T. );
#121 = TOROIDAL_SURFACE( '', #185, 88.2500000000000, 11.7500000000000 );
#122 = SURFACE_STYLE_USAGE( .BOTH., #186 );
#123 = FACE_BOUND( '', #187, .T. );
#124 = FACE_OUTER_BOUND( '', #188, .T. );
#125 = CONICAL_SURFACE( '', #189, 78.0000000000000, 1.35852583110000 );
#126 = SURFACE_STYLE_USAGE( .BOTH., #190 );
#127 = FACE_BOUND( '', #191, .T. );
#128 = FACE_OUTER_BOUND( '', #192, .T. );
#129 = CONICAL_SURFACE( '', #193, 85.0000000000000, 1.10714871780000 );
#130 = SURFACE_STYLE_USAGE( .BOTH., #194 );
#131 = FACE_OUTER_BOUND( '', #195, .T. );
#132 = FACE_BOUND( '', #196, .T. );
#133 = CONICAL_SURFACE( '', #197, 85.5000000000000, 0.472698778500000 );
#134 = SURFACE_STYLE_USAGE( .BOTH., #198 );
#135 = FACE_OUTER_BOUND( '', #199, .T. );
#136 = FACE_OUTER_BOUND( '', #200, .T. );
#137 = CYLINDRICAL_SURFACE( '', #201, 20.0000000000000 );
#138 = SURFACE_STYLE_USAGE( .BOTH., #202 );
#139 = FACE_OUTER_BOUND( '', #203, .T. );
#140 = FACE_BOUND( '', #204, .T. );
#141 = CONICAL_SURFACE( '', #205, 20.0000000000000, 1.34813538620000 );
#142 = PRODUCT_CONTEXT( '', #25, 'mechanical' );
#143 = PRODUCT_DEFINITION_FORMATION_WITH_SPECIFIED_SOURCE( ' ', 'NONE', #68, .NOT_KNOWN. );
#144 = CLOSED_SHELL( '', ( #53, #55, #39, #45, #51, #41, #47, #59, #61, #49, #57, #63, #43, #67, #65 ) );
#145 = CARTESIAN_POINT( '', ( 0.000000000000000, 0.000000000000000, 0.000000000000000 ) );
#146 = DIRECTION( '', ( 0.000000000000000, 0.000000000000000, 1.00000000000000 ) );
#147 = DIRECTION( '', ( 1.00000000000000, 0.000000000000000, 0.000000000000000 ) );
#148 =  ( LENGTH_UNIT(  )NAMED_UNIT( #77 )SI_UNIT( .MILLI., .METRE. ) );
#149 = SURFACE_SIDE_STYLE( '', ( #207 ) );
#150 = EDGE_LOOP( '', ( #208, #209, #210, #211 ) );
#151 = AXIS2_PLACEMENT_3D( '', #212, #213, #214 );
#152 = SURFACE_SIDE_STYLE( '', ( #215 ) );
#153 = EDGE_LOOP( '', ( #216, #217, #218, #219 ) );
#154 = EDGE_LOOP( '', ( #220 ) );
#155 = AXIS2_PLACEMENT_3D( '', #221, #222, #223 );
#156 = SURFACE_SIDE_STYLE( '', ( #224 ) );
#157 = EDGE_LOOP( '', ( #225 ) );
#158 = EDGE_LOOP( '', ( #226 ) );
#159 = AXIS2_PLACEMENT_3D( '', #227, #228, #229 );
#160 = SURFACE_SIDE_STYLE( '', ( #230 ) );
#161 = EDGE_LOOP( '', ( #231, #232, #233, #234 ) );
#162 = AXIS2_PLACEMENT_3D( '', #235, #236, #237 );
#163 = SURFACE_SIDE_STYLE( '', ( #238 ) );
#164 = EDGE_LOOP( '', ( #239 ) );
#165 = EDGE_LOOP( '', ( #240 ) );
#166 = AXIS2_PLACEMENT_3D( '', #241, #242, #243 );
#167 = SURFACE_SIDE_STYLE( '', ( #244 ) );
#168 = EDGE_LOOP( '', ( #245 ) );
#169 = EDGE_LOOP( '', ( #246 ) );
#170 = AXIS2_PLACEMENT_3D( '', #247, #248, #249 );
#171 = SURFACE_SIDE_STYLE( '', ( #250 ) );
#172 = EDGE_LOOP( '', ( #251, #252, #253, #254 ) );
#173 = AXIS2_PLACEMENT_3D( '', #255, #256, #257 );
#174 = SURFACE_SIDE_STYLE( '', ( #258 ) );
#175 = EDGE_LOOP( '', ( #259 ) );
#176 = EDGE_LOOP( '', ( #260, #261, #262, #263 ) );
#177 = AXIS2_PLACEMENT_3D( '', #264, #265, #266 );
#178 = SURFACE_SIDE_STYLE( '', ( #267 ) );
#179 = EDGE_LOOP( '', ( #268, #269, #270, #271 ) );
#180 = AXIS2_PLACEMENT_3D( '', #272, #273, #274 );
#181 = SURFACE_SIDE_STYLE( '', ( #275 ) );
#182 = VERTEX_LOOP( '', #276 );
#183 = EDGE_LOOP( '', ( #277 ) );
#184 = EDGE_LOOP( '', ( #278 ) );
#185 = AXIS2_PLACEMENT_3D( '', #279, #280, #281 );
#186 = SURFACE_SIDE_STYLE( '', ( #282 ) );
#187 = EDGE_LOOP( '', ( #283 ) );
#188 = EDGE_LOOP( '', ( #284 ) );
#189 = AXIS2_PLACEMENT_3D( '', #285, #286, #287 );
#190 = SURFACE_SIDE_STYLE( '', ( #288 ) );
#191 = EDGE_LOOP( '', ( #289 ) );
#192 = EDGE_LOOP( '', ( #290 ) );
#193 = AXIS2_PLACEMENT_3D( '', #291, #292, #293 );
#194 = SURFACE_SIDE_STYLE( '', ( #294 ) );
#195 = EDGE_LOOP( '', ( #295 ) );
#196 = EDGE_LOOP( '', ( #296 ) );
#197 = AXIS2_PLACEMENT_3D( '', #297, #298, #299 );
#198 = SURFACE_SIDE_STYLE( '', ( #300 ) );
#199 = EDGE_LOOP( '', ( #301 ) );
#200 = EDGE_LOOP( '', ( #302 ) );
#201 = AXIS2_PLACEMENT_3D( '', #303, #304, #305 );
#202 = SURFACE_SIDE_STYLE( '', ( #306 ) );
#203 = EDGE_LOOP( '', ( #307 ) );
#204 = EDGE_LOOP( '', ( #308 ) );
#205 = AXIS2_PLACEMENT_3D( '', #309, #310, #311 );
#207 = SURFACE_STYLE_FILL_AREA( #312 );
#208 = ORIENTED_EDGE( '', *, *, #313, .T. );
#209 = ORIENTED_EDGE( '', *, *, #314, .T. );
#210 = ORIENTED_EDGE( '', *, *, #315, .F. );
#211 = ORIENTED_EDGE( '', *, *, #316, .F. );
#212 = CARTESIAN_POINT( '', ( 36.0000000000000, 8.48528137423857, -3.00000000000000 ) );
#213 = DIRECTION( '', ( 0.000000000000000, -2.09335834721515E-15, 1.00000000000000 ) );
#214 = DIRECTION( '', ( 0.000000000000000, -1.00000000000000, -2.09335834721515E-15 ) );
#215 = SURFACE_STYLE_FILL_AREA( #317 );
#216 = ORIENTED_EDGE( '', *, *, #318, .T. );
#217 = ORIENTED_EDGE( '', *, *, #319, .F. );
#218 = ORIENTED_EDGE( '', *, *, #315, .T. );
#219 = ORIENTED_EDGE( '', *, *, #320, .T. );
#220 = ORIENTED_EDGE( '', *, *, #321, .T. );
#221 = CARTESIAN_POINT( '', ( 8.67361737988404E-16, -20.0000000000000, 0.000000000000000 ) );
#222 = DIRECTION( '', ( 1.00000000000000, 0.000000000000000, 0.000000000000000 ) );
#223 = DIRECTION( '', ( 0.000000000000000, 0.000000000000000, -1.00000000000000 ) );
#224 = SURFACE_STYLE_FILL_AREA( #322 );
#225 = ORIENTED_EDGE( '', *, *, #323, .T. );
#226 = ORIENTED_EDGE( '', *, *, #324, .F. );
#227 = CARTESIAN_POINT( '', ( 21.5209247634560, 0.000000000000000, 0.000000000000000 ) );
#228 = DIRECTION( '', ( -1.00000000000000, 0.000000000000000, 0.000000000000000 ) );
#229 = DIRECTION( '', ( 0.000000000000000, 0.000000000000000, 1.00000000000000 ) );
#230 = SURFACE_STYLE_FILL_AREA( #325 );
#231 = ORIENTED_EDGE( '', *, *, #326, .T. );
#232 = ORIENTED_EDGE( '', *, *, #316, .T. );
#233 = ORIENTED_EDGE( '', *, *, #319, .T. );
#234 = ORIENTED_EDGE( '', *, *, #327, .F. );
#235 = CARTESIAN_POINT( '', ( 36.0000000000000, -8.13151629364128E-16, -4.98732999343332E-15 ) );
#236 = DIRECTION( '', ( 1.00000000000000, -0.000000000000000, -0.000000000000000 ) );
#237 = DIRECTION( '', ( 0.000000000000000, 0.000000000000000, 1.00000000000000 ) );
#238 = SURFACE_STYLE_FILL_AREA( #328 );
#239 = ORIENTED_EDGE( '', *, *, #321, .F. );
#240 = ORIENTED_EDGE( '', *, *, #329, .T. );
#241 = CARTESIAN_POINT( '', ( 0.000000000000000, 0.000000000000000, 0.000000000000000 ) );
#242 = DIRECTION( '', ( 1.00000000000000, -0.000000000000000, -0.000000000000000 ) );
#243 = DIRECTION( '', ( 0.000000000000000, 0.000000000000000, 1.00000000000000 ) );
#244 = SURFACE_STYLE_FILL_AREA( #330 );
#245 = ORIENTED_EDGE( '', *, *, #331, .F. );
#246 = ORIENTED_EDGE( '', *, *, #332, .T. );
#247 = CARTESIAN_POINT( '', ( 20.6310499613777, 0.000000000000000, 0.000000000000000 ) );
#248 = DIRECTION( '', ( -1.00000000000000, -0.000000000000000, -0.000000000000000 ) );
#249 = DIRECTION( '', ( 0.000000000000000, 0.000000000000000, 1.00000000000000 ) );
#250 = SURFACE_STYLE_FILL_AREA( #333 );
#251 = ORIENTED_EDGE( '', *, *, #334, .T. );
#252 = ORIENTED_EDGE( '', *, *, #327, .T. );
#253 = ORIENTED_EDGE( '', *, *, #318, .F. );
#254 = ORIENTED_EDGE( '', *, *, #335, .F. );
#255 = CARTESIAN_POINT( '', ( 36.0000000000000, 11.8000000000000, 3.00000000000000 ) );
#256 = DIRECTION( '', ( 0.000000000000000, 0.000000000000000, -1.00000000000000 ) );
#257 = DIRECTION( '', ( -1.00000000000000, 0.000000000000000, 0.000000000000000 ) );
#258 = SURFACE_STYLE_FILL_AREA( #336 );
#259 = ORIENTED_EDGE( '', *, *, #337, .F. );
#260 = ORIENTED_EDGE( '', *, *, #334, .F. );
#261 = ORIENTED_EDGE( '', *, *, #338, .F. );
#262 = ORIENTED_EDGE( '', *, *, #313, .F. );
#263 = ORIENTED_EDGE( '', *, *, #326, .F. );
#264 = CARTESIAN_POINT( '', ( 24.0000000000000, 0.000000000000000, 0.000000000000000 ) );
#265 = DIRECTION( '', ( -1.00000000000000, 0.000000000000000, 0.000000000000000 ) );
#266 = DIRECTION( '', ( 0.000000000000000, 0.000000000000000, 1.00000000000000 ) );
#267 = SURFACE_STYLE_FILL_AREA( #339 );
#268 = ORIENTED_EDGE( '', *, *, #338, .T. );
#269 = ORIENTED_EDGE( '', *, *, #335, .T. );
#270 = ORIENTED_EDGE( '', *, *, #320, .F. );
#271 = ORIENTED_EDGE( '', *, *, #314, .F. );
#272 = CARTESIAN_POINT( '', ( 36.0000000000000, 11.8000000000000, -2.99999999999999 ) );
#273 = DIRECTION( '', ( 0.000000000000000, -1.00000000000000, 0.000000000000000 ) );
#274 = DIRECTION( '', ( 0.000000000000000, 0.000000000000000, -1.00000000000000 ) );
#275 = SURFACE_STYLE_FILL_AREA( #340 );
#276 = VERTEX_POINT( '', #341 );
#277 = ORIENTED_EDGE( '', *, *, #342, .T. );
#278 = ORIENTED_EDGE( '', *, *, #332, .F. );
#279 = CARTESIAN_POINT( '', ( 32.2500000000000, 0.000000000000000, 0.000000000000000 ) );
#280 = DIRECTION( '', ( -1.00000000000000, 0.000000000000000, 0.000000000000000 ) );
#281 = DIRECTION( '', ( 0.000000000000000, 0.000000000000000, 1.00000000000000 ) );
#282 = SURFACE_STYLE_FILL_AREA( #343 );
#283 = ORIENTED_EDGE( '', *, *, #329, .F. );
#284 = ORIENTED_EDGE( '', *, *, #344, .T. );
#285 = CARTESIAN_POINT( '', ( 27.0000000000000, 0.000000000000000, 0.000000000000000 ) );
#286 = DIRECTION( '', ( 1.00000000000000, -0.000000000000000, 0.000000000000000 ) );
#287 = DIRECTION( '', ( 0.000000000000000, 0.000000000000000, -1.00000000000000 ) );
#288 = SURFACE_STYLE_FILL_AREA( #345 );
#289 = ORIENTED_EDGE( '', *, *, #344, .F. );
#290 = ORIENTED_EDGE( '', *, *, #331, .T. );
#291 = CARTESIAN_POINT( '', ( 23.5000000000000, 0.000000000000000, 0.000000000000000 ) );
#292 = DIRECTION( '', ( -1.00000000000000, -0.000000000000000, -0.000000000000000 ) );
#293 = DIRECTION( '', ( 0.000000000000000, 0.000000000000000, 1.00000000000000 ) );
#294 = SURFACE_STYLE_FILL_AREA( #346 );
#295 = ORIENTED_EDGE( '', *, *, #342, .F. );
#296 = ORIENTED_EDGE( '', *, *, #324, .T. );
#297 = CARTESIAN_POINT( '', ( 41.0000000000000, 0.000000000000000, 0.000000000000000 ) );
#298 = DIRECTION( '', ( 1.00000000000000, -0.000000000000000, 0.000000000000000 ) );
#299 = DIRECTION( '', ( 0.000000000000000, 0.000000000000000, -1.00000000000000 ) );
#300 = SURFACE_STYLE_FILL_AREA( #347 );
#301 = ORIENTED_EDGE( '', *, *, #348, .F. );
#302 = ORIENTED_EDGE( '', *, *, #337, .T. );
#303 = CARTESIAN_POINT( '', ( 0.000000000000000, 0.000000000000000, 0.000000000000000 ) );
#304 = DIRECTION( '', ( 1.00000000000000, -0.000000000000000, -0.000000000000000 ) );
#305 = DIRECTION( '', ( 0.000000000000000, 0.000000000000000, 1.00000000000000 ) );
#306 = SURFACE_STYLE_FILL_AREA( #349 );
#307 = ORIENTED_EDGE( '', *, *, #323, .F. );
#308 = ORIENTED_EDGE( '', *, *, #348, .T. );
#309 = CARTESIAN_POINT( '', ( 20.0000000000000, 0.000000000000000, 0.000000000000000 ) );
#310 = DIRECTION( '', ( 1.00000000000000, -0.000000000000000, 0.000000000000000 ) );
#311 = DIRECTION( '', ( 0.000000000000000, 0.000000000000000, -1.00000000000000 ) );
#312 = FILL_AREA_STYLE( '', ( #350 ) );
#313 = EDGE_CURVE( '', #351, #352, #353, .T. );
#314 = EDGE_CURVE( '', #352, #354, #355, .T. );
#315 = EDGE_CURVE( '', #356, #354, #357, .T. );
#316 = EDGE_CURVE( '', #351, #356, #358, .T. );
#317 = FILL_AREA_STYLE( '', ( #359 ) );
#318 = EDGE_CURVE( '', #360, #361, #362, .T. );
#319 = EDGE_CURVE( '', #356, #361, #363, .F. );
#320 = EDGE_CURVE( '', #354, #360, #364, .T. );
#321 = EDGE_CURVE( '', #365, #365, #366, .T. );
#322 = FILL_AREA_STYLE( '', ( #367 ) );
#323 = EDGE_CURVE( '', #368, #368, #369, .T. );
#324 = EDGE_CURVE( '', #370, #370, #371, .T. );
#325 = FILL_AREA_STYLE( '', ( #372 ) );
#326 = EDGE_CURVE( '', #373, #351, #374, .F. );
#327 = EDGE_CURVE( '', #373, #361, #375, .T. );
#328 = FILL_AREA_STYLE( '', ( #376 ) );
#329 = EDGE_CURVE( '', #377, #377, #378, .T. );
#330 = FILL_AREA_STYLE( '', ( #379 ) );
#331 = EDGE_CURVE( '', #380, #380, #381, .T. );
#332 = EDGE_CURVE( '', #382, #382, #383, .T. );
#333 = FILL_AREA_STYLE( '', ( #384 ) );
#334 = EDGE_CURVE( '', #385, #373, #386, .T. );
#335 = EDGE_CURVE( '', #385, #360, #387, .T. );
#336 = FILL_AREA_STYLE( '', ( #388 ) );
#337 = EDGE_CURVE( '', #389, #389, #390, .T. );
#338 = EDGE_CURVE( '', #352, #385, #391, .T. );
#339 = FILL_AREA_STYLE( '', ( #392 ) );
#340 = FILL_AREA_STYLE( '', ( #393 ) );
#341 = CARTESIAN_POINT( '', ( 32.2500000000000, 0.000000000000000, 100.000000000000 ) );
#342 = EDGE_CURVE( '', #394, #394, #395, .T. );
#343 = FILL_AREA_STYLE( '', ( #396 ) );
#344 = EDGE_CURVE( '', #397, #397, #398, .T. );
#345 = FILL_AREA_STYLE( '', ( #399 ) );
#346 = FILL_AREA_STYLE( '', ( #400 ) );
#347 = FILL_AREA_STYLE( '', ( #401 ) );
#348 = EDGE_CURVE( '', #402, #402, #403, .T. );
#349 = FILL_AREA_STYLE( '', ( #404 ) );
#350 = FILL_AREA_STYLE_COLOUR( '', #405 );
#351 = VERTEX_POINT( '', #406 );
#352 = VERTEX_POINT( '', #407 );
#353 = LINE( '', #408, #409 );
#354 = VERTEX_POINT( '', #410 );
#355 = LINE( '', #411, #412 );
#356 = VERTEX_POINT( '', #413 );
#357 = LINE( '', #414, #415 );
#358 = LINE( '', #416, #417 );
#359 = FILL_AREA_STYLE_COLOUR( '', #418 );
#360 = VERTEX_POINT( '', #419 );
#361 = VERTEX_POINT( '', #420 );
#362 = LINE( '', #421, #422 );
#363 = CIRCLE( '', #423, 9.00000000000000 );
#364 = LINE( '', #424, #425 );
#365 = VERTEX_POINT( '', #426 );
#366 = CIRCLE( '', #427, 20.0000000000000 );
#367 = FILL_AREA_STYLE_COLOUR( '', #428 );
#368 = VERTEX_POINT( '', #429 );
#369 = CIRCLE( '', #430, 73.0000000000000 );
#370 = VERTEX_POINT( '', #431 );
#371 = CIRCLE( '', #432, 85.5000000000000 );
#372 = FILL_AREA_STYLE_COLOUR( '', #433 );
#373 = VERTEX_POINT( '', #434 );
#374 = CIRCLE( '', #435, 9.00000000000000 );
#375 = LINE( '', #436, #437 );
#376 = FILL_AREA_STYLE_COLOUR( '', #438 );
#377 = VERTEX_POINT( '', #439 );
#378 = CIRCLE( '', #440, 20.0000000000000 );
#379 = FILL_AREA_STYLE_COLOUR( '', #441 );
#380 = VERTEX_POINT( '', #442 );
#381 = CIRCLE( '', #443, 85.0000000000000 );
#382 = VERTEX_POINT( '', #444 );
#383 = CIRCLE( '', #445, 86.5000000000000 );
#384 = FILL_AREA_STYLE_COLOUR( '', #446 );
#385 = VERTEX_POINT( '', #447 );
#386 = LINE( '', #448, #449 );
#387 = LINE( '', #450, #451 );
#388 = FILL_AREA_STYLE_COLOUR( '', #452 );
#389 = VERTEX_POINT( '', #453 );
#390 = CIRCLE( '', #454, 20.0000000000000 );
#391 = LINE( '', #455, #456 );
#392 = FILL_AREA_STYLE_COLOUR( '', #457 );
#393 = FILL_AREA_STYLE_COLOUR( '', #458 );
#394 = VERTEX_POINT( '', #459 );
#395 = CIRCLE( '', #460, 87.0000000000000 );
#396 = FILL_AREA_STYLE_COLOUR( '', #461 );
#397 = VERTEX_POINT( '', #462 );
#398 = CIRCLE( '', #463, 78.0000000000000 );
#399 = FILL_AREA_STYLE_COLOUR( '', #464 );
#400 = FILL_AREA_STYLE_COLOUR( '', #465 );
#401 = FILL_AREA_STYLE_COLOUR( '', #466 );
#402 = VERTEX_POINT( '', #467 );
#403 = CIRCLE( '', #468, 20.0000000000000 );
#404 = FILL_AREA_STYLE_COLOUR( '', #469 );
#405 = COLOUR_RGB( '', 0.689999997600000, 0.689999997600000, 0.689999997600000 );
#406 = CARTESIAN_POINT( '', ( 24.0000000000000, 8.48528137423857, -3.00000000000000 ) );
#407 = CARTESIAN_POINT( '', ( 24.0000000000000, 11.8000000000000, -2.99999999999999 ) );
#408 = CARTESIAN_POINT( '', ( 24.0000000000000, 6.28007504164549E-15, -3.00000000000002 ) );
#409 = VECTOR( '', #470, 1000.00000000000 );
#410 = CARTESIAN_POINT( '', ( 0.000000000000000, 11.8000000000000, -2.99999999999999 ) );
#411 = CARTESIAN_POINT( '', ( 36.0000000000000, 11.8000000000000, -2.99999999999999 ) );
#412 = VECTOR( '', #471, 1000.00000000000 );
#413 = CARTESIAN_POINT( '', ( 0.000000000000000, 8.48528137423857, -3.00000000000000 ) );
#414 = CARTESIAN_POINT( '', ( 0.000000000000000, 8.48528137423857, -3.00000000000000 ) );
#415 = VECTOR( '', #472, 1000.00000000000 );
#416 = CARTESIAN_POINT( '', ( 36.0000000000000, 8.48528137423857, -3.00000000000000 ) );
#417 = VECTOR( '', #473, 1000.00000000000 );
#418 = COLOUR_RGB( '', 0.689999997600000, 0.689999997600000, 0.689999997600000 );
#419 = CARTESIAN_POINT( '', ( 8.67361737988404E-16, 11.8000000000000, 3.00000000000000 ) );
#420 = CARTESIAN_POINT( '', ( 0.000000000000000, 8.48528137423857, 3.00000000000000 ) );
#421 = CARTESIAN_POINT( '', ( 0.000000000000000, 11.8000000000000, 3.00000000000000 ) );
#422 = VECTOR( '', #474, 1000.00000000000 );
#423 = AXIS2_PLACEMENT_3D( '', #475, #476, #477 );
#424 = CARTESIAN_POINT( '', ( 0.000000000000000, 11.8000000000000, -2.99999999999999 ) );
#425 = VECTOR( '', #478, 1000.00000000000 );
#426 = CARTESIAN_POINT( '', ( 1.73472347597681E-15, 0.000000000000000, 20.0000000000000 ) );
#427 = AXIS2_PLACEMENT_3D( '', #479, #480, #481 );
#428 = COLOUR_RGB( '', 0.689999997600000, 0.689999997600000, 0.689999997600000 );
#429 = CARTESIAN_POINT( '', ( 32.0000000000000, 0.000000000000000, 73.0000000000000 ) );
#430 = AXIS2_PLACEMENT_3D( '', #482, #483, #484 );
#431 = CARTESIAN_POINT( '', ( 41.0000000000000, 0.000000000000000, 85.5000000000000 ) );
#432 = AXIS2_PLACEMENT_3D( '', #485, #486, #487 );
#433 = COLOUR_RGB( '', 0.689999997600000, 0.689999997600000, 0.689999997600000 );
#434 = CARTESIAN_POINT( '', ( 24.0000000000000, 8.48528137423857, 3.00000000000000 ) );
#435 = AXIS2_PLACEMENT_3D( '', #488, #489, #490 );
#436 = CARTESIAN_POINT( '', ( 36.0000000000000, 8.48528137423857, 3.00000000000000 ) );
#437 = VECTOR( '', #491, 1000.00000000000 );
#438 = COLOUR_RGB( '', 0.689999997600000, 0.689999997600000, 0.689999997600000 );
#439 = CARTESIAN_POINT( '', ( 14.5000000000000, 0.000000000000000, 20.0000000000000 ) );
#440 = AXIS2_PLACEMENT_3D( '', #492, #493, #494 );
#441 = COLOUR_RGB( '', 0.689999997600000, 0.689999997600000, 0.689999997600000 );
#442 = CARTESIAN_POINT( '', ( 23.5000000000000, 0.000000000000000, 85.0000000000000 ) );
#443 = AXIS2_PLACEMENT_3D( '', #495, #496, #497 );
#444 = CARTESIAN_POINT( '', ( 20.6310499613777, 0.000000000000000, 86.5000000000000 ) );
#445 = AXIS2_PLACEMENT_3D( '', #498, #499, #500 );
#446 = COLOUR_RGB( '', 0.689999997600000, 0.689999997600000, 0.689999997600000 );
#447 = CARTESIAN_POINT( '', ( 24.0000000000000, 11.8000000000000, 3.00000000000000 ) );
#448 = CARTESIAN_POINT( '', ( 24.0000000000000, 0.000000000000000, 3.00000000000000 ) );
#449 = VECTOR( '', #501, 1000.00000000000 );
#450 = CARTESIAN_POINT( '', ( 36.0000000000000, 11.8000000000000, 3.00000000000000 ) );
#451 = VECTOR( '', #502, 1000.00000000000 );
#452 = COLOUR_RGB( '', 0.689999997600000, 0.689999997600000, 0.689999997600000 );
#453 = CARTESIAN_POINT( '', ( 24.0000000000000, 0.000000000000000, 20.0000000000000 ) );
#454 = AXIS2_PLACEMENT_3D( '', #503, #504, #505 );
#455 = CARTESIAN_POINT( '', ( 24.0000000000000, 11.8000000000000, 0.000000000000000 ) );
#456 = VECTOR( '', #506, 1000.00000000000 );
#457 = COLOUR_RGB( '', 0.689999997600000, 0.689999997600000, 0.689999997600000 );
#458 = COLOUR_RGB( '', 0.689999997600000, 0.689999997600000, 0.689999997600000 );
#459 = CARTESIAN_POINT( '', ( 43.9333214455479, 0.000000000000000, 87.0000000000000 ) );
#460 = AXIS2_PLACEMENT_3D( '', #507, #508, #509 );
#461 = COLOUR_RGB( '', 0.689999997600000, 0.689999997600000, 0.689999997600000 );
#462 = CARTESIAN_POINT( '', ( 27.0000000000000, 0.000000000000000, 78.0000000000000 ) );
#463 = AXIS2_PLACEMENT_3D( '', #510, #511, #512 );
#464 = COLOUR_RGB( '', 0.689999997600000, 0.689999997600000, 0.689999997600000 );
#465 = COLOUR_RGB( '', 0.689999997600000, 0.689999997600000, 0.689999997600000 );
#466 = COLOUR_RGB( '', 0.689999997600000, 0.689999997600000, 0.689999997600000 );
#467 = CARTESIAN_POINT( '', ( 20.0000000000000, 0.000000000000000, 20.0000000000000 ) );
#468 = AXIS2_PLACEMENT_3D( '', #513, #514, #515 );
#469 = COLOUR_RGB( '', 0.689999997600000, 0.689999997600000, 0.689999997600000 );
#470 = DIRECTION( '', ( 0.000000000000000, 1.00000000000000, 2.09335834721515E-15 ) );
#471 = DIRECTION( '', ( -1.00000000000000, -0.000000000000000, -0.000000000000000 ) );
#472 = DIRECTION( '', ( 0.000000000000000, 1.00000000000000, 2.09335834721515E-15 ) );
#473 = DIRECTION( '', ( -1.00000000000000, -0.000000000000000, -0.000000000000000 ) );
#474 = DIRECTION( '', ( 0.000000000000000, -1.00000000000000, 0.000000000000000 ) );
#475 = CARTESIAN_POINT( '', ( 0.000000000000000, -8.13151629364128E-16, -4.98732999343332E-15 ) );
#476 = DIRECTION( '', ( 1.00000000000000, 0.000000000000000, 0.000000000000000 ) );
#477 = DIRECTION( '', ( 0.000000000000000, 0.000000000000000, -1.00000000000000 ) );
#478 = DIRECTION( '', ( 0.000000000000000, 0.000000000000000, 1.00000000000000 ) );
#479 = CARTESIAN_POINT( '', ( 1.73472347597681E-15, 0.000000000000000, 0.000000000000000 ) );
#480 = DIRECTION( '', ( -1.00000000000000, 0.000000000000000, 0.000000000000000 ) );
#481 = DIRECTION( '', ( 0.000000000000000, 0.000000000000000, 1.00000000000000 ) );
#482 = CARTESIAN_POINT( '', ( 32.0000000000000, 0.000000000000000, 0.000000000000000 ) );
#483 = DIRECTION( '', ( -1.00000000000000, 0.000000000000000, 0.000000000000000 ) );
#484 = DIRECTION( '', ( 0.000000000000000, 0.000000000000000, 1.00000000000000 ) );
#485 = CARTESIAN_POINT( '', ( 41.0000000000000, 0.000000000000000, 0.000000000000000 ) );
#486 = DIRECTION( '', ( -1.00000000000000, 0.000000000000000, 0.000000000000000 ) );
#487 = DIRECTION( '', ( 0.000000000000000, 0.000000000000000, 1.00000000000000 ) );
#488 = CARTESIAN_POINT( '', ( 24.0000000000000, -8.13151629364128E-16, -4.98732999343332E-15 ) );
#489 = DIRECTION( '', ( -1.00000000000000, 0.000000000000000, 0.000000000000000 ) );
#490 = DIRECTION( '', ( 0.000000000000000, 0.000000000000000, 1.00000000000000 ) );
#491 = DIRECTION( '', ( -1.00000000000000, -0.000000000000000, -0.000000000000000 ) );
#492 = CARTESIAN_POINT( '', ( 14.5000000000000, 0.000000000000000, 0.000000000000000 ) );
#493 = DIRECTION( '', ( -1.00000000000000, 0.000000000000000, 0.000000000000000 ) );
#494 = DIRECTION( '', ( 0.000000000000000, 0.000000000000000, 1.00000000000000 ) );
#495 = CARTESIAN_POINT( '', ( 23.5000000000000, 0.000000000000000, 0.000000000000000 ) );
#496 = DIRECTION( '', ( -1.00000000000000, 0.000000000000000, 0.000000000000000 ) );
#497 = DIRECTION( '', ( 0.000000000000000, 0.000000000000000, 1.00000000000000 ) );
#498 = CARTESIAN_POINT( '', ( 20.6310499613777, 0.000000000000000, 0.000000000000000 ) );
#499 = DIRECTION( '', ( -1.00000000000000, 0.000000000000000, 0.000000000000000 ) );
#500 = DIRECTION( '', ( 0.000000000000000, 0.000000000000000, 1.00000000000000 ) );
#501 = DIRECTION( '', ( 0.000000000000000, -1.00000000000000, 0.000000000000000 ) );
#502 = DIRECTION( '', ( -1.00000000000000, -0.000000000000000, -0.000000000000000 ) );
#503 = CARTESIAN_POINT( '', ( 24.0000000000000, 0.000000000000000, 0.000000000000000 ) );
#504 = DIRECTION( '', ( -1.00000000000000, 0.000000000000000, 0.000000000000000 ) );
#505 = DIRECTION( '', ( 0.000000000000000, 0.000000000000000, 1.00000000000000 ) );
#506 = DIRECTION( '', ( 0.000000000000000, 0.000000000000000, 1.00000000000000 ) );
#507 = CARTESIAN_POINT( '', ( 43.9333214455479, 0.000000000000000, 0.000000000000000 ) );
#508 = DIRECTION( '', ( -1.00000000000000, 0.000000000000000, 0.000000000000000 ) );
#509 = DIRECTION( '', ( 0.000000000000000, 0.000000000000000, 1.00000000000000 ) );
#510 = CARTESIAN_POINT( '', ( 27.0000000000000, 0.000000000000000, 0.000000000000000 ) );
#511 = DIRECTION( '', ( -1.00000000000000, 0.000000000000000, 0.000000000000000 ) );
#512 = DIRECTION( '', ( 0.000000000000000, 0.000000000000000, 1.00000000000000 ) );
#513 = CARTESIAN_POINT( '', ( 20.0000000000000, 0.000000000000000, 0.000000000000000 ) );
#514 = DIRECTION( '', ( -1.00000000000000, 0.000000000000000, 0.000000000000000 ) );
#515 = DIRECTION( '', ( 0.000000000000000, 0.000000000000000, 1.00000000000000 ) );
ENDSEC;
END-ISO-10303-21;
