ISO-10303-21;
HEADER;
FILE_DESCRIPTION( ( 'STEP AP214' ), '1' );
FILE_NAME( '//goodhand-server/Shared Folders/GoodHand Data/Kipp CAD/K0390/K0390.14X80.stp', '2020-12-07T10:14:49', ( '' ), ( '' ), ' ', 'PARTsolutions', ' ' );
FILE_SCHEMA( ( 'AUTOMOTIVE_DESIGN { 1 0 10303 214 1 1 1 1 }' ) );
ENDSEC;
DATA;
#1 = MECHANICAL_DESIGN_GEOMETRIC_PRESENTATION_REPRESENTATION( ' ', ( #10, #11, #12, #13, #14, #15, #16, #17, #18, #19, #20, #21, #22 ), #6 );
#2 = PRODUCT_DEFINITION_CONTEXT( '', #23, 'design' );
#3 = APPLICATION_PROTOCOL_DEFINITION( 'international standard', 'automotive_design', 2001, #23 );
#4 = PRODUCT_CATEGORY_RELATIONSHIP( 'NONE', 'NONE', #24, #25 );
#5 = SHAPE_DEFINITION_REPRESENTATION( #26, #27 );
#6 =  ( GEOMETRIC_REPRESENTATION_CONTEXT( 3 )GLOBAL_UNCERTAINTY_ASSIGNED_CONTEXT( ( #30 ) )GLOBAL_UNIT_ASSIGNED_CONTEXT( ( #32, #33, #34 ) )REPRESENTATION_CONTEXT( 'NONE', 'WORKSPACE' ) );
#10 = STYLED_ITEM( '', ( #36 ), #37 );
#11 = STYLED_ITEM( '', ( #38 ), #39 );
#12 = STYLED_ITEM( '', ( #40 ), #41 );
#13 = STYLED_ITEM( '', ( #42 ), #43 );
#14 = STYLED_ITEM( '', ( #44 ), #45 );
#15 = STYLED_ITEM( '', ( #46 ), #47 );
#16 = STYLED_ITEM( '', ( #48 ), #49 );
#17 = STYLED_ITEM( '', ( #50 ), #51 );
#18 = STYLED_ITEM( '', ( #52 ), #53 );
#19 = STYLED_ITEM( '', ( #54 ), #55 );
#20 = STYLED_ITEM( '', ( #56 ), #57 );
#21 = STYLED_ITEM( '', ( #58 ), #59 );
#22 = STYLED_ITEM( '', ( #60 ), #61 );
#23 = APPLICATION_CONTEXT( 'core data for automotive mechanical design processes' );
#24 = PRODUCT_CATEGORY( 'part', 'NONE' );
#25 = PRODUCT_RELATED_PRODUCT_CATEGORY( 'detail', ' ', ( #62 ) );
#26 = PRODUCT_DEFINITION_SHAPE( 'NONE', 'NONE', #63 );
#27 = ADVANCED_BREP_SHAPE_REPRESENTATION( '_K0390.14X80', ( #64, #65 ), #6 );
#30 = UNCERTAINTY_MEASURE_WITH_UNIT( LENGTH_MEASURE( 0.00100000000000000 ), #32, '', '' );
#32 =  ( CONVERSION_BASED_UNIT( 'MILLIMETRE', #68 )LENGTH_UNIT(  )NAMED_UNIT( #71 ) );
#33 =  ( NAMED_UNIT( #73 )PLANE_ANGLE_UNIT(  )SI_UNIT( $, .RADIAN. ) );
#34 =  ( NAMED_UNIT( #73 )SI_UNIT( $, .STERADIAN. )SOLID_ANGLE_UNIT(  ) );
#36 = PRESENTATION_STYLE_ASSIGNMENT( ( #79 ) );
#37 = ADVANCED_FACE( '', ( #80 ), #81, .F. );
#38 = PRESENTATION_STYLE_ASSIGNMENT( ( #82 ) );
#39 = ADVANCED_FACE( '', ( #83, #84 ), #85, .F. );
#40 = PRESENTATION_STYLE_ASSIGNMENT( ( #86 ) );
#41 = ADVANCED_FACE( '', ( #87 ), #88, .T. );
#42 = PRESENTATION_STYLE_ASSIGNMENT( ( #89 ) );
#43 = ADVANCED_FACE( '', ( #90, #91 ), #92, .T. );
#44 = PRESENTATION_STYLE_ASSIGNMENT( ( #93 ) );
#45 = ADVANCED_FACE( '', ( #94, #95 ), #96, .T. );
#46 = PRESENTATION_STYLE_ASSIGNMENT( ( #97 ) );
#47 = ADVANCED_FACE( '', ( #98 ), #99, .T. );
#48 = PRESENTATION_STYLE_ASSIGNMENT( ( #100 ) );
#49 = ADVANCED_FACE( '', ( #101, #102 ), #103, .T. );
#50 = PRESENTATION_STYLE_ASSIGNMENT( ( #104 ) );
#51 = ADVANCED_FACE( '', ( #105 ), #106, .F. );
#52 = PRESENTATION_STYLE_ASSIGNMENT( ( #107 ) );
#53 = ADVANCED_FACE( '', ( #108 ), #109, .F. );
#54 = PRESENTATION_STYLE_ASSIGNMENT( ( #110 ) );
#55 = ADVANCED_FACE( '', ( #111, #112 ), #113, .T. );
#56 = PRESENTATION_STYLE_ASSIGNMENT( ( #114 ) );
#57 = ADVANCED_FACE( '', ( #115, #116 ), #117, .T. );
#58 = PRESENTATION_STYLE_ASSIGNMENT( ( #118 ) );
#59 = ADVANCED_FACE( '', ( #119 ), #120, .T. );
#60 = PRESENTATION_STYLE_ASSIGNMENT( ( #121 ) );
#61 = ADVANCED_FACE( '', ( #122 ), #123, .F. );
#62 = PRODUCT( '_K0390.14X80', '_K0390.14X80', 'PART-_K0390.14X80-DESC', ( #124 ) );
#63 = PRODUCT_DEFINITION( 'NONE', 'NONE', #125, #2 );
#64 = MANIFOLD_SOLID_BREP( '_K0390.14X80', #126 );
#65 = AXIS2_PLACEMENT_3D( '', #127, #128, #129 );
#68 = LENGTH_MEASURE_WITH_UNIT( LENGTH_MEASURE( 1.00000000000000 ), #130 );
#71 = DIMENSIONAL_EXPONENTS( 1.00000000000000, 0.000000000000000, 0.000000000000000, 0.000000000000000, 0.000000000000000, 0.000000000000000, 0.000000000000000 );
#73 = DIMENSIONAL_EXPONENTS( 0.000000000000000, 0.000000000000000, 0.000000000000000, 0.000000000000000, 0.000000000000000, 0.000000000000000, 0.000000000000000 );
#79 = SURFACE_STYLE_USAGE( .BOTH., #131 );
#80 = FACE_OUTER_BOUND( '', #132, .T. );
#81 = PLANE( '', #133 );
#82 = SURFACE_STYLE_USAGE( .BOTH., #134 );
#83 = FACE_OUTER_BOUND( '', #135, .T. );
#84 = FACE_BOUND( '', #136, .T. );
#85 = PLANE( '', #137 );
#86 = SURFACE_STYLE_USAGE( .BOTH., #138 );
#87 = FACE_OUTER_BOUND( '', #139, .T. );
#88 = CONICAL_SURFACE( '', #140, 5.77300000000000, 0.785398163400000 );
#89 = SURFACE_STYLE_USAGE( .BOTH., #141 );
#90 = FACE_BOUND( '', #142, .T. );
#91 = FACE_OUTER_BOUND( '', #143, .T. );
#92 = CONICAL_SURFACE( '', #144, 7.00000000000000, 1.13808724680000 );
#93 = SURFACE_STYLE_USAGE( .BOTH., #145 );
#94 = FACE_OUTER_BOUND( '', #146, .T. );
#95 = FACE_OUTER_BOUND( '', #147, .T. );
#96 = CYLINDRICAL_SURFACE( '', #148, 7.00000000000000 );
#97 = SURFACE_STYLE_USAGE( .BOTH., #149 );
#98 = FACE_OUTER_BOUND( '', #150, .T. );
#99 = PLANE( '', #151 );
#100 = SURFACE_STYLE_USAGE( .BOTH., #152 );
#101 = FACE_OUTER_BOUND( '', #153, .T. );
#102 = FACE_OUTER_BOUND( '', #154, .T. );
#103 = CYLINDRICAL_SURFACE( '', #155, 5.00000000000000 );
#104 = SURFACE_STYLE_USAGE( .BOTH., #156 );
#105 = FACE_OUTER_BOUND( '', #157, .T. );
#106 = PLANE( '', #158 );
#107 = SURFACE_STYLE_USAGE( .BOTH., #159 );
#108 = FACE_OUTER_BOUND( '', #160, .T. );
#109 = PLANE( '', #161 );
#110 = SURFACE_STYLE_USAGE( .BOTH., #162 );
#111 = FACE_OUTER_BOUND( '', #163, .T. );
#112 = FACE_OUTER_BOUND( '', #164, .T. );
#113 = CYLINDRICAL_SURFACE( '', #165, 4.50000000000000 );
#114 = SURFACE_STYLE_USAGE( .BOTH., #166 );
#115 = FACE_BOUND( '', #167, .T. );
#116 = FACE_OUTER_BOUND( '', #168, .T. );
#117 = SPHERICAL_SURFACE( '', #169, 8.38700000000000 );
#118 = SURFACE_STYLE_USAGE( .BOTH., #170 );
#119 = FACE_OUTER_BOUND( '', #171, .T. );
#120 = CONICAL_SURFACE( '', #172, 5.77300000000000, 0.785398163400000 );
#121 = SURFACE_STYLE_USAGE( .BOTH., #173 );
#122 = FACE_OUTER_BOUND( '', #174, .T. );
#123 = PLANE( '', #175 );
#124 = PRODUCT_CONTEXT( '', #23, 'mechanical' );
#125 = PRODUCT_DEFINITION_FORMATION_WITH_SPECIFIED_SOURCE( ' ', 'NONE', #62, .NOT_KNOWN. );
#126 = CLOSED_SHELL( '', ( #51, #53, #57, #49, #39, #55, #43, #45, #59, #61, #41, #37, #47 ) );
#127 = CARTESIAN_POINT( '', ( 0.000000000000000, 0.000000000000000, 0.000000000000000 ) );
#128 = DIRECTION( '', ( 0.000000000000000, 0.000000000000000, 1.00000000000000 ) );
#129 = DIRECTION( '', ( 1.00000000000000, 0.000000000000000, 0.000000000000000 ) );
#130 =  ( LENGTH_UNIT(  )NAMED_UNIT( #71 )SI_UNIT( .MILLI., .METRE. ) );
#131 = SURFACE_SIDE_STYLE( '', ( #177 ) );
#132 = EDGE_LOOP( '', ( #178, #179 ) );
#133 = AXIS2_PLACEMENT_3D( '', #180, #181, #182 );
#134 = SURFACE_SIDE_STYLE( '', ( #183 ) );
#135 = EDGE_LOOP( '', ( #184 ) );
#136 = EDGE_LOOP( '', ( #185 ) );
#137 = AXIS2_PLACEMENT_3D( '', #186, #187, #188 );
#138 = SURFACE_SIDE_STYLE( '', ( #189 ) );
#139 = EDGE_LOOP( '', ( #190, #191, #192, #193 ) );
#140 = AXIS2_PLACEMENT_3D( '', #194, #195, #196 );
#141 = SURFACE_SIDE_STYLE( '', ( #197 ) );
#142 = EDGE_LOOP( '', ( #198 ) );
#143 = EDGE_LOOP( '', ( #199 ) );
#144 = AXIS2_PLACEMENT_3D( '', #200, #201, #202 );
#145 = SURFACE_SIDE_STYLE( '', ( #203 ) );
#146 = EDGE_LOOP( '', ( #204 ) );
#147 = EDGE_LOOP( '', ( #205, #206, #207, #208, #209, #210, #211, #212 ) );
#148 = AXIS2_PLACEMENT_3D( '', #213, #214, #215 );
#149 = SURFACE_SIDE_STYLE( '', ( #216 ) );
#150 = EDGE_LOOP( '', ( #217, #218, #219, #220 ) );
#151 = AXIS2_PLACEMENT_3D( '', #221, #222, #223 );
#152 = SURFACE_SIDE_STYLE( '', ( #224 ) );
#153 = EDGE_LOOP( '', ( #225 ) );
#154 = EDGE_LOOP( '', ( #226 ) );
#155 = AXIS2_PLACEMENT_3D( '', #227, #228, #229 );
#156 = SURFACE_SIDE_STYLE( '', ( #230 ) );
#157 = EDGE_LOOP( '', ( #231, #232, #233, #234, #235, #236 ) );
#158 = AXIS2_PLACEMENT_3D( '', #237, #238, #239 );
#159 = SURFACE_SIDE_STYLE( '', ( #240 ) );
#160 = EDGE_LOOP( '', ( #241, #242, #243, #244, #245, #246 ) );
#161 = AXIS2_PLACEMENT_3D( '', #247, #248, #249 );
#162 = SURFACE_SIDE_STYLE( '', ( #250 ) );
#163 = EDGE_LOOP( '', ( #251 ) );
#164 = EDGE_LOOP( '', ( #252 ) );
#165 = AXIS2_PLACEMENT_3D( '', #253, #254, #255 );
#166 = SURFACE_SIDE_STYLE( '', ( #256 ) );
#167 = VERTEX_LOOP( '', #257 );
#168 = EDGE_LOOP( '', ( #258 ) );
#169 = AXIS2_PLACEMENT_3D( '', #259, #260, #261 );
#170 = SURFACE_SIDE_STYLE( '', ( #262 ) );
#171 = EDGE_LOOP( '', ( #263, #264, #265, #266 ) );
#172 = AXIS2_PLACEMENT_3D( '', #267, #268, #269 );
#173 = SURFACE_SIDE_STYLE( '', ( #270 ) );
#174 = EDGE_LOOP( '', ( #271, #272 ) );
#175 = AXIS2_PLACEMENT_3D( '', #273, #274, #275 );
#177 = SURFACE_STYLE_FILL_AREA( #276 );
#178 = ORIENTED_EDGE( '', *, *, #277, .F. );
#179 = ORIENTED_EDGE( '', *, *, #278, .F. );
#180 = CARTESIAN_POINT( '', ( -1.76747149286942E-16, 4.89858719658941E-15, 0.000000000000000 ) );
#181 = DIRECTION( '', ( 1.00000000000000, -6.12323399573677E-17, -0.000000000000000 ) );
#182 = DIRECTION( '', ( 6.12323399573677E-17, 1.00000000000000, 0.000000000000000 ) );
#183 = SURFACE_STYLE_FILL_AREA( #279 );
#184 = ORIENTED_EDGE( '', *, *, #280, .F. );
#185 = ORIENTED_EDGE( '', *, *, #281, .T. );
#186 = CARTESIAN_POINT( '', ( 75.0000000000000, 4.50000000000000, 0.000000000000000 ) );
#187 = DIRECTION( '', ( 1.00000000000000, -6.12323399573677E-17, -0.000000000000000 ) );
#188 = DIRECTION( '', ( 6.12323399573677E-17, 1.00000000000000, 0.000000000000000 ) );
#189 = SURFACE_STYLE_FILL_AREA( #282 );
#190 = ORIENTED_EDGE( '', *, *, #283, .F. );
#191 = ORIENTED_EDGE( '', *, *, #284, .T. );
#192 = ORIENTED_EDGE( '', *, *, #285, .T. );
#193 = ORIENTED_EDGE( '', *, *, #286, .T. );
#194 = CARTESIAN_POINT( '', ( 0.000000000000000, 4.89858719658941E-15, 0.000000000000000 ) );
#195 = DIRECTION( '', ( 1.00000000000000, -6.12323399573677E-17, -0.000000000000000 ) );
#196 = DIRECTION( '', ( 6.12323399573677E-17, 1.00000000000000, 0.000000000000000 ) );
#197 = SURFACE_STYLE_FILL_AREA( #287 );
#198 = ORIENTED_EDGE( '', *, *, #288, .F. );
#199 = ORIENTED_EDGE( '', *, *, #289, .T. );
#200 = CARTESIAN_POINT( '', ( 68.0000000000000, 7.34788079488413E-16, 0.000000000000000 ) );
#201 = DIRECTION( '', ( -1.00000000000000, 6.12323399573677E-17, -0.000000000000000 ) );
#202 = DIRECTION( '', ( -6.12323399573677E-17, -1.00000000000000, 0.000000000000000 ) );
#203 = SURFACE_STYLE_FILL_AREA( #290 );
#204 = ORIENTED_EDGE( '', *, *, #289, .F. );
#205 = ORIENTED_EDGE( '', *, *, #283, .T. );
#206 = ORIENTED_EDGE( '', *, *, #291, .T. );
#207 = ORIENTED_EDGE( '', *, *, #292, .F. );
#208 = ORIENTED_EDGE( '', *, *, #293, .T. );
#209 = ORIENTED_EDGE( '', *, *, #294, .T. );
#210 = ORIENTED_EDGE( '', *, *, #295, .T. );
#211 = ORIENTED_EDGE( '', *, *, #296, .F. );
#212 = ORIENTED_EDGE( '', *, *, #297, .T. );
#213 = CARTESIAN_POINT( '', ( 80.0000000000000, 0.000000000000000, 0.000000000000000 ) );
#214 = DIRECTION( '', ( -1.00000000000000, 6.12323399573677E-17, 0.000000000000000 ) );
#215 = DIRECTION( '', ( 6.12323399573677E-17, 1.00000000000000, 0.000000000000000 ) );
#216 = SURFACE_STYLE_FILL_AREA( #298 );
#217 = ORIENTED_EDGE( '', *, *, #292, .T. );
#218 = ORIENTED_EDGE( '', *, *, #299, .T. );
#219 = ORIENTED_EDGE( '', *, *, #296, .T. );
#220 = ORIENTED_EDGE( '', *, *, #300, .T. );
#221 = CARTESIAN_POINT( '', ( 3.00000000000000, 0.000000000000000, 0.000000000000000 ) );
#222 = DIRECTION( '', ( -1.00000000000000, 0.000000000000000, 0.000000000000000 ) );
#223 = DIRECTION( '', ( 0.000000000000000, 0.000000000000000, 1.00000000000000 ) );
#224 = SURFACE_STYLE_FILL_AREA( #301 );
#225 = ORIENTED_EDGE( '', *, *, #302, .F. );
#226 = ORIENTED_EDGE( '', *, *, #280, .T. );
#227 = CARTESIAN_POINT( '', ( 80.0000000000000, 0.000000000000000, 0.000000000000000 ) );
#228 = DIRECTION( '', ( -1.00000000000000, 6.12323399573677E-17, 0.000000000000000 ) );
#229 = DIRECTION( '', ( 6.12323399573677E-17, 1.00000000000000, 0.000000000000000 ) );
#230 = SURFACE_STYLE_FILL_AREA( #303 );
#231 = ORIENTED_EDGE( '', *, *, #304, .F. );
#232 = ORIENTED_EDGE( '', *, *, #278, .T. );
#233 = ORIENTED_EDGE( '', *, *, #305, .F. );
#234 = ORIENTED_EDGE( '', *, *, #293, .F. );
#235 = ORIENTED_EDGE( '', *, *, #300, .F. );
#236 = ORIENTED_EDGE( '', *, *, #295, .F. );
#237 = CARTESIAN_POINT( '', ( 3.00000000000000, 0.900000000000005, 10.5000000000000 ) );
#238 = DIRECTION( '', ( 0.000000000000000, 1.00000000000000, 0.000000000000000 ) );
#239 = DIRECTION( '', ( 0.000000000000000, -0.000000000000000, 1.00000000000000 ) );
#240 = SURFACE_STYLE_FILL_AREA( #306 );
#241 = ORIENTED_EDGE( '', *, *, #307, .T. );
#242 = ORIENTED_EDGE( '', *, *, #284, .F. );
#243 = ORIENTED_EDGE( '', *, *, #297, .F. );
#244 = ORIENTED_EDGE( '', *, *, #299, .F. );
#245 = ORIENTED_EDGE( '', *, *, #291, .F. );
#246 = ORIENTED_EDGE( '', *, *, #286, .F. );
#247 = CARTESIAN_POINT( '', ( 3.00000000000000, -0.899999999999995, -10.5000000000000 ) );
#248 = DIRECTION( '', ( 0.000000000000000, -1.00000000000000, 0.000000000000000 ) );
#249 = DIRECTION( '', ( 0.000000000000000, 0.000000000000000, -1.00000000000000 ) );
#250 = SURFACE_STYLE_FILL_AREA( #308 );
#251 = ORIENTED_EDGE( '', *, *, #281, .F. );
#252 = ORIENTED_EDGE( '', *, *, #288, .T. );
#253 = CARTESIAN_POINT( '', ( 80.0000000000000, 0.000000000000000, 0.000000000000000 ) );
#254 = DIRECTION( '', ( -1.00000000000000, 6.12323399573676E-17, 0.000000000000000 ) );
#255 = DIRECTION( '', ( 6.12323399573676E-17, 1.00000000000000, 0.000000000000000 ) );
#256 = SURFACE_STYLE_FILL_AREA( #309 );
#257 = VERTEX_POINT( '', #310 );
#258 = ORIENTED_EDGE( '', *, *, #302, .T. );
#259 = CARTESIAN_POINT( '', ( 71.6129999999998, -5.03069808033274E-14, 0.000000000000000 ) );
#260 = DIRECTION( '', ( 1.00000000000000, 0.000000000000000, 0.000000000000000 ) );
#261 = DIRECTION( '', ( 0.000000000000000, 1.00000000000000, 0.000000000000000 ) );
#262 = SURFACE_STYLE_FILL_AREA( #311 );
#263 = ORIENTED_EDGE( '', *, *, #277, .T. );
#264 = ORIENTED_EDGE( '', *, *, #304, .T. );
#265 = ORIENTED_EDGE( '', *, *, #294, .F. );
#266 = ORIENTED_EDGE( '', *, *, #305, .T. );
#267 = CARTESIAN_POINT( '', ( 0.000000000000000, 4.89858719658941E-15, 0.000000000000000 ) );
#268 = DIRECTION( '', ( 1.00000000000000, -6.12323399573677E-17, -0.000000000000000 ) );
#269 = DIRECTION( '', ( 6.12323399573677E-17, 1.00000000000000, 0.000000000000000 ) );
#270 = SURFACE_STYLE_FILL_AREA( #312 );
#271 = ORIENTED_EDGE( '', *, *, #285, .F. );
#272 = ORIENTED_EDGE( '', *, *, #307, .F. );
#273 = CARTESIAN_POINT( '', ( -1.76747149286942E-16, 4.89858719658941E-15, 0.000000000000000 ) );
#274 = DIRECTION( '', ( 1.00000000000000, -6.12323399573677E-17, -0.000000000000000 ) );
#275 = DIRECTION( '', ( 6.12323399573677E-17, 1.00000000000000, 0.000000000000000 ) );
#276 = FILL_AREA_STYLE( '', ( #313 ) );
#277 = EDGE_CURVE( '', #314, #315, #316, .T. );
#278 = EDGE_CURVE( '', #315, #314, #317, .T. );
#279 = FILL_AREA_STYLE( '', ( #318 ) );
#280 = EDGE_CURVE( '', #319, #319, #320, .T. );
#281 = EDGE_CURVE( '', #321, #321, #322, .T. );
#282 = FILL_AREA_STYLE( '', ( #323 ) );
#283 = EDGE_CURVE( '', #324, #325, #326, .T. );
#284 = EDGE_CURVE( '', #324, #327, #328, .T. );
#285 = EDGE_CURVE( '', #327, #329, #330, .T. );
#286 = EDGE_CURVE( '', #329, #325, #331, .T. );
#287 = FILL_AREA_STYLE( '', ( #332 ) );
#288 = EDGE_CURVE( '', #333, #333, #334, .T. );
#289 = EDGE_CURVE( '', #335, #335, #336, .T. );
#290 = FILL_AREA_STYLE( '', ( #337 ) );
#291 = EDGE_CURVE( '', #325, #338, #339, .T. );
#292 = EDGE_CURVE( '', #340, #338, #341, .T. );
#293 = EDGE_CURVE( '', #340, #342, #343, .F. );
#294 = EDGE_CURVE( '', #342, #344, #345, .T. );
#295 = EDGE_CURVE( '', #344, #346, #347, .T. );
#296 = EDGE_CURVE( '', #348, #346, #349, .T. );
#297 = EDGE_CURVE( '', #348, #324, #350, .F. );
#298 = FILL_AREA_STYLE( '', ( #351 ) );
#299 = EDGE_CURVE( '', #338, #348, #352, .T. );
#300 = EDGE_CURVE( '', #346, #340, #353, .T. );
#301 = FILL_AREA_STYLE( '', ( #354 ) );
#302 = EDGE_CURVE( '', #355, #355, #356, .T. );
#303 = FILL_AREA_STYLE( '', ( #357 ) );
#304 = EDGE_CURVE( '', #315, #344, #358, .T. );
#305 = EDGE_CURVE( '', #342, #314, #359, .T. );
#306 = FILL_AREA_STYLE( '', ( #360 ) );
#307 = EDGE_CURVE( '', #329, #327, #361, .T. );
#308 = FILL_AREA_STYLE( '', ( #362 ) );
#309 = FILL_AREA_STYLE( '', ( #363 ) );
#310 = CARTESIAN_POINT( '', ( 80.0000000000000, -5.03069808033274E-14, 0.000000000000000 ) );
#311 = FILL_AREA_STYLE( '', ( #364 ) );
#312 = FILL_AREA_STYLE( '', ( #365 ) );
#313 = FILL_AREA_STYLE_COLOUR( '', #366 );
#314 = VERTEX_POINT( '', #367 );
#315 = VERTEX_POINT( '', #368 );
#316 = CIRCLE( '', #369, 5.77300000000000 );
#317 = LINE( '', #370, #371 );
#318 = FILL_AREA_STYLE_COLOUR( '', #372 );
#319 = VERTEX_POINT( '', #373 );
#320 = CIRCLE( '', #374, 5.00000000000000 );
#321 = VERTEX_POINT( '', #375 );
#322 = CIRCLE( '', #376, 4.50000000000000 );
#323 = FILL_AREA_STYLE_COLOUR( '', #377 );
#324 = VERTEX_POINT( '', #378 );
#325 = VERTEX_POINT( '', #379 );
#326 = CIRCLE( '', #380, 7.00000000000000 );
#327 = VERTEX_POINT( '', #381 );
#328 = B_SPLINE_CURVE_WITH_KNOTS( '', 3, ( #382, #383, #384, #385 ), .UNSPECIFIED., .F., .F., ( 4, 4 ), ( 0.0119476865857433, 0.0136917789295996 ), .UNSPECIFIED. );
#329 = VERTEX_POINT( '', #386 );
#330 = CIRCLE( '', #387, 5.77300000000000 );
#331 = B_SPLINE_CURVE_WITH_KNOTS( '', 3, ( #388, #389, #390, #391 ), .UNSPECIFIED., .F., .F., ( 4, 4 ), ( 0.0288470734708196, 0.0305935337729002 ), .UNSPECIFIED. );
#332 = FILL_AREA_STYLE_COLOUR( '', #392 );
#333 = VERTEX_POINT( '', #393 );
#334 = CIRCLE( '', #394, 4.50000000000000 );
#335 = VERTEX_POINT( '', #395 );
#336 = CIRCLE( '', #396, 7.00000000000000 );
#337 = FILL_AREA_STYLE_COLOUR( '', #397 );
#338 = VERTEX_POINT( '', #398 );
#339 = LINE( '', #399, #400 );
#340 = VERTEX_POINT( '', #401 );
#341 = CIRCLE( '', #402, 7.00000000000000 );
#342 = VERTEX_POINT( '', #403 );
#343 = LINE( '', #404, #405 );
#344 = VERTEX_POINT( '', #406 );
#345 = CIRCLE( '', #407, 7.00000000000000 );
#346 = VERTEX_POINT( '', #408 );
#347 = LINE( '', #409, #410 );
#348 = VERTEX_POINT( '', #411 );
#349 = CIRCLE( '', #412, 7.00000000000000 );
#350 = LINE( '', #413, #414 );
#351 = FILL_AREA_STYLE_COLOUR( '', #415 );
#352 = LINE( '', #416, #417 );
#353 = LINE( '', #418, #419 );
#354 = FILL_AREA_STYLE_COLOUR( '', #420 );
#355 = VERTEX_POINT( '', #421 );
#356 = CIRCLE( '', #422, 5.00000000000000 );
#357 = FILL_AREA_STYLE_COLOUR( '', #423 );
#358 = B_SPLINE_CURVE_WITH_KNOTS( '', 3, ( #424, #425, #426, #427 ), .UNSPECIFIED., .F., .F., ( 4, 4 ), ( 0.0288470734708196, 0.0305935337729002 ), .UNSPECIFIED. );
#359 = B_SPLINE_CURVE_WITH_KNOTS( '', 3, ( #428, #429, #430, #431 ), .UNSPECIFIED., .F., .F., ( 4, 4 ), ( 0.0119476865857433, 0.0136917789295995 ), .UNSPECIFIED. );
#360 = FILL_AREA_STYLE_COLOUR( '', #432 );
#361 = LINE( '', #433, #434 );
#362 = FILL_AREA_STYLE_COLOUR( '', #435 );
#363 = FILL_AREA_STYLE_COLOUR( '', #436 );
#364 = FILL_AREA_STYLE_COLOUR( '', #437 );
#365 = FILL_AREA_STYLE_COLOUR( '', #438 );
#366 = COLOUR_RGB( '', 0.689999997600000, 0.689999997600000, 0.689999997600000 );
#367 = CARTESIAN_POINT( '', ( 0.000000000000000, 0.900000000000005, -5.70241431325364 ) );
#368 = CARTESIAN_POINT( '', ( 0.000000000000000, 0.900000000000005, 5.70241431325364 ) );
#369 = AXIS2_PLACEMENT_3D( '', #439, #440, #441 );
#370 = CARTESIAN_POINT( '', ( 0.000000000000000, 0.900000000000005, 10.5000000000000 ) );
#371 = VECTOR( '', #442, 1000.00000000000 );
#372 = COLOUR_RGB( '', 0.689999997600000, 0.689999997600000, 0.689999997600000 );
#373 = CARTESIAN_POINT( '', ( 75.0000000000000, 5.00000000000000, 0.000000000000000 ) );
#374 = AXIS2_PLACEMENT_3D( '', #443, #444, #445 );
#375 = CARTESIAN_POINT( '', ( 75.0000000000000, 4.50000000000000, 0.000000000000000 ) );
#376 = AXIS2_PLACEMENT_3D( '', #446, #447, #448 );
#377 = COLOUR_RGB( '', 0.689999997600000, 0.689999997600000, 0.689999997600000 );
#378 = CARTESIAN_POINT( '', ( 1.22700000000001, -0.899999999999990, 6.94190175672344 ) );
#379 = CARTESIAN_POINT( '', ( 1.22700000000001, -0.899999999999990, -6.94190175672344 ) );
#380 = AXIS2_PLACEMENT_3D( '', #449, #450, #451 );
#381 = CARTESIAN_POINT( '', ( 0.000000000000000, -0.899999999999995, 5.70241431325364 ) );
#382 = CARTESIAN_POINT( '', ( 1.22700000000000, -0.899999999999995, 6.94190175672345 ) );
#383 = CARTESIAN_POINT( '', ( 0.817629976282234, -0.899999999999995, 6.52910562873893 ) );
#384 = CARTESIAN_POINT( '', ( 0.408550449058583, -0.899999999999995, 6.11602188591518 ) );
#385 = CARTESIAN_POINT( '', ( -5.82716233345535E-15, -0.899999999999995, 5.70241431325365 ) );
#386 = CARTESIAN_POINT( '', ( 0.000000000000000, -0.899999999999995, -5.70241431325364 ) );
#387 = AXIS2_PLACEMENT_3D( '', #452, #453, #454 );
#388 = CARTESIAN_POINT( '', ( 1.38051777490968E-16, -0.899999999999995, -5.70241431325364 ) );
#389 = CARTESIAN_POINT( '', ( 0.408551604172656, -0.899999999999995, -6.11602305532749 ) );
#390 = CARTESIAN_POINT( '', ( 0.817630928954746, -0.899999999999995, -6.52910658938455 ) );
#391 = CARTESIAN_POINT( '', ( 1.22700000000001, -0.899999999999995, -6.94190175672344 ) );
#392 = COLOUR_RGB( '', 0.689999997600000, 0.689999997600000, 0.689999997600000 );
#393 = CARTESIAN_POINT( '', ( 69.1547600000000, 4.50000000000000, 0.000000000000000 ) );
#394 = AXIS2_PLACEMENT_3D( '', #455, #456, #457 );
#395 = CARTESIAN_POINT( '', ( 68.0000000000000, 7.00000000000000, 0.000000000000000 ) );
#396 = AXIS2_PLACEMENT_3D( '', #458, #459, #460 );
#397 = COLOUR_RGB( '', 0.689999997600000, 0.689999997600000, 0.689999997600000 );
#398 = CARTESIAN_POINT( '', ( 3.00000000000000, -0.899999999999995, -6.94190175672344 ) );
#399 = CARTESIAN_POINT( '', ( 80.0000000000000, -0.899999999999995, -6.94190175672344 ) );
#400 = VECTOR( '', #461, 1000.00000000000 );
#401 = CARTESIAN_POINT( '', ( 3.00000000000000, 0.900000000000005, -6.94190175672344 ) );
#402 = AXIS2_PLACEMENT_3D( '', #462, #463, #464 );
#403 = CARTESIAN_POINT( '', ( 1.22700000000001, 0.900000000000010, -6.94190175672344 ) );
#404 = CARTESIAN_POINT( '', ( 80.0000000000000, 0.900000000000005, -6.94190175672344 ) );
#405 = VECTOR( '', #465, 1000.00000000000 );
#406 = CARTESIAN_POINT( '', ( 1.22700000000001, 0.900000000000010, 6.94190175672344 ) );
#407 = AXIS2_PLACEMENT_3D( '', #466, #467, #468 );
#408 = CARTESIAN_POINT( '', ( 3.00000000000000, 0.900000000000005, 6.94190175672344 ) );
#409 = CARTESIAN_POINT( '', ( 80.0000000000000, 0.900000000000005, 6.94190175672344 ) );
#410 = VECTOR( '', #469, 1000.00000000000 );
#411 = CARTESIAN_POINT( '', ( 3.00000000000000, -0.899999999999995, 6.94190175672344 ) );
#412 = AXIS2_PLACEMENT_3D( '', #470, #471, #472 );
#413 = CARTESIAN_POINT( '', ( 80.0000000000000, -0.899999999999995, 6.94190175672344 ) );
#414 = VECTOR( '', #473, 1000.00000000000 );
#415 = COLOUR_RGB( '', 0.689999997600000, 0.689999997600000, 0.689999997600000 );
#416 = CARTESIAN_POINT( '', ( 3.00000000000000, -0.899999999999995, -10.5000000000000 ) );
#417 = VECTOR( '', #474, 1000.00000000000 );
#418 = CARTESIAN_POINT( '', ( 3.00000000000000, 0.900000000000005, 10.5000000000000 ) );
#419 = VECTOR( '', #475, 1000.00000000000 );
#420 = COLOUR_RGB( '', 0.689999997600000, 0.689999997600000, 0.689999997600000 );
#421 = CARTESIAN_POINT( '', ( 78.3466297046986, 5.00000000000000, 0.000000000000000 ) );
#422 = AXIS2_PLACEMENT_3D( '', #476, #477, #478 );
#423 = COLOUR_RGB( '', 0.689999997600000, 0.689999997600000, 0.689999997600000 );
#424 = CARTESIAN_POINT( '', ( -1.21839675801512E-15, 0.900000000000005, 5.70241431325364 ) );
#425 = CARTESIAN_POINT( '', ( 0.408551604172655, 0.900000000000005, 6.11602305532749 ) );
#426 = CARTESIAN_POINT( '', ( 0.817630928954744, 0.900000000000005, 6.52910658938455 ) );
#427 = CARTESIAN_POINT( '', ( 1.22700000000001, 0.900000000000005, 6.94190175672344 ) );
#428 = CARTESIAN_POINT( '', ( 1.22700000000000, 0.900000000000005, -6.94190175672345 ) );
#429 = CARTESIAN_POINT( '', ( 0.817629976282233, 0.900000000000005, -6.52910562873893 ) );
#430 = CARTESIAN_POINT( '', ( 0.408550449058582, 0.900000000000005, -6.11602188591518 ) );
#431 = CARTESIAN_POINT( '', ( -5.77320782364035E-15, 0.900000000000005, -5.70241431325365 ) );
#432 = COLOUR_RGB( '', 0.689999997600000, 0.689999997600000, 0.689999997600000 );
#433 = CARTESIAN_POINT( '', ( 0.000000000000000, -0.899999999999995, -10.5000000000000 ) );
#434 = VECTOR( '', #479, 1000.00000000000 );
#435 = COLOUR_RGB( '', 0.689999997600000, 0.689999997600000, 0.689999997600000 );
#436 = COLOUR_RGB( '', 0.689999997600000, 0.689999997600000, 0.689999997600000 );
#437 = COLOUR_RGB( '', 0.689999997600000, 0.689999997600000, 0.689999997600000 );
#438 = COLOUR_RGB( '', 0.689999997600000, 0.689999997600000, 0.689999997600000 );
#439 = CARTESIAN_POINT( '', ( 0.000000000000000, 4.89858719658941E-15, 0.000000000000000 ) );
#440 = DIRECTION( '', ( 1.00000000000000, -6.12323399573677E-17, -0.000000000000000 ) );
#441 = DIRECTION( '', ( 6.12323399573677E-17, 1.00000000000000, 0.000000000000000 ) );
#442 = DIRECTION( '', ( 0.000000000000000, 0.000000000000000, -1.00000000000000 ) );
#443 = CARTESIAN_POINT( '', ( 75.0000000000000, 3.06161699786839E-16, 0.000000000000000 ) );
#444 = DIRECTION( '', ( 1.00000000000000, -6.12323399573677E-17, -0.000000000000000 ) );
#445 = DIRECTION( '', ( 6.12323399573677E-17, 1.00000000000000, 0.000000000000000 ) );
#446 = CARTESIAN_POINT( '', ( 75.0000000000000, 3.06161699786839E-16, 0.000000000000000 ) );
#447 = DIRECTION( '', ( 1.00000000000000, -6.12323399573676E-17, -0.000000000000000 ) );
#448 = DIRECTION( '', ( 6.12323399573676E-17, 1.00000000000000, 0.000000000000000 ) );
#449 = CARTESIAN_POINT( '', ( 1.22700000000001, 4.82345511546172E-15, 0.000000000000000 ) );
#450 = DIRECTION( '', ( 1.00000000000000, -6.12323399573677E-17, -0.000000000000000 ) );
#451 = DIRECTION( '', ( 6.12323399573677E-17, 1.00000000000000, 0.000000000000000 ) );
#452 = CARTESIAN_POINT( '', ( 0.000000000000000, 4.89858719658941E-15, 0.000000000000000 ) );
#453 = DIRECTION( '', ( 1.00000000000000, -6.12323399573677E-17, -0.000000000000000 ) );
#454 = DIRECTION( '', ( 6.12323399573677E-17, 1.00000000000000, 0.000000000000000 ) );
#455 = CARTESIAN_POINT( '', ( 69.1547600000000, 6.64079422599242E-16, 0.000000000000000 ) );
#456 = DIRECTION( '', ( 1.00000000000000, -6.12323399573676E-17, -0.000000000000000 ) );
#457 = DIRECTION( '', ( 6.12323399573676E-17, 1.00000000000000, 0.000000000000000 ) );
#458 = CARTESIAN_POINT( '', ( 68.0000000000000, 7.34788079488413E-16, 0.000000000000000 ) );
#459 = DIRECTION( '', ( 1.00000000000000, -6.12323399573677E-17, -0.000000000000000 ) );
#460 = DIRECTION( '', ( 6.12323399573677E-17, 1.00000000000000, 0.000000000000000 ) );
#461 = DIRECTION( '', ( 1.00000000000000, -6.12323399573677E-17, -0.000000000000000 ) );
#462 = CARTESIAN_POINT( '', ( 3.00000000000000, 4.71489017671731E-15, 0.000000000000000 ) );
#463 = DIRECTION( '', ( -1.00000000000000, 0.000000000000000, 0.000000000000000 ) );
#464 = DIRECTION( '', ( 0.000000000000000, 0.000000000000000, 1.00000000000000 ) );
#465 = DIRECTION( '', ( 1.00000000000000, -6.12323399573677E-17, -0.000000000000000 ) );
#466 = CARTESIAN_POINT( '', ( 1.22700000000001, 4.82345511546172E-15, 0.000000000000000 ) );
#467 = DIRECTION( '', ( 1.00000000000000, -6.12323399573677E-17, -0.000000000000000 ) );
#468 = DIRECTION( '', ( 6.12323399573677E-17, 1.00000000000000, 0.000000000000000 ) );
#469 = DIRECTION( '', ( 1.00000000000000, -6.12323399573677E-17, -0.000000000000000 ) );
#470 = CARTESIAN_POINT( '', ( 3.00000000000000, 4.71489017671731E-15, 0.000000000000000 ) );
#471 = DIRECTION( '', ( -1.00000000000000, 0.000000000000000, 0.000000000000000 ) );
#472 = DIRECTION( '', ( 0.000000000000000, 0.000000000000000, 1.00000000000000 ) );
#473 = DIRECTION( '', ( 1.00000000000000, -6.12323399573677E-17, -0.000000000000000 ) );
#474 = DIRECTION( '', ( 0.000000000000000, 0.000000000000000, 1.00000000000000 ) );
#475 = DIRECTION( '', ( 0.000000000000000, 0.000000000000000, -1.00000000000000 ) );
#476 = CARTESIAN_POINT( '', ( 78.3466297046986, 1.01239731997306E-16, 0.000000000000000 ) );
#477 = DIRECTION( '', ( 1.00000000000000, -6.12323399573677E-17, -0.000000000000000 ) );
#478 = DIRECTION( '', ( 6.12323399573677E-17, 1.00000000000000, 0.000000000000000 ) );
#479 = DIRECTION( '', ( 0.000000000000000, 0.000000000000000, 1.00000000000000 ) );
ENDSEC;
END-ISO-10303-21;
