ISO-10303-21;
HEADER;
FILE_DESCRIPTION( ( 'STEP AP214' ), '1' );
FILE_NAME( '//goodhand-server/Shared Folders/GoodHand Data/Kipp CAD/K0760/K0760.245.stp', '2020-12-10T08:52:18', ( '' ), ( '' ), ' ', 'PARTsolutions', ' ' );
FILE_SCHEMA( ( 'AUTOMOTIVE_DESIGN { 1 0 10303 214 1 1 1 1 }' ) );
ENDSEC;
DATA;
#1 = MECHANICAL_DESIGN_GEOMETRIC_PRESENTATION_REPRESENTATION( ' ', ( #10, #11, #12, #13, #14, #15, #16, #17, #18, #19, #20, #21, #22, #23, #24 ), #6 );
#2 = PRODUCT_DEFINITION_CONTEXT( '', #25, 'design' );
#3 = APPLICATION_PROTOCOL_DEFINITION( 'international standard', 'automotive_design', 2001, #25 );
#4 = PRODUCT_CATEGORY_RELATIONSHIP( 'NONE', 'NONE', #26, #27 );
#5 = SHAPE_DEFINITION_REPRESENTATION( #28, #29 );
#6 =  ( GEOMETRIC_REPRESENTATION_CONTEXT( 3 )GLOBAL_UNCERTAINTY_ASSIGNED_CONTEXT( ( #32 ) )GLOBAL_UNIT_ASSIGNED_CONTEXT( ( #34, #35, #36 ) )REPRESENTATION_CONTEXT( 'NONE', 'WORKSPACE' ) );
#10 = STYLED_ITEM( '', ( #38 ), #39 );
#11 = STYLED_ITEM( '', ( #40 ), #41 );
#12 = STYLED_ITEM( '', ( #42 ), #43 );
#13 = STYLED_ITEM( '', ( #44 ), #45 );
#14 = STYLED_ITEM( '', ( #46 ), #47 );
#15 = STYLED_ITEM( '', ( #48 ), #49 );
#16 = STYLED_ITEM( '', ( #50 ), #51 );
#17 = STYLED_ITEM( '', ( #52 ), #53 );
#18 = STYLED_ITEM( '', ( #54 ), #55 );
#19 = STYLED_ITEM( '', ( #56 ), #57 );
#20 = STYLED_ITEM( '', ( #58 ), #59 );
#21 = STYLED_ITEM( '', ( #60 ), #61 );
#22 = STYLED_ITEM( '', ( #62 ), #63 );
#23 = STYLED_ITEM( '', ( #64 ), #65 );
#24 = STYLED_ITEM( '', ( #66 ), #67 );
#25 = APPLICATION_CONTEXT( 'core data for automotive mechanical design processes' );
#26 = PRODUCT_CATEGORY( 'part', 'NONE' );
#27 = PRODUCT_RELATED_PRODUCT_CATEGORY( 'detail', ' ', ( #68 ) );
#28 = PRODUCT_DEFINITION_SHAPE( 'NONE', 'NONE', #69 );
#29 = ADVANCED_BREP_SHAPE_REPRESENTATION( '_K0760.245', ( #70, #71 ), #6 );
#32 = UNCERTAINTY_MEASURE_WITH_UNIT( LENGTH_MEASURE( 0.00100000000000000 ), #34, '', '' );
#34 =  ( CONVERSION_BASED_UNIT( 'MILLIMETRE', #74 )LENGTH_UNIT(  )NAMED_UNIT( #77 ) );
#35 =  ( NAMED_UNIT( #79 )PLANE_ANGLE_UNIT(  )SI_UNIT( $, .RADIAN. ) );
#36 =  ( NAMED_UNIT( #79 )SI_UNIT( $, .STERADIAN. )SOLID_ANGLE_UNIT(  ) );
#38 = PRESENTATION_STYLE_ASSIGNMENT( ( #85 ) );
#39 = ADVANCED_FACE( '', ( #86, #87 ), #88, .T. );
#40 = PRESENTATION_STYLE_ASSIGNMENT( ( #89 ) );
#41 = ADVANCED_FACE( '', ( #90, #91 ), #92, .T. );
#42 = PRESENTATION_STYLE_ASSIGNMENT( ( #93 ) );
#43 = ADVANCED_FACE( '', ( #94, #95 ), #96, .T. );
#44 = PRESENTATION_STYLE_ASSIGNMENT( ( #97 ) );
#45 = ADVANCED_FACE( '', ( #98, #99 ), #100, .T. );
#46 = PRESENTATION_STYLE_ASSIGNMENT( ( #101 ) );
#47 = ADVANCED_FACE( '', ( #102, #103 ), #104, .F. );
#48 = PRESENTATION_STYLE_ASSIGNMENT( ( #105 ) );
#49 = ADVANCED_FACE( '', ( #106, #107 ), #108, .T. );
#50 = PRESENTATION_STYLE_ASSIGNMENT( ( #109 ) );
#51 = ADVANCED_FACE( '', ( #110 ), #111, .F. );
#52 = PRESENTATION_STYLE_ASSIGNMENT( ( #112 ) );
#53 = ADVANCED_FACE( '', ( #113, #114 ), #115, .F. );
#54 = PRESENTATION_STYLE_ASSIGNMENT( ( #116 ) );
#55 = ADVANCED_FACE( '', ( #117, #118 ), #119, .T. );
#56 = PRESENTATION_STYLE_ASSIGNMENT( ( #120 ) );
#57 = ADVANCED_FACE( '', ( #121, #122 ), #123, .T. );
#58 = PRESENTATION_STYLE_ASSIGNMENT( ( #124 ) );
#59 = ADVANCED_FACE( '', ( #125, #126 ), #127, .F. );
#60 = PRESENTATION_STYLE_ASSIGNMENT( ( #128 ) );
#61 = ADVANCED_FACE( '', ( #129, #130 ), #131, .T. );
#62 = PRESENTATION_STYLE_ASSIGNMENT( ( #132 ) );
#63 = ADVANCED_FACE( '', ( #133, #134 ), #135, .F. );
#64 = PRESENTATION_STYLE_ASSIGNMENT( ( #136 ) );
#65 = ADVANCED_FACE( '', ( #137, #138 ), #139, .T. );
#66 = PRESENTATION_STYLE_ASSIGNMENT( ( #140 ) );
#67 = ADVANCED_FACE( '', ( #141, #142 ), #143, .F. );
#68 = PRODUCT( '_K0760.245', '_K0760.245', 'PART-_K0760.245-DESC', ( #144 ) );
#69 = PRODUCT_DEFINITION( 'NONE', 'NONE', #145, #2 );
#70 = MANIFOLD_SOLID_BREP( '_K0760.245', #146 );
#71 = AXIS2_PLACEMENT_3D( '', #147, #148, #149 );
#74 = LENGTH_MEASURE_WITH_UNIT( LENGTH_MEASURE( 1.00000000000000 ), #150 );
#77 = DIMENSIONAL_EXPONENTS( 1.00000000000000, 0.000000000000000, 0.000000000000000, 0.000000000000000, 0.000000000000000, 0.000000000000000, 0.000000000000000 );
#79 = DIMENSIONAL_EXPONENTS( 0.000000000000000, 0.000000000000000, 0.000000000000000, 0.000000000000000, 0.000000000000000, 0.000000000000000, 0.000000000000000 );
#85 = SURFACE_STYLE_USAGE( .BOTH., #151 );
#86 = FACE_BOUND( '', #152, .T. );
#87 = FACE_OUTER_BOUND( '', #153, .T. );
#88 = SPHERICAL_SURFACE( '', #154, 22.2600000000000 );
#89 = SURFACE_STYLE_USAGE( .BOTH., #155 );
#90 = FACE_OUTER_BOUND( '', #156, .T. );
#91 = FACE_OUTER_BOUND( '', #157, .T. );
#92 = TOROIDAL_SURFACE( '', #158, 26.9080000000000, 4.09200000000000 );
#93 = SURFACE_STYLE_USAGE( .BOTH., #159 );
#94 = FACE_OUTER_BOUND( '', #160, .T. );
#95 = FACE_OUTER_BOUND( '', #161, .T. );
#96 = TOROIDAL_SURFACE( '', #162, 35.6400000000000, 1.86000000000000 );
#97 = SURFACE_STYLE_USAGE( .BOTH., #163 );
#98 = FACE_OUTER_BOUND( '', #164, .T. );
#99 = FACE_OUTER_BOUND( '', #165, .T. );
#100 = TOROIDAL_SURFACE( '', #166, 19.0346727208000, 2.22500000000000 );
#101 = SURFACE_STYLE_USAGE( .BOTH., #167 );
#102 = FACE_OUTER_BOUND( '', #168, .T. );
#103 = FACE_BOUND( '', #169, .T. );
#104 = PLANE( '', #170 );
#105 = SURFACE_STYLE_USAGE( .BOTH., #171 );
#106 = FACE_OUTER_BOUND( '', #172, .T. );
#107 = FACE_OUTER_BOUND( '', #173, .T. );
#108 = CYLINDRICAL_SURFACE( '', #174, 37.5000000000000 );
#109 = SURFACE_STYLE_USAGE( .BOTH., #175 );
#110 = FACE_OUTER_BOUND( '', #176, .T. );
#111 = PLANE( '', #177 );
#112 = SURFACE_STYLE_USAGE( .BOTH., #178 );
#113 = FACE_OUTER_BOUND( '', #179, .T. );
#114 = FACE_OUTER_BOUND( '', #180, .T. );
#115 = SPHERICAL_SURFACE( '', #181, 22.3000000000000 );
#116 = SURFACE_STYLE_USAGE( .BOTH., #182 );
#117 = FACE_OUTER_BOUND( '', #183, .T. );
#118 = FACE_OUTER_BOUND( '', #184, .T. );
#119 = TOROIDAL_SURFACE( '', #185, 18.7980584104000, 0.445000000000000 );
#120 = SURFACE_STYLE_USAGE( .BOTH., #186 );
#121 = FACE_OUTER_BOUND( '', #187, .T. );
#122 = FACE_BOUND( '', #188, .T. );
#123 = CONICAL_SURFACE( '', #189, 21.0512075469000, 0.436332313000000 );
#124 = SURFACE_STYLE_USAGE( .BOTH., #190 );
#125 = FACE_OUTER_BOUND( '', #191, .T. );
#126 = FACE_BOUND( '', #192, .T. );
#127 = PLANE( '', #193 );
#128 = SURFACE_STYLE_USAGE( .BOTH., #194 );
#129 = FACE_OUTER_BOUND( '', #195, .T. );
#130 = FACE_OUTER_BOUND( '', #196, .T. );
#131 = CYLINDRICAL_SURFACE( '', #197, 31.0000000000000 );
#132 = SURFACE_STYLE_USAGE( .BOTH., #198 );
#133 = FACE_OUTER_BOUND( '', #199, .T. );
#134 = FACE_OUTER_BOUND( '', #200, .T. );
#135 = TOROIDAL_SURFACE( '', #201, 24.1855376780000, 1.46850000000000 );
#136 = SURFACE_STYLE_USAGE( .BOTH., #202 );
#137 = FACE_OUTER_BOUND( '', #203, .T. );
#138 = FACE_OUTER_BOUND( '', #204, .T. );
#139 = TOROIDAL_SURFACE( '', #205, 35.6400000000000, 1.86000000000000 );
#140 = SURFACE_STYLE_USAGE( .BOTH., #206 );
#141 = FACE_BOUND( '', #207, .T. );
#142 = FACE_OUTER_BOUND( '', #208, .T. );
#143 = PLANE( '', #209 );
#144 = PRODUCT_CONTEXT( '', #25, 'mechanical' );
#145 = PRODUCT_DEFINITION_FORMATION_WITH_SPECIFIED_SOURCE( ' ', 'NONE', #68, .NOT_KNOWN. );
#146 = CLOSED_SHELL( '', ( #41, #51, #61, #53, #55, #47, #45, #57, #63, #59, #43, #49, #65, #67, #39 ) );
#147 = CARTESIAN_POINT( '', ( 0.000000000000000, 0.000000000000000, 0.000000000000000 ) );
#148 = DIRECTION( '', ( 0.000000000000000, 0.000000000000000, 1.00000000000000 ) );
#149 = DIRECTION( '', ( 1.00000000000000, 0.000000000000000, 0.000000000000000 ) );
#150 =  ( LENGTH_UNIT(  )NAMED_UNIT( #77 )SI_UNIT( .MILLI., .METRE. ) );
#151 = SURFACE_SIDE_STYLE( '', ( #211 ) );
#152 = VERTEX_LOOP( '', #212 );
#153 = EDGE_LOOP( '', ( #213 ) );
#154 = AXIS2_PLACEMENT_3D( '', #214, #215, #216 );
#155 = SURFACE_SIDE_STYLE( '', ( #217 ) );
#156 = EDGE_LOOP( '', ( #218 ) );
#157 = EDGE_LOOP( '', ( #219 ) );
#158 = AXIS2_PLACEMENT_3D( '', #220, #221, #222 );
#159 = SURFACE_SIDE_STYLE( '', ( #223 ) );
#160 = EDGE_LOOP( '', ( #224 ) );
#161 = EDGE_LOOP( '', ( #225 ) );
#162 = AXIS2_PLACEMENT_3D( '', #226, #227, #228 );
#163 = SURFACE_SIDE_STYLE( '', ( #229 ) );
#164 = EDGE_LOOP( '', ( #230 ) );
#165 = EDGE_LOOP( '', ( #231 ) );
#166 = AXIS2_PLACEMENT_3D( '', #232, #233, #234 );
#167 = SURFACE_SIDE_STYLE( '', ( #235 ) );
#168 = EDGE_LOOP( '', ( #236 ) );
#169 = EDGE_LOOP( '', ( #237 ) );
#170 = AXIS2_PLACEMENT_3D( '', #238, #239, #240 );
#171 = SURFACE_SIDE_STYLE( '', ( #241 ) );
#172 = EDGE_LOOP( '', ( #242 ) );
#173 = EDGE_LOOP( '', ( #243 ) );
#174 = AXIS2_PLACEMENT_3D( '', #244, #245, #246 );
#175 = SURFACE_SIDE_STYLE( '', ( #247 ) );
#176 = EDGE_LOOP( '', ( #248 ) );
#177 = AXIS2_PLACEMENT_3D( '', #249, #250, #251 );
#178 = SURFACE_SIDE_STYLE( '', ( #252 ) );
#179 = EDGE_LOOP( '', ( #253 ) );
#180 = EDGE_LOOP( '', ( #254 ) );
#181 = AXIS2_PLACEMENT_3D( '', #255, #256, #257 );
#182 = SURFACE_SIDE_STYLE( '', ( #258 ) );
#183 = EDGE_LOOP( '', ( #259 ) );
#184 = EDGE_LOOP( '', ( #260 ) );
#185 = AXIS2_PLACEMENT_3D( '', #261, #262, #263 );
#186 = SURFACE_SIDE_STYLE( '', ( #264 ) );
#187 = EDGE_LOOP( '', ( #265 ) );
#188 = EDGE_LOOP( '', ( #266 ) );
#189 = AXIS2_PLACEMENT_3D( '', #267, #268, #269 );
#190 = SURFACE_SIDE_STYLE( '', ( #270 ) );
#191 = EDGE_LOOP( '', ( #271 ) );
#192 = EDGE_LOOP( '', ( #272 ) );
#193 = AXIS2_PLACEMENT_3D( '', #273, #274, #275 );
#194 = SURFACE_SIDE_STYLE( '', ( #276 ) );
#195 = EDGE_LOOP( '', ( #277 ) );
#196 = EDGE_LOOP( '', ( #278 ) );
#197 = AXIS2_PLACEMENT_3D( '', #279, #280, #281 );
#198 = SURFACE_SIDE_STYLE( '', ( #282 ) );
#199 = EDGE_LOOP( '', ( #283 ) );
#200 = EDGE_LOOP( '', ( #284 ) );
#201 = AXIS2_PLACEMENT_3D( '', #285, #286, #287 );
#202 = SURFACE_SIDE_STYLE( '', ( #288 ) );
#203 = EDGE_LOOP( '', ( #289 ) );
#204 = EDGE_LOOP( '', ( #290 ) );
#205 = AXIS2_PLACEMENT_3D( '', #291, #292, #293 );
#206 = SURFACE_SIDE_STYLE( '', ( #294 ) );
#207 = EDGE_LOOP( '', ( #295 ) );
#208 = EDGE_LOOP( '', ( #296 ) );
#209 = AXIS2_PLACEMENT_3D( '', #297, #298, #299 );
#211 = SURFACE_STYLE_FILL_AREA( #300 );
#212 = VERTEX_POINT( '', #301 );
#213 = ORIENTED_EDGE( '', *, *, #302, .F. );
#214 = CARTESIAN_POINT( '', ( 3.46944695195361E-15, 31.2000000000000, 0.000000000000000 ) );
#215 = DIRECTION( '', ( 0.000000000000000, -1.00000000000000, 0.000000000000000 ) );
#216 = DIRECTION( '', ( -1.00000000000000, 0.000000000000000, 0.000000000000000 ) );
#217 = SURFACE_STYLE_FILL_AREA( #303 );
#218 = ORIENTED_EDGE( '', *, *, #304, .T. );
#219 = ORIENTED_EDGE( '', *, *, #305, .F. );
#220 = CARTESIAN_POINT( '', ( 0.000000000000000, 4.09200000000000, 0.000000000000000 ) );
#221 = DIRECTION( '', ( 0.000000000000000, -1.00000000000000, -0.000000000000000 ) );
#222 = DIRECTION( '', ( 0.000000000000000, 0.000000000000000, -1.00000000000000 ) );
#223 = SURFACE_STYLE_FILL_AREA( #306 );
#224 = ORIENTED_EDGE( '', *, *, #307, .T. );
#225 = ORIENTED_EDGE( '', *, *, #308, .F. );
#226 = CARTESIAN_POINT( '', ( 0.000000000000000, 36.6400000000000, 0.000000000000000 ) );
#227 = DIRECTION( '', ( 0.000000000000000, -1.00000000000000, -0.000000000000000 ) );
#228 = DIRECTION( '', ( 0.000000000000000, 0.000000000000000, -1.00000000000000 ) );
#229 = SURFACE_STYLE_FILL_AREA( #309 );
#230 = ORIENTED_EDGE( '', *, *, #310, .T. );
#231 = ORIENTED_EDGE( '', *, *, #311, .F. );
#232 = CARTESIAN_POINT( '', ( 0.000000000000000, 42.2750000000000, 0.000000000000000 ) );
#233 = DIRECTION( '', ( 0.000000000000000, -1.00000000000000, -0.000000000000000 ) );
#234 = DIRECTION( '', ( 0.000000000000000, 0.000000000000000, -1.00000000000000 ) );
#235 = SURFACE_STYLE_FILL_AREA( #312 );
#236 = ORIENTED_EDGE( '', *, *, #310, .F. );
#237 = ORIENTED_EDGE( '', *, *, #313, .T. );
#238 = CARTESIAN_POINT( '', ( 18.7980584103784, 44.5000000000000, 0.000000000000000 ) );
#239 = DIRECTION( '', ( 0.000000000000000, -1.00000000000000, -0.000000000000000 ) );
#240 = DIRECTION( '', ( 0.000000000000000, 0.000000000000000, -1.00000000000000 ) );
#241 = SURFACE_STYLE_FILL_AREA( #314 );
#242 = ORIENTED_EDGE( '', *, *, #315, .F. );
#243 = ORIENTED_EDGE( '', *, *, #308, .T. );
#244 = CARTESIAN_POINT( '', ( 0.000000000000000, 0.000000000000000, 0.000000000000000 ) );
#245 = DIRECTION( '', ( -0.000000000000000, 1.00000000000000, 0.000000000000000 ) );
#246 = DIRECTION( '', ( 0.000000000000000, 0.000000000000000, -1.00000000000000 ) );
#247 = SURFACE_STYLE_FILL_AREA( #316 );
#248 = ORIENTED_EDGE( '', *, *, #305, .T. );
#249 = CARTESIAN_POINT( '', ( 26.9080000000000, -4.33680868994202E-16, 0.000000000000000 ) );
#250 = DIRECTION( '', ( 0.000000000000000, 1.00000000000000, 0.000000000000000 ) );
#251 = DIRECTION( '', ( 0.000000000000000, -0.000000000000000, 1.00000000000000 ) );
#252 = SURFACE_STYLE_FILL_AREA( #317 );
#253 = ORIENTED_EDGE( '', *, *, #318, .F. );
#254 = ORIENTED_EDGE( '', *, *, #302, .T. );
#255 = CARTESIAN_POINT( '', ( 1.73472347597681E-14, 31.2500000000000, 0.000000000000000 ) );
#256 = DIRECTION( '', ( 0.000000000000000, -1.00000000000000, 0.000000000000000 ) );
#257 = DIRECTION( '', ( -1.00000000000000, 0.000000000000000, 0.000000000000000 ) );
#258 = SURFACE_STYLE_FILL_AREA( #319 );
#259 = ORIENTED_EDGE( '', *, *, #318, .T. );
#260 = ORIENTED_EDGE( '', *, *, #313, .F. );
#261 = CARTESIAN_POINT( '', ( 0.000000000000000, 44.0550000000000, 0.000000000000000 ) );
#262 = DIRECTION( '', ( 0.000000000000000, -1.00000000000000, -0.000000000000000 ) );
#263 = DIRECTION( '', ( 0.000000000000000, 0.000000000000000, -1.00000000000000 ) );
#264 = SURFACE_STYLE_FILL_AREA( #320 );
#265 = ORIENTED_EDGE( '', *, *, #321, .F. );
#266 = ORIENTED_EDGE( '', *, *, #311, .T. );
#267 = CARTESIAN_POINT( '', ( 0.000000000000000, 43.2153256323731, 0.000000000000000 ) );
#268 = DIRECTION( '', ( -0.000000000000000, -1.00000000000000, -0.000000000000000 ) );
#269 = DIRECTION( '', ( 0.000000000000000, 0.000000000000000, -1.00000000000000 ) );
#270 = SURFACE_STYLE_FILL_AREA( #322 );
#271 = ORIENTED_EDGE( '', *, *, #307, .F. );
#272 = ORIENTED_EDGE( '', *, *, #323, .T. );
#273 = CARTESIAN_POINT( '', ( 24.1855376779958, 38.5000000000000, 0.000000000000000 ) );
#274 = DIRECTION( '', ( 0.000000000000000, -1.00000000000000, -0.000000000000000 ) );
#275 = DIRECTION( '', ( 0.000000000000000, 0.000000000000000, -1.00000000000000 ) );
#276 = SURFACE_STYLE_FILL_AREA( #324 );
#277 = ORIENTED_EDGE( '', *, *, #304, .F. );
#278 = ORIENTED_EDGE( '', *, *, #325, .T. );
#279 = CARTESIAN_POINT( '', ( 0.000000000000000, 0.000000000000000, 0.000000000000000 ) );
#280 = DIRECTION( '', ( -0.000000000000000, 1.00000000000000, 0.000000000000000 ) );
#281 = DIRECTION( '', ( 0.000000000000000, 0.000000000000000, -1.00000000000000 ) );
#282 = SURFACE_STYLE_FILL_AREA( #326 );
#283 = ORIENTED_EDGE( '', *, *, #323, .F. );
#284 = ORIENTED_EDGE( '', *, *, #321, .T. );
#285 = CARTESIAN_POINT( '', ( 0.000000000000000, 39.9685000000000, 0.000000000000000 ) );
#286 = DIRECTION( '', ( 0.000000000000000, -1.00000000000000, -0.000000000000000 ) );
#287 = DIRECTION( '', ( 0.000000000000000, 0.000000000000000, -1.00000000000000 ) );
#288 = SURFACE_STYLE_FILL_AREA( #327 );
#289 = ORIENTED_EDGE( '', *, *, #315, .T. );
#290 = ORIENTED_EDGE( '', *, *, #328, .F. );
#291 = CARTESIAN_POINT( '', ( 0.000000000000000, 36.3600000000000, 0.000000000000000 ) );
#292 = DIRECTION( '', ( 0.000000000000000, -1.00000000000000, -0.000000000000000 ) );
#293 = DIRECTION( '', ( 0.000000000000000, 0.000000000000000, -1.00000000000000 ) );
#294 = SURFACE_STYLE_FILL_AREA( #329 );
#295 = ORIENTED_EDGE( '', *, *, #325, .F. );
#296 = ORIENTED_EDGE( '', *, *, #328, .T. );
#297 = CARTESIAN_POINT( '', ( 35.6400000000000, 34.5000000000000, 0.000000000000000 ) );
#298 = DIRECTION( '', ( 0.000000000000000, 1.00000000000000, 0.000000000000000 ) );
#299 = DIRECTION( '', ( 0.000000000000000, -0.000000000000000, 1.00000000000000 ) );
#300 = FILL_AREA_STYLE( '', ( #330 ) );
#301 = CARTESIAN_POINT( '', ( 2.10641506450261E-15, 53.4600000000000, 0.000000000000000 ) );
#302 = EDGE_CURVE( '', #331, #331, #332, .T. );
#303 = FILL_AREA_STYLE( '', ( #333 ) );
#304 = EDGE_CURVE( '', #334, #334, #335, .T. );
#305 = EDGE_CURVE( '', #336, #336, #337, .T. );
#306 = FILL_AREA_STYLE( '', ( #338 ) );
#307 = EDGE_CURVE( '', #339, #339, #340, .T. );
#308 = EDGE_CURVE( '', #341, #341, #342, .T. );
#309 = FILL_AREA_STYLE( '', ( #343 ) );
#310 = EDGE_CURVE( '', #344, #344, #345, .T. );
#311 = EDGE_CURVE( '', #346, #346, #347, .T. );
#312 = FILL_AREA_STYLE( '', ( #348 ) );
#313 = EDGE_CURVE( '', #349, #349, #350, .T. );
#314 = FILL_AREA_STYLE( '', ( #351 ) );
#315 = EDGE_CURVE( '', #352, #352, #353, .T. );
#316 = FILL_AREA_STYLE( '', ( #354 ) );
#317 = FILL_AREA_STYLE( '', ( #355 ) );
#318 = EDGE_CURVE( '', #356, #356, #357, .T. );
#319 = FILL_AREA_STYLE( '', ( #358 ) );
#320 = FILL_AREA_STYLE( '', ( #359 ) );
#321 = EDGE_CURVE( '', #360, #360, #361, .T. );
#322 = FILL_AREA_STYLE( '', ( #362 ) );
#323 = EDGE_CURVE( '', #363, #363, #364, .T. );
#324 = FILL_AREA_STYLE( '', ( #365 ) );
#325 = EDGE_CURVE( '', #366, #366, #367, .T. );
#326 = FILL_AREA_STYLE( '', ( #368 ) );
#327 = FILL_AREA_STYLE( '', ( #369 ) );
#328 = EDGE_CURVE( '', #370, #370, #371, .T. );
#329 = FILL_AREA_STYLE( '', ( #372 ) );
#330 = FILL_AREA_STYLE_COLOUR( '', #373 );
#331 = VERTEX_POINT( '', #374 );
#332 = CIRCLE( '', #375, 13.3679915844000 );
#333 = FILL_AREA_STYLE_COLOUR( '', #376 );
#334 = VERTEX_POINT( '', #377 );
#335 = CIRCLE( '', #378, 31.0000000000000 );
#336 = VERTEX_POINT( '', #379 );
#337 = CIRCLE( '', #380, 26.9080000000000 );
#338 = FILL_AREA_STYLE_COLOUR( '', #381 );
#339 = VERTEX_POINT( '', #382 );
#340 = CIRCLE( '', #383, 35.6400000000000 );
#341 = VERTEX_POINT( '', #384 );
#342 = CIRCLE( '', #385, 37.5000000000000 );
#343 = FILL_AREA_STYLE_COLOUR( '', #386 );
#344 = VERTEX_POINT( '', #387 );
#345 = CIRCLE( '', #388, 19.0346727208000 );
#346 = VERTEX_POINT( '', #389 );
#347 = CIRCLE( '', #390, 21.0512075469000 );
#348 = FILL_AREA_STYLE_COLOUR( '', #391 );
#349 = VERTEX_POINT( '', #392 );
#350 = CIRCLE( '', #393, 18.7980584104000 );
#351 = FILL_AREA_STYLE_COLOUR( '', #394 );
#352 = VERTEX_POINT( '', #395 );
#353 = CIRCLE( '', #396, 37.5000000000000 );
#354 = FILL_AREA_STYLE_COLOUR( '', #397 );
#355 = FILL_AREA_STYLE_COLOUR( '', #398 );
#356 = VERTEX_POINT( '', #399 );
#357 = CIRCLE( '', #400, 18.4302795269000 );
#358 = FILL_AREA_STYLE_COLOUR( '', #401 );
#359 = FILL_AREA_STYLE_COLOUR( '', #402 );
#360 = VERTEX_POINT( '', #403 );
#361 = CIRCLE( '', #404, 22.8546246927000 );
#362 = FILL_AREA_STYLE_COLOUR( '', #405 );
#363 = VERTEX_POINT( '', #406 );
#364 = CIRCLE( '', #407, 24.1855376780000 );
#365 = FILL_AREA_STYLE_COLOUR( '', #408 );
#366 = VERTEX_POINT( '', #409 );
#367 = CIRCLE( '', #410, 31.0000000000000 );
#368 = FILL_AREA_STYLE_COLOUR( '', #411 );
#369 = FILL_AREA_STYLE_COLOUR( '', #412 );
#370 = VERTEX_POINT( '', #413 );
#371 = CIRCLE( '', #414, 35.6400000000000 );
#372 = FILL_AREA_STYLE_COLOUR( '', #415 );
#373 = COLOUR_RGB( '', 0.689999997600000, 0.689999997600000, 0.689999997600000 );
#374 = CARTESIAN_POINT( '', ( 13.3679915843718, 13.4009999999953, 0.000000000000000 ) );
#375 = AXIS2_PLACEMENT_3D( '', #416, #417, #418 );
#376 = COLOUR_RGB( '', 0.689999997600000, 0.689999997600000, 0.689999997600000 );
#377 = CARTESIAN_POINT( '', ( 0.000000000000000, 4.09200000000000, -31.0000000000000 ) );
#378 = AXIS2_PLACEMENT_3D( '', #419, #420, #421 );
#379 = CARTESIAN_POINT( '', ( 0.000000000000000, -8.67361737988404E-16, -26.9080000000000 ) );
#380 = AXIS2_PLACEMENT_3D( '', #422, #423, #424 );
#381 = COLOUR_RGB( '', 0.689999997600000, 0.689999997600000, 0.689999997600000 );
#382 = CARTESIAN_POINT( '', ( 0.000000000000000, 38.5000000000000, -35.6400000000000 ) );
#383 = AXIS2_PLACEMENT_3D( '', #425, #426, #427 );
#384 = CARTESIAN_POINT( '', ( 0.000000000000000, 36.6400000000000, -37.5000000000000 ) );
#385 = AXIS2_PLACEMENT_3D( '', #428, #429, #430 );
#386 = COLOUR_RGB( '', 0.689999997600000, 0.689999997600000, 0.689999997600000 );
#387 = CARTESIAN_POINT( '', ( 0.000000000000000, 44.5000000000000, -19.0346727207733 ) );
#388 = AXIS2_PLACEMENT_3D( '', #431, #432, #433 );
#389 = CARTESIAN_POINT( '', ( 0.000000000000000, 43.2153256323731, -21.0512075469299 ) );
#390 = AXIS2_PLACEMENT_3D( '', #434, #435, #436 );
#391 = COLOUR_RGB( '', 0.689999997600000, 0.689999997600000, 0.689999997600000 );
#392 = CARTESIAN_POINT( '', ( 0.000000000000000, 44.5000000000000, -18.7980584103784 ) );
#393 = AXIS2_PLACEMENT_3D( '', #437, #438, #439 );
#394 = COLOUR_RGB( '', 0.689999997600000, 0.689999997600000, 0.689999997600000 );
#395 = CARTESIAN_POINT( '', ( 0.000000000000000, 36.3600000000000, -37.5000000000000 ) );
#396 = AXIS2_PLACEMENT_3D( '', #440, #441, #442 );
#397 = COLOUR_RGB( '', 0.689999997600000, 0.689999997600000, 0.689999997600000 );
#398 = COLOUR_RGB( '', 0.689999997600000, 0.689999997600000, 0.689999997600000 );
#399 = CARTESIAN_POINT( '', ( 0.000000000000000, 43.8044731693684, -18.4302795268984 ) );
#400 = AXIS2_PLACEMENT_3D( '', #443, #444, #445 );
#401 = COLOUR_RGB( '', 0.689999997600000, 0.689999997600000, 0.689999997600000 );
#402 = COLOUR_RGB( '', 0.689999997600000, 0.689999997600000, 0.689999997600000 );
#403 = CARTESIAN_POINT( '', ( 0.000000000000000, 39.3478850826338, -22.8546246927325 ) );
#404 = AXIS2_PLACEMENT_3D( '', #446, #447, #448 );
#405 = COLOUR_RGB( '', 0.689999997600000, 0.689999997600000, 0.689999997600000 );
#406 = CARTESIAN_POINT( '', ( 0.000000000000000, 38.5000000000000, -24.1855376779958 ) );
#407 = AXIS2_PLACEMENT_3D( '', #449, #450, #451 );
#408 = COLOUR_RGB( '', 0.689999997600000, 0.689999997600000, 0.689999997600000 );
#409 = CARTESIAN_POINT( '', ( 0.000000000000000, 34.5000000000000, -31.0000000000000 ) );
#410 = AXIS2_PLACEMENT_3D( '', #452, #453, #454 );
#411 = COLOUR_RGB( '', 0.689999997600000, 0.689999997600000, 0.689999997600000 );
#412 = COLOUR_RGB( '', 0.689999997600000, 0.689999997600000, 0.689999997600000 );
#413 = CARTESIAN_POINT( '', ( 0.000000000000000, 34.5000000000000, -35.6400000000000 ) );
#414 = AXIS2_PLACEMENT_3D( '', #455, #456, #457 );
#415 = COLOUR_RGB( '', 0.689999997600000, 0.689999997600000, 0.689999997600000 );
#416 = CARTESIAN_POINT( '', ( 0.000000000000000, 13.4009999999991, 0.000000000000000 ) );
#417 = DIRECTION( '', ( -2.77555756156339E-13, -1.00000000000000, 0.000000000000000 ) );
#418 = DIRECTION( '', ( 1.00000000000000, -2.77555756156339E-13, 0.000000000000000 ) );
#419 = CARTESIAN_POINT( '', ( 0.000000000000000, 4.09200000000000, 0.000000000000000 ) );
#420 = DIRECTION( '', ( 0.000000000000000, -1.00000000000000, -0.000000000000000 ) );
#421 = DIRECTION( '', ( 0.000000000000000, 0.000000000000000, -1.00000000000000 ) );
#422 = CARTESIAN_POINT( '', ( 0.000000000000000, -8.67361737988404E-16, 0.000000000000000 ) );
#423 = DIRECTION( '', ( 0.000000000000000, -1.00000000000000, -0.000000000000000 ) );
#424 = DIRECTION( '', ( 0.000000000000000, 0.000000000000000, -1.00000000000000 ) );
#425 = CARTESIAN_POINT( '', ( 0.000000000000000, 38.5000000000000, 0.000000000000000 ) );
#426 = DIRECTION( '', ( 0.000000000000000, -1.00000000000000, -0.000000000000000 ) );
#427 = DIRECTION( '', ( 0.000000000000000, 0.000000000000000, -1.00000000000000 ) );
#428 = CARTESIAN_POINT( '', ( 0.000000000000000, 36.6400000000000, 0.000000000000000 ) );
#429 = DIRECTION( '', ( 0.000000000000000, -1.00000000000000, -0.000000000000000 ) );
#430 = DIRECTION( '', ( 0.000000000000000, 0.000000000000000, -1.00000000000000 ) );
#431 = CARTESIAN_POINT( '', ( 0.000000000000000, 44.5000000000000, 0.000000000000000 ) );
#432 = DIRECTION( '', ( 0.000000000000000, -1.00000000000000, -0.000000000000000 ) );
#433 = DIRECTION( '', ( 0.000000000000000, 0.000000000000000, -1.00000000000000 ) );
#434 = CARTESIAN_POINT( '', ( 0.000000000000000, 43.2153256323731, 0.000000000000000 ) );
#435 = DIRECTION( '', ( 0.000000000000000, -1.00000000000000, -0.000000000000000 ) );
#436 = DIRECTION( '', ( 0.000000000000000, 0.000000000000000, -1.00000000000000 ) );
#437 = CARTESIAN_POINT( '', ( 0.000000000000000, 44.5000000000000, 0.000000000000000 ) );
#438 = DIRECTION( '', ( 0.000000000000000, -1.00000000000000, -0.000000000000000 ) );
#439 = DIRECTION( '', ( 0.000000000000000, 0.000000000000000, -1.00000000000000 ) );
#440 = CARTESIAN_POINT( '', ( 0.000000000000000, 36.3600000000000, 0.000000000000000 ) );
#441 = DIRECTION( '', ( 0.000000000000000, -1.00000000000000, -0.000000000000000 ) );
#442 = DIRECTION( '', ( 0.000000000000000, 0.000000000000000, -1.00000000000000 ) );
#443 = CARTESIAN_POINT( '', ( 0.000000000000000, 43.8044731693684, 0.000000000000000 ) );
#444 = DIRECTION( '', ( 0.000000000000000, -1.00000000000000, -0.000000000000000 ) );
#445 = DIRECTION( '', ( 0.000000000000000, 0.000000000000000, -1.00000000000000 ) );
#446 = CARTESIAN_POINT( '', ( 0.000000000000000, 39.3478850826338, 0.000000000000000 ) );
#447 = DIRECTION( '', ( 0.000000000000000, -1.00000000000000, -0.000000000000000 ) );
#448 = DIRECTION( '', ( 0.000000000000000, 0.000000000000000, -1.00000000000000 ) );
#449 = CARTESIAN_POINT( '', ( 0.000000000000000, 38.5000000000000, 0.000000000000000 ) );
#450 = DIRECTION( '', ( 0.000000000000000, -1.00000000000000, -0.000000000000000 ) );
#451 = DIRECTION( '', ( 0.000000000000000, 0.000000000000000, -1.00000000000000 ) );
#452 = CARTESIAN_POINT( '', ( 0.000000000000000, 34.5000000000000, 0.000000000000000 ) );
#453 = DIRECTION( '', ( 0.000000000000000, -1.00000000000000, -0.000000000000000 ) );
#454 = DIRECTION( '', ( 0.000000000000000, 0.000000000000000, -1.00000000000000 ) );
#455 = CARTESIAN_POINT( '', ( 0.000000000000000, 34.5000000000000, 0.000000000000000 ) );
#456 = DIRECTION( '', ( 0.000000000000000, -1.00000000000000, -0.000000000000000 ) );
#457 = DIRECTION( '', ( 0.000000000000000, 0.000000000000000, -1.00000000000000 ) );
ENDSEC;
END-ISO-10303-21;
