ISO-10303-21;
HEADER;
FILE_DESCRIPTION( ( 'STEP AP214' ), '1' );
FILE_NAME( '//goodhand-server/Shared Folders/GoodHand Data/Kipp CAD/K0757/K0757.100010X1000.stp', '2020-12-10T08:49:49', ( '' ), ( '' ), ' ', 'PARTsolutions', ' ' );
FILE_SCHEMA( ( 'AUTOMOTIVE_DESIGN { 1 0 10303 214 1 1 1 1 }' ) );
ENDSEC;
DATA;
#1 = MECHANICAL_DESIGN_GEOMETRIC_PRESENTATION_REPRESENTATION( ' ', ( #10, #11, #12, #13, #14, #15, #16, #17, #18, #19, #20 ), #6 );
#2 = PRODUCT_DEFINITION_CONTEXT( '', #21, 'design' );
#3 = APPLICATION_PROTOCOL_DEFINITION( 'international standard', 'automotive_design', 2001, #21 );
#4 = PRODUCT_CATEGORY_RELATIONSHIP( 'NONE', 'NONE', #22, #23 );
#5 = SHAPE_DEFINITION_REPRESENTATION( #24, #25 );
#6 =  ( GEOMETRIC_REPRESENTATION_CONTEXT( 3 )GLOBAL_UNCERTAINTY_ASSIGNED_CONTEXT( ( #28 ) )GLOBAL_UNIT_ASSIGNED_CONTEXT( ( #30, #31, #32 ) )REPRESENTATION_CONTEXT( 'NONE', 'WORKSPACE' ) );
#10 = STYLED_ITEM( '', ( #34 ), #35 );
#11 = STYLED_ITEM( '', ( #36 ), #37 );
#12 = STYLED_ITEM( '', ( #38 ), #39 );
#13 = STYLED_ITEM( '', ( #40 ), #41 );
#14 = STYLED_ITEM( '', ( #42 ), #43 );
#15 = STYLED_ITEM( '', ( #44 ), #45 );
#16 = STYLED_ITEM( '', ( #46 ), #47 );
#17 = STYLED_ITEM( '', ( #48 ), #49 );
#18 = STYLED_ITEM( '', ( #50 ), #51 );
#19 = STYLED_ITEM( '', ( #52 ), #53 );
#20 = STYLED_ITEM( '', ( #54 ), #55 );
#21 = APPLICATION_CONTEXT( 'core data for automotive mechanical design processes' );
#22 = PRODUCT_CATEGORY( 'part', 'NONE' );
#23 = PRODUCT_RELATED_PRODUCT_CATEGORY( 'detail', ' ', ( #56 ) );
#24 = PRODUCT_DEFINITION_SHAPE( 'NONE', 'NONE', #57 );
#25 = ADVANCED_BREP_SHAPE_REPRESENTATION( '_K0757.100010X1000', ( #58, #59 ), #6 );
#28 = UNCERTAINTY_MEASURE_WITH_UNIT( LENGTH_MEASURE( 0.00100000000000000 ), #30, '', '' );
#30 =  ( CONVERSION_BASED_UNIT( 'MILLIMETRE', #62 )LENGTH_UNIT(  )NAMED_UNIT( #65 ) );
#31 =  ( NAMED_UNIT( #67 )PLANE_ANGLE_UNIT(  )SI_UNIT( $, .RADIAN. ) );
#32 =  ( NAMED_UNIT( #67 )SI_UNIT( $, .STERADIAN. )SOLID_ANGLE_UNIT(  ) );
#34 = PRESENTATION_STYLE_ASSIGNMENT( ( #73 ) );
#35 = ADVANCED_FACE( '', ( #74, #75 ), #76, .F. );
#36 = PRESENTATION_STYLE_ASSIGNMENT( ( #77 ) );
#37 = ADVANCED_FACE( '', ( #78 ), #79, .F. );
#38 = PRESENTATION_STYLE_ASSIGNMENT( ( #80 ) );
#39 = ADVANCED_FACE( '', ( #81, #82 ), #83, .F. );
#40 = PRESENTATION_STYLE_ASSIGNMENT( ( #84 ) );
#41 = ADVANCED_FACE( '', ( #85, #86 ), #87, .F. );
#42 = PRESENTATION_STYLE_ASSIGNMENT( ( #88 ) );
#43 = ADVANCED_FACE( '', ( #89, #90, #91, #92, #93, #94 ), #95, .T. );
#44 = PRESENTATION_STYLE_ASSIGNMENT( ( #96 ) );
#45 = ADVANCED_FACE( '', ( #97, #98, #99, #100, #101, #102 ), #103, .F. );
#46 = PRESENTATION_STYLE_ASSIGNMENT( ( #104 ) );
#47 = ADVANCED_FACE( '', ( #105 ), #106, .F. );
#48 = PRESENTATION_STYLE_ASSIGNMENT( ( #107 ) );
#49 = ADVANCED_FACE( '', ( #108, #109 ), #110, .F. );
#50 = PRESENTATION_STYLE_ASSIGNMENT( ( #111 ) );
#51 = ADVANCED_FACE( '', ( #112 ), #113, .F. );
#52 = PRESENTATION_STYLE_ASSIGNMENT( ( #114 ) );
#53 = ADVANCED_FACE( '', ( #115, #116 ), #117, .F. );
#54 = PRESENTATION_STYLE_ASSIGNMENT( ( #118 ) );
#55 = ADVANCED_FACE( '', ( #119 ), #120, .F. );
#56 = PRODUCT( '_K0757.100010X1000', '_K0757.100010X1000', 'PART-_K0757.100010X1000-DESC', ( #121 ) );
#57 = PRODUCT_DEFINITION( 'NONE', 'NONE', #122, #2 );
#58 = MANIFOLD_SOLID_BREP( '_K0757.100010X1000', #123 );
#59 = AXIS2_PLACEMENT_3D( '', #124, #125, #126 );
#62 = LENGTH_MEASURE_WITH_UNIT( LENGTH_MEASURE( 1.00000000000000 ), #127 );
#65 = DIMENSIONAL_EXPONENTS( 1.00000000000000, 0.000000000000000, 0.000000000000000, 0.000000000000000, 0.000000000000000, 0.000000000000000, 0.000000000000000 );
#67 = DIMENSIONAL_EXPONENTS( 0.000000000000000, 0.000000000000000, 0.000000000000000, 0.000000000000000, 0.000000000000000, 0.000000000000000, 0.000000000000000 );
#73 = SURFACE_STYLE_USAGE( .BOTH., #128 );
#74 = FACE_BOUND( '', #129, .T. );
#75 = FACE_OUTER_BOUND( '', #130, .T. );
#76 = CONICAL_SURFACE( '', #131, 4.05000000000000, 0.785398163400000 );
#77 = SURFACE_STYLE_USAGE( .BOTH., #132 );
#78 = FACE_OUTER_BOUND( '', #133, .T. );
#79 = PLANE( '', #134 );
#80 = SURFACE_STYLE_USAGE( .BOTH., #135 );
#81 = FACE_BOUND( '', #136, .T. );
#82 = FACE_OUTER_BOUND( '', #137, .T. );
#83 = CONICAL_SURFACE( '', #138, 4.05000000000000, 0.785398163400000 );
#84 = SURFACE_STYLE_USAGE( .BOTH., #139 );
#85 = FACE_BOUND( '', #140, .T. );
#86 = FACE_OUTER_BOUND( '', #141, .T. );
#87 = CONICAL_SURFACE( '', #142, 4.05000000000000, 0.785398163400000 );
#88 = SURFACE_STYLE_USAGE( .BOTH., #143 );
#89 = FACE_BOUND( '', #144, .T. );
#90 = FACE_BOUND( '', #145, .T. );
#91 = FACE_BOUND( '', #146, .T. );
#92 = FACE_BOUND( '', #147, .T. );
#93 = FACE_BOUND( '', #148, .T. );
#94 = FACE_OUTER_BOUND( '', #149, .T. );
#95 = PLANE( '', #150 );
#96 = SURFACE_STYLE_USAGE( .BOTH., #151 );
#97 = FACE_BOUND( '', #152, .T. );
#98 = FACE_BOUND( '', #153, .T. );
#99 = FACE_BOUND( '', #154, .T. );
#100 = FACE_BOUND( '', #155, .T. );
#101 = FACE_BOUND( '', #156, .T. );
#102 = FACE_OUTER_BOUND( '', #157, .T. );
#103 = PLANE( '', #158 );
#104 = SURFACE_STYLE_USAGE( .BOTH., #159 );
#105 = FACE_OUTER_BOUND( '', #160, .T. );
#106 = PLANE( '', #161 );
#107 = SURFACE_STYLE_USAGE( .BOTH., #162 );
#108 = FACE_BOUND( '', #163, .T. );
#109 = FACE_OUTER_BOUND( '', #164, .T. );
#110 = CONICAL_SURFACE( '', #165, 4.05000000000000, 0.785398163400000 );
#111 = SURFACE_STYLE_USAGE( .BOTH., #166 );
#112 = FACE_OUTER_BOUND( '', #167, .T. );
#113 = PLANE( '', #168 );
#114 = SURFACE_STYLE_USAGE( .BOTH., #169 );
#115 = FACE_BOUND( '', #170, .T. );
#116 = FACE_OUTER_BOUND( '', #171, .T. );
#117 = CONICAL_SURFACE( '', #172, 4.05000000000000, 0.785398163400000 );
#118 = SURFACE_STYLE_USAGE( .BOTH., #173 );
#119 = FACE_OUTER_BOUND( '', #174, .T. );
#120 = PLANE( '', #175 );
#121 = PRODUCT_CONTEXT( '', #21, 'mechanical' );
#122 = PRODUCT_DEFINITION_FORMATION_WITH_SPECIFIED_SOURCE( ' ', 'NONE', #56, .NOT_KNOWN. );
#123 = CLOSED_SHELL( '', ( #45, #39, #43, #37, #47, #55, #51, #35, #53, #41, #49 ) );
#124 = CARTESIAN_POINT( '', ( 0.000000000000000, 0.000000000000000, 0.000000000000000 ) );
#125 = DIRECTION( '', ( 0.000000000000000, 0.000000000000000, 1.00000000000000 ) );
#126 = DIRECTION( '', ( 1.00000000000000, 0.000000000000000, 0.000000000000000 ) );
#127 =  ( LENGTH_UNIT(  )NAMED_UNIT( #65 )SI_UNIT( .MILLI., .METRE. ) );
#128 = SURFACE_SIDE_STYLE( '', ( #177 ) );
#129 = EDGE_LOOP( '', ( #178 ) );
#130 = EDGE_LOOP( '', ( #179 ) );
#131 = AXIS2_PLACEMENT_3D( '', #180, #181, #182 );
#132 = SURFACE_SIDE_STYLE( '', ( #183 ) );
#133 = EDGE_LOOP( '', ( #184, #185, #186, #187 ) );
#134 = AXIS2_PLACEMENT_3D( '', #188, #189, #190 );
#135 = SURFACE_SIDE_STYLE( '', ( #191 ) );
#136 = EDGE_LOOP( '', ( #192 ) );
#137 = EDGE_LOOP( '', ( #193 ) );
#138 = AXIS2_PLACEMENT_3D( '', #194, #195, #196 );
#139 = SURFACE_SIDE_STYLE( '', ( #197 ) );
#140 = EDGE_LOOP( '', ( #198 ) );
#141 = EDGE_LOOP( '', ( #199 ) );
#142 = AXIS2_PLACEMENT_3D( '', #200, #201, #202 );
#143 = SURFACE_SIDE_STYLE( '', ( #203 ) );
#144 = EDGE_LOOP( '', ( #204 ) );
#145 = EDGE_LOOP( '', ( #205 ) );
#146 = EDGE_LOOP( '', ( #206 ) );
#147 = EDGE_LOOP( '', ( #207 ) );
#148 = EDGE_LOOP( '', ( #208 ) );
#149 = EDGE_LOOP( '', ( #209, #210, #211, #212 ) );
#150 = AXIS2_PLACEMENT_3D( '', #213, #214, #215 );
#151 = SURFACE_SIDE_STYLE( '', ( #216 ) );
#152 = EDGE_LOOP( '', ( #217 ) );
#153 = EDGE_LOOP( '', ( #218 ) );
#154 = EDGE_LOOP( '', ( #219 ) );
#155 = EDGE_LOOP( '', ( #220 ) );
#156 = EDGE_LOOP( '', ( #221 ) );
#157 = EDGE_LOOP( '', ( #222, #223, #224, #225 ) );
#158 = AXIS2_PLACEMENT_3D( '', #226, #227, #228 );
#159 = SURFACE_SIDE_STYLE( '', ( #229 ) );
#160 = EDGE_LOOP( '', ( #230, #231, #232, #233 ) );
#161 = AXIS2_PLACEMENT_3D( '', #234, #235, #236 );
#162 = SURFACE_SIDE_STYLE( '', ( #237 ) );
#163 = EDGE_LOOP( '', ( #238 ) );
#164 = EDGE_LOOP( '', ( #239 ) );
#165 = AXIS2_PLACEMENT_3D( '', #240, #241, #242 );
#166 = SURFACE_SIDE_STYLE( '', ( #243 ) );
#167 = EDGE_LOOP( '', ( #244, #245, #246, #247 ) );
#168 = AXIS2_PLACEMENT_3D( '', #248, #249, #250 );
#169 = SURFACE_SIDE_STYLE( '', ( #251 ) );
#170 = EDGE_LOOP( '', ( #252 ) );
#171 = EDGE_LOOP( '', ( #253 ) );
#172 = AXIS2_PLACEMENT_3D( '', #254, #255, #256 );
#173 = SURFACE_SIDE_STYLE( '', ( #257 ) );
#174 = EDGE_LOOP( '', ( #258, #259, #260, #261 ) );
#175 = AXIS2_PLACEMENT_3D( '', #262, #263, #264 );
#177 = SURFACE_STYLE_FILL_AREA( #265 );
#178 = ORIENTED_EDGE( '', *, *, #266, .T. );
#179 = ORIENTED_EDGE( '', *, *, #267, .F. );
#180 = CARTESIAN_POINT( '', ( 990.000000000000, 7.50000000000000, 2.00000000000000 ) );
#181 = DIRECTION( '', ( 0.000000000000000, -0.000000000000000, 1.00000000000000 ) );
#182 = DIRECTION( '', ( 1.00000000000000, 0.000000000000000, -0.000000000000000 ) );
#183 = SURFACE_STYLE_FILL_AREA( #268 );
#184 = ORIENTED_EDGE( '', *, *, #269, .T. );
#185 = ORIENTED_EDGE( '', *, *, #270, .F. );
#186 = ORIENTED_EDGE( '', *, *, #271, .F. );
#187 = ORIENTED_EDGE( '', *, *, #272, .T. );
#188 = CARTESIAN_POINT( '', ( 1010.00000000000, 0.000000000000000, 2.00000000000000 ) );
#189 = DIRECTION( '', ( -1.00000000000000, 0.000000000000000, 0.000000000000000 ) );
#190 = DIRECTION( '', ( 0.000000000000000, 0.000000000000000, 1.00000000000000 ) );
#191 = SURFACE_STYLE_FILL_AREA( #273 );
#192 = ORIENTED_EDGE( '', *, *, #274, .T. );
#193 = ORIENTED_EDGE( '', *, *, #275, .F. );
#194 = CARTESIAN_POINT( '', ( 10.0000000000000, 7.50000000000000, 2.00000000000000 ) );
#195 = DIRECTION( '', ( 0.000000000000000, -0.000000000000000, 1.00000000000000 ) );
#196 = DIRECTION( '', ( 1.00000000000000, 0.000000000000000, -0.000000000000000 ) );
#197 = SURFACE_STYLE_FILL_AREA( #276 );
#198 = ORIENTED_EDGE( '', *, *, #277, .T. );
#199 = ORIENTED_EDGE( '', *, *, #278, .F. );
#200 = CARTESIAN_POINT( '', ( 510.000000000000, 7.50000000000000, 2.00000000000000 ) );
#201 = DIRECTION( '', ( 0.000000000000000, -0.000000000000000, 1.00000000000000 ) );
#202 = DIRECTION( '', ( 1.00000000000000, 0.000000000000000, -0.000000000000000 ) );
#203 = SURFACE_STYLE_FILL_AREA( #279 );
#204 = ORIENTED_EDGE( '', *, *, #280, .T. );
#205 = ORIENTED_EDGE( '', *, *, #278, .T. );
#206 = ORIENTED_EDGE( '', *, *, #281, .T. );
#207 = ORIENTED_EDGE( '', *, *, #267, .T. );
#208 = ORIENTED_EDGE( '', *, *, #275, .T. );
#209 = ORIENTED_EDGE( '', *, *, #282, .T. );
#210 = ORIENTED_EDGE( '', *, *, #283, .T. );
#211 = ORIENTED_EDGE( '', *, *, #284, .T. );
#212 = ORIENTED_EDGE( '', *, *, #271, .T. );
#213 = CARTESIAN_POINT( '', ( 0.000000000000000, 0.000000000000000, 2.00000000000000 ) );
#214 = DIRECTION( '', ( 0.000000000000000, 0.000000000000000, 1.00000000000000 ) );
#215 = DIRECTION( '', ( 1.00000000000000, 0.000000000000000, -0.000000000000000 ) );
#216 = SURFACE_STYLE_FILL_AREA( #285 );
#217 = ORIENTED_EDGE( '', *, *, #286, .F. );
#218 = ORIENTED_EDGE( '', *, *, #277, .F. );
#219 = ORIENTED_EDGE( '', *, *, #287, .F. );
#220 = ORIENTED_EDGE( '', *, *, #266, .F. );
#221 = ORIENTED_EDGE( '', *, *, #274, .F. );
#222 = ORIENTED_EDGE( '', *, *, #288, .F. );
#223 = ORIENTED_EDGE( '', *, *, #269, .F. );
#224 = ORIENTED_EDGE( '', *, *, #289, .F. );
#225 = ORIENTED_EDGE( '', *, *, #290, .F. );
#226 = CARTESIAN_POINT( '', ( 0.000000000000000, 0.000000000000000, 0.000000000000000 ) );
#227 = DIRECTION( '', ( 0.000000000000000, 0.000000000000000, 1.00000000000000 ) );
#228 = DIRECTION( '', ( 1.00000000000000, 0.000000000000000, -0.000000000000000 ) );
#229 = SURFACE_STYLE_FILL_AREA( #291 );
#230 = ORIENTED_EDGE( '', *, *, #288, .T. );
#231 = ORIENTED_EDGE( '', *, *, #292, .F. );
#232 = ORIENTED_EDGE( '', *, *, #282, .F. );
#233 = ORIENTED_EDGE( '', *, *, #270, .T. );
#234 = CARTESIAN_POINT( '', ( 1010.00000000000, 15.0000000000000, 2.00000000000000 ) );
#235 = DIRECTION( '', ( 0.000000000000000, -1.00000000000000, 0.000000000000000 ) );
#236 = DIRECTION( '', ( 0.000000000000000, 0.000000000000000, -1.00000000000000 ) );
#237 = SURFACE_STYLE_FILL_AREA( #293 );
#238 = ORIENTED_EDGE( '', *, *, #286, .T. );
#239 = ORIENTED_EDGE( '', *, *, #280, .F. );
#240 = CARTESIAN_POINT( '', ( 760.000000000000, 7.50000000000000, 2.00000000000000 ) );
#241 = DIRECTION( '', ( 0.000000000000000, -0.000000000000000, 1.00000000000000 ) );
#242 = DIRECTION( '', ( 1.00000000000000, 0.000000000000000, -0.000000000000000 ) );
#243 = SURFACE_STYLE_FILL_AREA( #294 );
#244 = ORIENTED_EDGE( '', *, *, #289, .T. );
#245 = ORIENTED_EDGE( '', *, *, #272, .F. );
#246 = ORIENTED_EDGE( '', *, *, #284, .F. );
#247 = ORIENTED_EDGE( '', *, *, #295, .T. );
#248 = CARTESIAN_POINT( '', ( 0.000000000000000, 0.000000000000000, 2.00000000000000 ) );
#249 = DIRECTION( '', ( 0.000000000000000, 1.00000000000000, 0.000000000000000 ) );
#250 = DIRECTION( '', ( 0.000000000000000, -0.000000000000000, 1.00000000000000 ) );
#251 = SURFACE_STYLE_FILL_AREA( #296 );
#252 = ORIENTED_EDGE( '', *, *, #287, .T. );
#253 = ORIENTED_EDGE( '', *, *, #281, .F. );
#254 = CARTESIAN_POINT( '', ( 260.000000000000, 7.50000000000000, 2.00000000000000 ) );
#255 = DIRECTION( '', ( 0.000000000000000, -0.000000000000000, 1.00000000000000 ) );
#256 = DIRECTION( '', ( 1.00000000000000, 0.000000000000000, -0.000000000000000 ) );
#257 = SURFACE_STYLE_FILL_AREA( #297 );
#258 = ORIENTED_EDGE( '', *, *, #290, .T. );
#259 = ORIENTED_EDGE( '', *, *, #295, .F. );
#260 = ORIENTED_EDGE( '', *, *, #283, .F. );
#261 = ORIENTED_EDGE( '', *, *, #292, .T. );
#262 = CARTESIAN_POINT( '', ( 0.000000000000000, 15.0000000000000, 2.00000000000000 ) );
#263 = DIRECTION( '', ( 1.00000000000000, 0.000000000000000, -0.000000000000000 ) );
#264 = DIRECTION( '', ( -0.000000000000000, 0.000000000000000, -1.00000000000000 ) );
#265 = FILL_AREA_STYLE( '', ( #298 ) );
#266 = EDGE_CURVE( '', #299, #299, #300, .T. );
#267 = EDGE_CURVE( '', #301, #301, #302, .T. );
#268 = FILL_AREA_STYLE( '', ( #303 ) );
#269 = EDGE_CURVE( '', #304, #305, #306, .T. );
#270 = EDGE_CURVE( '', #307, #305, #308, .T. );
#271 = EDGE_CURVE( '', #309, #307, #310, .T. );
#272 = EDGE_CURVE( '', #309, #304, #311, .T. );
#273 = FILL_AREA_STYLE( '', ( #312 ) );
#274 = EDGE_CURVE( '', #313, #313, #314, .T. );
#275 = EDGE_CURVE( '', #315, #315, #316, .T. );
#276 = FILL_AREA_STYLE( '', ( #317 ) );
#277 = EDGE_CURVE( '', #318, #318, #319, .T. );
#278 = EDGE_CURVE( '', #320, #320, #321, .T. );
#279 = FILL_AREA_STYLE( '', ( #322 ) );
#280 = EDGE_CURVE( '', #323, #323, #324, .T. );
#281 = EDGE_CURVE( '', #325, #325, #326, .T. );
#282 = EDGE_CURVE( '', #307, #327, #328, .T. );
#283 = EDGE_CURVE( '', #327, #329, #330, .T. );
#284 = EDGE_CURVE( '', #329, #309, #331, .T. );
#285 = FILL_AREA_STYLE( '', ( #332 ) );
#286 = EDGE_CURVE( '', #333, #333, #334, .T. );
#287 = EDGE_CURVE( '', #335, #335, #336, .T. );
#288 = EDGE_CURVE( '', #305, #337, #338, .T. );
#289 = EDGE_CURVE( '', #339, #304, #340, .T. );
#290 = EDGE_CURVE( '', #337, #339, #341, .T. );
#291 = FILL_AREA_STYLE( '', ( #342 ) );
#292 = EDGE_CURVE( '', #327, #337, #343, .T. );
#293 = FILL_AREA_STYLE( '', ( #344 ) );
#294 = FILL_AREA_STYLE( '', ( #345 ) );
#295 = EDGE_CURVE( '', #329, #339, #346, .T. );
#296 = FILL_AREA_STYLE( '', ( #347 ) );
#297 = FILL_AREA_STYLE( '', ( #348 ) );
#298 = FILL_AREA_STYLE_COLOUR( '', #349 );
#299 = VERTEX_POINT( '', #350 );
#300 = CIRCLE( '', #351, 2.05000000000000 );
#301 = VERTEX_POINT( '', #352 );
#302 = CIRCLE( '', #353, 4.05000000000000 );
#303 = FILL_AREA_STYLE_COLOUR( '', #354 );
#304 = VERTEX_POINT( '', #355 );
#305 = VERTEX_POINT( '', #356 );
#306 = LINE( '', #357, #358 );
#307 = VERTEX_POINT( '', #359 );
#308 = LINE( '', #360, #361 );
#309 = VERTEX_POINT( '', #362 );
#310 = LINE( '', #363, #364 );
#311 = LINE( '', #365, #366 );
#312 = FILL_AREA_STYLE_COLOUR( '', #367 );
#313 = VERTEX_POINT( '', #368 );
#314 = CIRCLE( '', #369, 2.05000000000000 );
#315 = VERTEX_POINT( '', #370 );
#316 = CIRCLE( '', #371, 4.05000000000000 );
#317 = FILL_AREA_STYLE_COLOUR( '', #372 );
#318 = VERTEX_POINT( '', #373 );
#319 = CIRCLE( '', #374, 2.05000000000000 );
#320 = VERTEX_POINT( '', #375 );
#321 = CIRCLE( '', #376, 4.05000000000000 );
#322 = FILL_AREA_STYLE_COLOUR( '', #377 );
#323 = VERTEX_POINT( '', #378 );
#324 = CIRCLE( '', #379, 4.05000000000000 );
#325 = VERTEX_POINT( '', #380 );
#326 = CIRCLE( '', #381, 4.05000000000000 );
#327 = VERTEX_POINT( '', #382 );
#328 = LINE( '', #383, #384 );
#329 = VERTEX_POINT( '', #385 );
#330 = LINE( '', #386, #387 );
#331 = LINE( '', #388, #389 );
#332 = FILL_AREA_STYLE_COLOUR( '', #390 );
#333 = VERTEX_POINT( '', #391 );
#334 = CIRCLE( '', #392, 2.05000000000000 );
#335 = VERTEX_POINT( '', #393 );
#336 = CIRCLE( '', #394, 2.05000000000000 );
#337 = VERTEX_POINT( '', #395 );
#338 = LINE( '', #396, #397 );
#339 = VERTEX_POINT( '', #398 );
#340 = LINE( '', #399, #400 );
#341 = LINE( '', #401, #402 );
#342 = FILL_AREA_STYLE_COLOUR( '', #403 );
#343 = LINE( '', #404, #405 );
#344 = FILL_AREA_STYLE_COLOUR( '', #406 );
#345 = FILL_AREA_STYLE_COLOUR( '', #407 );
#346 = LINE( '', #408, #409 );
#347 = FILL_AREA_STYLE_COLOUR( '', #410 );
#348 = FILL_AREA_STYLE_COLOUR( '', #411 );
#349 = COLOUR_RGB( '', 0.689999997600000, 0.689999997600000, 0.689999997600000 );
#350 = CARTESIAN_POINT( '', ( 987.950000000000, 7.50000000000000, 0.000000000000000 ) );
#351 = AXIS2_PLACEMENT_3D( '', #412, #413, #414 );
#352 = CARTESIAN_POINT( '', ( 985.950000000000, 7.50000000000000, 2.00000000000000 ) );
#353 = AXIS2_PLACEMENT_3D( '', #415, #416, #417 );
#354 = COLOUR_RGB( '', 0.689999997600000, 0.689999997600000, 0.689999997600000 );
#355 = CARTESIAN_POINT( '', ( 1010.00000000000, 0.000000000000000, 0.000000000000000 ) );
#356 = CARTESIAN_POINT( '', ( 1010.00000000000, 15.0000000000000, 0.000000000000000 ) );
#357 = CARTESIAN_POINT( '', ( 1010.00000000000, 0.000000000000000, 0.000000000000000 ) );
#358 = VECTOR( '', #418, 1000.00000000000 );
#359 = CARTESIAN_POINT( '', ( 1010.00000000000, 15.0000000000000, 2.00000000000000 ) );
#360 = CARTESIAN_POINT( '', ( 1010.00000000000, 15.0000000000000, 2.00000000000000 ) );
#361 = VECTOR( '', #419, 1000.00000000000 );
#362 = CARTESIAN_POINT( '', ( 1010.00000000000, 0.000000000000000, 2.00000000000000 ) );
#363 = CARTESIAN_POINT( '', ( 1010.00000000000, 0.000000000000000, 2.00000000000000 ) );
#364 = VECTOR( '', #420, 1000.00000000000 );
#365 = CARTESIAN_POINT( '', ( 1010.00000000000, 0.000000000000000, 2.00000000000000 ) );
#366 = VECTOR( '', #421, 1000.00000000000 );
#367 = COLOUR_RGB( '', 0.689999997600000, 0.689999997600000, 0.689999997600000 );
#368 = CARTESIAN_POINT( '', ( 7.95000000000000, 7.50000000000000, 0.000000000000000 ) );
#369 = AXIS2_PLACEMENT_3D( '', #422, #423, #424 );
#370 = CARTESIAN_POINT( '', ( 5.95000000000000, 7.50000000000000, 2.00000000000000 ) );
#371 = AXIS2_PLACEMENT_3D( '', #425, #426, #427 );
#372 = COLOUR_RGB( '', 0.689999997600000, 0.689999997600000, 0.689999997600000 );
#373 = CARTESIAN_POINT( '', ( 507.950000000000, 7.50000000000000, 0.000000000000000 ) );
#374 = AXIS2_PLACEMENT_3D( '', #428, #429, #430 );
#375 = CARTESIAN_POINT( '', ( 505.950000000000, 7.50000000000000, 2.00000000000000 ) );
#376 = AXIS2_PLACEMENT_3D( '', #431, #432, #433 );
#377 = COLOUR_RGB( '', 0.689999997600000, 0.689999997600000, 0.689999997600000 );
#378 = CARTESIAN_POINT( '', ( 755.950000000000, 7.50000000000000, 2.00000000000000 ) );
#379 = AXIS2_PLACEMENT_3D( '', #434, #435, #436 );
#380 = CARTESIAN_POINT( '', ( 255.950000000000, 7.50000000000000, 2.00000000000000 ) );
#381 = AXIS2_PLACEMENT_3D( '', #437, #438, #439 );
#382 = CARTESIAN_POINT( '', ( 0.000000000000000, 15.0000000000000, 2.00000000000000 ) );
#383 = CARTESIAN_POINT( '', ( 1010.00000000000, 15.0000000000000, 2.00000000000000 ) );
#384 = VECTOR( '', #440, 1000.00000000000 );
#385 = CARTESIAN_POINT( '', ( 0.000000000000000, 0.000000000000000, 2.00000000000000 ) );
#386 = CARTESIAN_POINT( '', ( 0.000000000000000, 15.0000000000000, 2.00000000000000 ) );
#387 = VECTOR( '', #441, 1000.00000000000 );
#388 = CARTESIAN_POINT( '', ( 0.000000000000000, 0.000000000000000, 2.00000000000000 ) );
#389 = VECTOR( '', #442, 1000.00000000000 );
#390 = COLOUR_RGB( '', 0.689999997600000, 0.689999997600000, 0.689999997600000 );
#391 = CARTESIAN_POINT( '', ( 757.950000000000, 7.50000000000000, 0.000000000000000 ) );
#392 = AXIS2_PLACEMENT_3D( '', #443, #444, #445 );
#393 = CARTESIAN_POINT( '', ( 257.950000000000, 7.50000000000000, 0.000000000000000 ) );
#394 = AXIS2_PLACEMENT_3D( '', #446, #447, #448 );
#395 = CARTESIAN_POINT( '', ( 0.000000000000000, 15.0000000000000, 0.000000000000000 ) );
#396 = CARTESIAN_POINT( '', ( 1010.00000000000, 15.0000000000000, 0.000000000000000 ) );
#397 = VECTOR( '', #449, 1000.00000000000 );
#398 = CARTESIAN_POINT( '', ( 0.000000000000000, 0.000000000000000, 0.000000000000000 ) );
#399 = CARTESIAN_POINT( '', ( 0.000000000000000, 0.000000000000000, 0.000000000000000 ) );
#400 = VECTOR( '', #450, 1000.00000000000 );
#401 = CARTESIAN_POINT( '', ( 0.000000000000000, 15.0000000000000, 0.000000000000000 ) );
#402 = VECTOR( '', #451, 1000.00000000000 );
#403 = COLOUR_RGB( '', 0.689999997600000, 0.689999997600000, 0.689999997600000 );
#404 = CARTESIAN_POINT( '', ( 0.000000000000000, 15.0000000000000, 2.00000000000000 ) );
#405 = VECTOR( '', #452, 1000.00000000000 );
#406 = COLOUR_RGB( '', 0.689999997600000, 0.689999997600000, 0.689999997600000 );
#407 = COLOUR_RGB( '', 0.689999997600000, 0.689999997600000, 0.689999997600000 );
#408 = CARTESIAN_POINT( '', ( 0.000000000000000, 0.000000000000000, 2.00000000000000 ) );
#409 = VECTOR( '', #453, 1000.00000000000 );
#410 = COLOUR_RGB( '', 0.689999997600000, 0.689999997600000, 0.689999997600000 );
#411 = COLOUR_RGB( '', 0.689999997600000, 0.689999997600000, 0.689999997600000 );
#412 = CARTESIAN_POINT( '', ( 990.000000000000, 7.50000000000000, 0.000000000000000 ) );
#413 = DIRECTION( '', ( -0.000000000000000, 0.000000000000000, -1.00000000000000 ) );
#414 = DIRECTION( '', ( -1.00000000000000, 0.000000000000000, 0.000000000000000 ) );
#415 = CARTESIAN_POINT( '', ( 990.000000000000, 7.50000000000000, 2.00000000000000 ) );
#416 = DIRECTION( '', ( -0.000000000000000, 0.000000000000000, -1.00000000000000 ) );
#417 = DIRECTION( '', ( -1.00000000000000, 0.000000000000000, 0.000000000000000 ) );
#418 = DIRECTION( '', ( 0.000000000000000, 1.00000000000000, 0.000000000000000 ) );
#419 = DIRECTION( '', ( -0.000000000000000, -0.000000000000000, -1.00000000000000 ) );
#420 = DIRECTION( '', ( 0.000000000000000, 1.00000000000000, 0.000000000000000 ) );
#421 = DIRECTION( '', ( -0.000000000000000, -0.000000000000000, -1.00000000000000 ) );
#422 = CARTESIAN_POINT( '', ( 10.0000000000000, 7.50000000000000, 0.000000000000000 ) );
#423 = DIRECTION( '', ( -0.000000000000000, 0.000000000000000, -1.00000000000000 ) );
#424 = DIRECTION( '', ( -1.00000000000000, 0.000000000000000, 0.000000000000000 ) );
#425 = CARTESIAN_POINT( '', ( 10.0000000000000, 7.50000000000000, 2.00000000000000 ) );
#426 = DIRECTION( '', ( -0.000000000000000, 0.000000000000000, -1.00000000000000 ) );
#427 = DIRECTION( '', ( -1.00000000000000, 0.000000000000000, 0.000000000000000 ) );
#428 = CARTESIAN_POINT( '', ( 510.000000000000, 7.50000000000000, 0.000000000000000 ) );
#429 = DIRECTION( '', ( -0.000000000000000, 0.000000000000000, -1.00000000000000 ) );
#430 = DIRECTION( '', ( -1.00000000000000, 0.000000000000000, 0.000000000000000 ) );
#431 = CARTESIAN_POINT( '', ( 510.000000000000, 7.50000000000000, 2.00000000000000 ) );
#432 = DIRECTION( '', ( -0.000000000000000, 0.000000000000000, -1.00000000000000 ) );
#433 = DIRECTION( '', ( -1.00000000000000, 0.000000000000000, 0.000000000000000 ) );
#434 = CARTESIAN_POINT( '', ( 760.000000000000, 7.50000000000000, 2.00000000000000 ) );
#435 = DIRECTION( '', ( -0.000000000000000, 0.000000000000000, -1.00000000000000 ) );
#436 = DIRECTION( '', ( -1.00000000000000, 0.000000000000000, 0.000000000000000 ) );
#437 = CARTESIAN_POINT( '', ( 260.000000000000, 7.50000000000000, 2.00000000000000 ) );
#438 = DIRECTION( '', ( -0.000000000000000, 0.000000000000000, -1.00000000000000 ) );
#439 = DIRECTION( '', ( -1.00000000000000, 0.000000000000000, 0.000000000000000 ) );
#440 = DIRECTION( '', ( -1.00000000000000, 0.000000000000000, 0.000000000000000 ) );
#441 = DIRECTION( '', ( 0.000000000000000, -1.00000000000000, 0.000000000000000 ) );
#442 = DIRECTION( '', ( 1.00000000000000, 0.000000000000000, 0.000000000000000 ) );
#443 = CARTESIAN_POINT( '', ( 760.000000000000, 7.50000000000000, 0.000000000000000 ) );
#444 = DIRECTION( '', ( -0.000000000000000, 0.000000000000000, -1.00000000000000 ) );
#445 = DIRECTION( '', ( -1.00000000000000, 0.000000000000000, 0.000000000000000 ) );
#446 = CARTESIAN_POINT( '', ( 260.000000000000, 7.50000000000000, 0.000000000000000 ) );
#447 = DIRECTION( '', ( -0.000000000000000, 0.000000000000000, -1.00000000000000 ) );
#448 = DIRECTION( '', ( -1.00000000000000, 0.000000000000000, 0.000000000000000 ) );
#449 = DIRECTION( '', ( -1.00000000000000, 0.000000000000000, 0.000000000000000 ) );
#450 = DIRECTION( '', ( 1.00000000000000, 0.000000000000000, 0.000000000000000 ) );
#451 = DIRECTION( '', ( 0.000000000000000, -1.00000000000000, 0.000000000000000 ) );
#452 = DIRECTION( '', ( -0.000000000000000, -0.000000000000000, -1.00000000000000 ) );
#453 = DIRECTION( '', ( -0.000000000000000, -0.000000000000000, -1.00000000000000 ) );
ENDSEC;
END-ISO-10303-21;
