ISO-10303-21;
HEADER;
FILE_DESCRIPTION( ( 'STEP AP214' ), '1' );
FILE_NAME( '//goodhand-server/Shared Folders/GoodHand Data/Kipp CAD/K0391/K0391.10X65.stp', '2020-12-07T10:17:35', ( '' ), ( '' ), ' ', 'PARTsolutions', ' ' );
FILE_SCHEMA( ( 'AUTOMOTIVE_DESIGN { 1 0 10303 214 1 1 1 1 }' ) );
ENDSEC;
DATA;
#1 = MECHANICAL_DESIGN_GEOMETRIC_PRESENTATION_REPRESENTATION( ' ', ( #10, #11, #12, #13, #14, #15, #16, #17, #18, #19, #20, #21, #22 ), #6 );
#2 = PRODUCT_DEFINITION_CONTEXT( '', #23, 'design' );
#3 = APPLICATION_PROTOCOL_DEFINITION( 'international standard', 'automotive_design', 2001, #23 );
#4 = PRODUCT_CATEGORY_RELATIONSHIP( 'NONE', 'NONE', #24, #25 );
#5 = SHAPE_DEFINITION_REPRESENTATION( #26, #27 );
#6 =  ( GEOMETRIC_REPRESENTATION_CONTEXT( 3 )GLOBAL_UNCERTAINTY_ASSIGNED_CONTEXT( ( #30 ) )GLOBAL_UNIT_ASSIGNED_CONTEXT( ( #32, #33, #34 ) )REPRESENTATION_CONTEXT( 'NONE', 'WORKSPACE' ) );
#10 = STYLED_ITEM( '', ( #36 ), #37 );
#11 = STYLED_ITEM( '', ( #38 ), #39 );
#12 = STYLED_ITEM( '', ( #40 ), #41 );
#13 = STYLED_ITEM( '', ( #42 ), #43 );
#14 = STYLED_ITEM( '', ( #44 ), #45 );
#15 = STYLED_ITEM( '', ( #46 ), #47 );
#16 = STYLED_ITEM( '', ( #48 ), #49 );
#17 = STYLED_ITEM( '', ( #50 ), #51 );
#18 = STYLED_ITEM( '', ( #52 ), #53 );
#19 = STYLED_ITEM( '', ( #54 ), #55 );
#20 = STYLED_ITEM( '', ( #56 ), #57 );
#21 = STYLED_ITEM( '', ( #58 ), #59 );
#22 = STYLED_ITEM( '', ( #60 ), #61 );
#23 = APPLICATION_CONTEXT( 'core data for automotive mechanical design processes' );
#24 = PRODUCT_CATEGORY( 'part', 'NONE' );
#25 = PRODUCT_RELATED_PRODUCT_CATEGORY( 'detail', ' ', ( #62 ) );
#26 = PRODUCT_DEFINITION_SHAPE( 'NONE', 'NONE', #63 );
#27 = ADVANCED_BREP_SHAPE_REPRESENTATION( '_K0391.10X65', ( #64, #65 ), #6 );
#30 = UNCERTAINTY_MEASURE_WITH_UNIT( LENGTH_MEASURE( 0.00100000000000000 ), #32, '', '' );
#32 =  ( CONVERSION_BASED_UNIT( 'MILLIMETRE', #68 )LENGTH_UNIT(  )NAMED_UNIT( #71 ) );
#33 =  ( NAMED_UNIT( #73 )PLANE_ANGLE_UNIT(  )SI_UNIT( $, .RADIAN. ) );
#34 =  ( NAMED_UNIT( #73 )SI_UNIT( $, .STERADIAN. )SOLID_ANGLE_UNIT(  ) );
#36 = PRESENTATION_STYLE_ASSIGNMENT( ( #79 ) );
#37 = ADVANCED_FACE( '', ( #80, #81 ), #82, .F. );
#38 = PRESENTATION_STYLE_ASSIGNMENT( ( #83 ) );
#39 = ADVANCED_FACE( '', ( #84, #85 ), #86, .T. );
#40 = PRESENTATION_STYLE_ASSIGNMENT( ( #87 ) );
#41 = ADVANCED_FACE( '', ( #88 ), #89, .T. );
#42 = PRESENTATION_STYLE_ASSIGNMENT( ( #90 ) );
#43 = ADVANCED_FACE( '', ( #91 ), #92, .T. );
#44 = PRESENTATION_STYLE_ASSIGNMENT( ( #93 ) );
#45 = ADVANCED_FACE( '', ( #94 ), #95, .T. );
#46 = PRESENTATION_STYLE_ASSIGNMENT( ( #96 ) );
#47 = ADVANCED_FACE( '', ( #97, #98 ), #99, .T. );
#48 = PRESENTATION_STYLE_ASSIGNMENT( ( #100 ) );
#49 = ADVANCED_FACE( '', ( #101, #102 ), #103, .T. );
#50 = PRESENTATION_STYLE_ASSIGNMENT( ( #104 ) );
#51 = ADVANCED_FACE( '', ( #105 ), #106, .T. );
#52 = PRESENTATION_STYLE_ASSIGNMENT( ( #107 ) );
#53 = ADVANCED_FACE( '', ( #108, #109 ), #110, .T. );
#54 = PRESENTATION_STYLE_ASSIGNMENT( ( #111 ) );
#55 = ADVANCED_FACE( '', ( #112 ), #113, .T. );
#56 = PRESENTATION_STYLE_ASSIGNMENT( ( #114 ) );
#57 = ADVANCED_FACE( '', ( #115, #116 ), #117, .T. );
#58 = PRESENTATION_STYLE_ASSIGNMENT( ( #118 ) );
#59 = ADVANCED_FACE( '', ( #119 ), #120, .T. );
#60 = PRESENTATION_STYLE_ASSIGNMENT( ( #121 ) );
#61 = ADVANCED_FACE( '', ( #122 ), #123, .F. );
#62 = PRODUCT( '_K0391.10X65', '_K0391.10X65', 'PART-_K0391.10X65-DESC', ( #124 ) );
#63 = PRODUCT_DEFINITION( 'NONE', 'NONE', #125, #2 );
#64 = MANIFOLD_SOLID_BREP( '_K0391.10X65', #126 );
#65 = AXIS2_PLACEMENT_3D( '', #127, #128, #129 );
#68 = LENGTH_MEASURE_WITH_UNIT( LENGTH_MEASURE( 1.00000000000000 ), #130 );
#71 = DIMENSIONAL_EXPONENTS( 1.00000000000000, 0.000000000000000, 0.000000000000000, 0.000000000000000, 0.000000000000000, 0.000000000000000, 0.000000000000000 );
#73 = DIMENSIONAL_EXPONENTS( 0.000000000000000, 0.000000000000000, 0.000000000000000, 0.000000000000000, 0.000000000000000, 0.000000000000000, 0.000000000000000 );
#79 = SURFACE_STYLE_USAGE( .BOTH., #131 );
#80 = FACE_OUTER_BOUND( '', #132, .T. );
#81 = FACE_BOUND( '', #133, .T. );
#82 = PLANE( '', #134 );
#83 = SURFACE_STYLE_USAGE( .BOTH., #135 );
#84 = FACE_OUTER_BOUND( '', #136, .T. );
#85 = FACE_OUTER_BOUND( '', #137, .T. );
#86 = CYLINDRICAL_SURFACE( '', #138, 5.00000000000000 );
#87 = SURFACE_STYLE_USAGE( .BOTH., #139 );
#88 = FACE_OUTER_BOUND( '', #140, .T. );
#89 = PLANE( '', #141 );
#90 = SURFACE_STYLE_USAGE( .BOTH., #142 );
#91 = FACE_OUTER_BOUND( '', #143, .T. );
#92 = PLANE( '', #144 );
#93 = SURFACE_STYLE_USAGE( .BOTH., #145 );
#94 = FACE_OUTER_BOUND( '', #146, .T. );
#95 = PLANE( '', #147 );
#96 = SURFACE_STYLE_USAGE( .BOTH., #148 );
#97 = FACE_OUTER_BOUND( '', #149, .T. );
#98 = FACE_OUTER_BOUND( '', #150, .T. );
#99 = CYLINDRICAL_SURFACE( '', #151, 3.25000000000000 );
#100 = SURFACE_STYLE_USAGE( .BOTH., #152 );
#101 = FACE_BOUND( '', #153, .T. );
#102 = FACE_OUTER_BOUND( '', #154, .T. );
#103 = CONICAL_SURFACE( '', #155, 5.00000000000000, 0.771314587600000 );
#104 = SURFACE_STYLE_USAGE( .BOTH., #156 );
#105 = FACE_OUTER_BOUND( '', #157, .T. );
#106 = PLANE( '', #158 );
#107 = SURFACE_STYLE_USAGE( .BOTH., #159 );
#108 = FACE_OUTER_BOUND( '', #160, .T. );
#109 = FACE_BOUND( '', #161, .T. );
#110 = CONICAL_SURFACE( '', #162, 4.08000000000000, 0.785398163400000 );
#111 = SURFACE_STYLE_USAGE( .BOTH., #163 );
#112 = FACE_OUTER_BOUND( '', #164, .T. );
#113 = PLANE( '', #165 );
#114 = SURFACE_STYLE_USAGE( .BOTH., #166 );
#115 = FACE_BOUND( '', #167, .T. );
#116 = FACE_OUTER_BOUND( '', #168, .T. );
#117 = SPHERICAL_SURFACE( '', #169, 4.00000000000000 );
#118 = SURFACE_STYLE_USAGE( .BOTH., #170 );
#119 = FACE_OUTER_BOUND( '', #171, .T. );
#120 = PLANE( '', #172 );
#121 = SURFACE_STYLE_USAGE( .BOTH., #173 );
#122 = FACE_OUTER_BOUND( '', #174, .T. );
#123 = PLANE( '', #175 );
#124 = PRODUCT_CONTEXT( '', #23, 'mechanical' );
#125 = PRODUCT_DEFINITION_FORMATION_WITH_SPECIFIED_SOURCE( ' ', 'NONE', #62, .NOT_KNOWN. );
#126 = CLOSED_SHELL( '', ( #53, #37, #59, #55, #45, #57, #47, #49, #39, #51, #43, #41, #61 ) );
#127 = CARTESIAN_POINT( '', ( 0.000000000000000, 0.000000000000000, 0.000000000000000 ) );
#128 = DIRECTION( '', ( 0.000000000000000, 0.000000000000000, 1.00000000000000 ) );
#129 = DIRECTION( '', ( 1.00000000000000, 0.000000000000000, 0.000000000000000 ) );
#130 =  ( LENGTH_UNIT(  )NAMED_UNIT( #71 )SI_UNIT( .MILLI., .METRE. ) );
#131 = SURFACE_SIDE_STYLE( '', ( #177 ) );
#132 = EDGE_LOOP( '', ( #178 ) );
#133 = EDGE_LOOP( '', ( #179, #180, #181, #182, #183, #184 ) );
#134 = AXIS2_PLACEMENT_3D( '', #185, #186, #187 );
#135 = SURFACE_SIDE_STYLE( '', ( #188 ) );
#136 = EDGE_LOOP( '', ( #189 ) );
#137 = EDGE_LOOP( '', ( #190 ) );
#138 = AXIS2_PLACEMENT_3D( '', #191, #192, #193 );
#139 = SURFACE_SIDE_STYLE( '', ( #194 ) );
#140 = EDGE_LOOP( '', ( #195, #196, #197, #198 ) );
#141 = AXIS2_PLACEMENT_3D( '', #199, #200, #201 );
#142 = SURFACE_SIDE_STYLE( '', ( #202 ) );
#143 = EDGE_LOOP( '', ( #203, #204, #205, #206 ) );
#144 = AXIS2_PLACEMENT_3D( '', #207, #208, #209 );
#145 = SURFACE_SIDE_STYLE( '', ( #210 ) );
#146 = EDGE_LOOP( '', ( #211, #212, #213, #214 ) );
#147 = AXIS2_PLACEMENT_3D( '', #215, #216, #217 );
#148 = SURFACE_SIDE_STYLE( '', ( #218 ) );
#149 = EDGE_LOOP( '', ( #219 ) );
#150 = EDGE_LOOP( '', ( #220 ) );
#151 = AXIS2_PLACEMENT_3D( '', #221, #222, #223 );
#152 = SURFACE_SIDE_STYLE( '', ( #224 ) );
#153 = EDGE_LOOP( '', ( #225 ) );
#154 = EDGE_LOOP( '', ( #226 ) );
#155 = AXIS2_PLACEMENT_3D( '', #227, #228, #229 );
#156 = SURFACE_SIDE_STYLE( '', ( #230 ) );
#157 = EDGE_LOOP( '', ( #231, #232, #233, #234 ) );
#158 = AXIS2_PLACEMENT_3D( '', #235, #236, #237 );
#159 = SURFACE_SIDE_STYLE( '', ( #238 ) );
#160 = EDGE_LOOP( '', ( #239 ) );
#161 = EDGE_LOOP( '', ( #240 ) );
#162 = AXIS2_PLACEMENT_3D( '', #241, #242, #243 );
#163 = SURFACE_SIDE_STYLE( '', ( #244 ) );
#164 = EDGE_LOOP( '', ( #245, #246, #247, #248 ) );
#165 = AXIS2_PLACEMENT_3D( '', #249, #250, #251 );
#166 = SURFACE_SIDE_STYLE( '', ( #252 ) );
#167 = VERTEX_LOOP( '', #253 );
#168 = EDGE_LOOP( '', ( #254 ) );
#169 = AXIS2_PLACEMENT_3D( '', #255, #256, #257 );
#170 = SURFACE_SIDE_STYLE( '', ( #258 ) );
#171 = EDGE_LOOP( '', ( #259, #260, #261, #262 ) );
#172 = AXIS2_PLACEMENT_3D( '', #263, #264, #265 );
#173 = SURFACE_SIDE_STYLE( '', ( #266 ) );
#174 = EDGE_LOOP( '', ( #267, #268, #269, #270, #271, #272 ) );
#175 = AXIS2_PLACEMENT_3D( '', #273, #274, #275 );
#177 = SURFACE_STYLE_FILL_AREA( #276 );
#178 = ORIENTED_EDGE( '', *, *, #277, .F. );
#179 = ORIENTED_EDGE( '', *, *, #278, .T. );
#180 = ORIENTED_EDGE( '', *, *, #279, .T. );
#181 = ORIENTED_EDGE( '', *, *, #280, .T. );
#182 = ORIENTED_EDGE( '', *, *, #281, .T. );
#183 = ORIENTED_EDGE( '', *, *, #282, .T. );
#184 = ORIENTED_EDGE( '', *, *, #283, .T. );
#185 = CARTESIAN_POINT( '', ( 0.000000000000000, 0.000000000000000, 0.000000000000000 ) );
#186 = DIRECTION( '', ( 1.00000000000000, 0.000000000000000, -0.000000000000000 ) );
#187 = DIRECTION( '', ( -0.000000000000000, 0.000000000000000, -1.00000000000000 ) );
#188 = SURFACE_STYLE_FILL_AREA( #284 );
#189 = ORIENTED_EDGE( '', *, *, #285, .F. );
#190 = ORIENTED_EDGE( '', *, *, #286, .T. );
#191 = CARTESIAN_POINT( '', ( 65.0000000000000, 0.000000000000000, 0.000000000000000 ) );
#192 = DIRECTION( '', ( -1.00000000000000, -0.000000000000000, 0.000000000000000 ) );
#193 = DIRECTION( '', ( -0.000000000000000, 0.000000000000000, -1.00000000000000 ) );
#194 = SURFACE_STYLE_FILL_AREA( #287 );
#195 = ORIENTED_EDGE( '', *, *, #283, .F. );
#196 = ORIENTED_EDGE( '', *, *, #288, .F. );
#197 = ORIENTED_EDGE( '', *, *, #289, .T. );
#198 = ORIENTED_EDGE( '', *, *, #290, .T. );
#199 = CARTESIAN_POINT( '', ( 5.00000000000000, 2.88675134594813, 0.000000000000000 ) );
#200 = DIRECTION( '', ( 0.000000000000000, -0.866025403784439, -0.500000000000000 ) );
#201 = DIRECTION( '', ( 0.000000000000000, 0.500000000000000, -0.866025403784439 ) );
#202 = SURFACE_STYLE_FILL_AREA( #291 );
#203 = ORIENTED_EDGE( '', *, *, #282, .F. );
#204 = ORIENTED_EDGE( '', *, *, #292, .F. );
#205 = ORIENTED_EDGE( '', *, *, #293, .T. );
#206 = ORIENTED_EDGE( '', *, *, #288, .T. );
#207 = CARTESIAN_POINT( '', ( 5.00000000000000, 1.44337567297406, -2.50000000000000 ) );
#208 = DIRECTION( '', ( 0.000000000000000, -0.866025403784439, 0.500000000000000 ) );
#209 = DIRECTION( '', ( 0.000000000000000, -0.500000000000000, -0.866025403784439 ) );
#210 = SURFACE_STYLE_FILL_AREA( #294 );
#211 = ORIENTED_EDGE( '', *, *, #278, .F. );
#212 = ORIENTED_EDGE( '', *, *, #290, .F. );
#213 = ORIENTED_EDGE( '', *, *, #295, .T. );
#214 = ORIENTED_EDGE( '', *, *, #296, .T. );
#215 = CARTESIAN_POINT( '', ( 5.00000000000000, 1.44337567297406, 2.50000000000000 ) );
#216 = DIRECTION( '', ( 0.000000000000000, 0.000000000000000, -1.00000000000000 ) );
#217 = DIRECTION( '', ( -1.00000000000000, 0.000000000000000, 0.000000000000000 ) );
#218 = SURFACE_STYLE_FILL_AREA( #297 );
#219 = ORIENTED_EDGE( '', *, *, #298, .F. );
#220 = ORIENTED_EDGE( '', *, *, #299, .T. );
#221 = CARTESIAN_POINT( '', ( 65.0000000000000, 0.000000000000000, 0.000000000000000 ) );
#222 = DIRECTION( '', ( -1.00000000000000, -0.000000000000000, 0.000000000000000 ) );
#223 = DIRECTION( '', ( -0.000000000000000, 0.000000000000000, -1.00000000000000 ) );
#224 = SURFACE_STYLE_FILL_AREA( #300 );
#225 = ORIENTED_EDGE( '', *, *, #299, .F. );
#226 = ORIENTED_EDGE( '', *, *, #285, .T. );
#227 = CARTESIAN_POINT( '', ( 56.0000000000000, 0.000000000000000, 0.000000000000000 ) );
#228 = DIRECTION( '', ( -1.00000000000000, 0.000000000000000, -0.000000000000000 ) );
#229 = DIRECTION( '', ( 0.000000000000000, 0.000000000000000, 1.00000000000000 ) );
#230 = SURFACE_STYLE_FILL_AREA( #301 );
#231 = ORIENTED_EDGE( '', *, *, #281, .F. );
#232 = ORIENTED_EDGE( '', *, *, #302, .F. );
#233 = ORIENTED_EDGE( '', *, *, #303, .T. );
#234 = ORIENTED_EDGE( '', *, *, #292, .T. );
#235 = CARTESIAN_POINT( '', ( 5.00000000000000, -1.44337567297406, -2.50000000000000 ) );
#236 = DIRECTION( '', ( 0.000000000000000, 0.000000000000000, 1.00000000000000 ) );
#237 = DIRECTION( '', ( 1.00000000000000, 0.000000000000000, -0.000000000000000 ) );
#238 = SURFACE_STYLE_FILL_AREA( #304 );
#239 = ORIENTED_EDGE( '', *, *, #286, .F. );
#240 = ORIENTED_EDGE( '', *, *, #277, .T. );
#241 = CARTESIAN_POINT( '', ( 0.000000000000000, 0.000000000000000, 0.000000000000000 ) );
#242 = DIRECTION( '', ( 1.00000000000000, -0.000000000000000, -0.000000000000000 ) );
#243 = DIRECTION( '', ( -0.000000000000000, 0.000000000000000, -1.00000000000000 ) );
#244 = SURFACE_STYLE_FILL_AREA( #305 );
#245 = ORIENTED_EDGE( '', *, *, #280, .F. );
#246 = ORIENTED_EDGE( '', *, *, #306, .F. );
#247 = ORIENTED_EDGE( '', *, *, #307, .T. );
#248 = ORIENTED_EDGE( '', *, *, #302, .T. );
#249 = CARTESIAN_POINT( '', ( 5.00000000000000, -2.88675134594813, 0.000000000000000 ) );
#250 = DIRECTION( '', ( -0.000000000000000, 0.866025403784439, 0.500000000000000 ) );
#251 = DIRECTION( '', ( 0.000000000000000, -0.500000000000000, 0.866025403784439 ) );
#252 = SURFACE_STYLE_FILL_AREA( #308 );
#253 = VERTEX_POINT( '', #309 );
#254 = ORIENTED_EDGE( '', *, *, #298, .T. );
#255 = CARTESIAN_POINT( '', ( 61.0000000000000, 4.33680868994202E-16, 0.000000000000000 ) );
#256 = DIRECTION( '', ( 1.00000000000000, 0.000000000000000, 0.000000000000000 ) );
#257 = DIRECTION( '', ( 0.000000000000000, -1.00000000000000, 0.000000000000000 ) );
#258 = SURFACE_STYLE_FILL_AREA( #310 );
#259 = ORIENTED_EDGE( '', *, *, #279, .F. );
#260 = ORIENTED_EDGE( '', *, *, #296, .F. );
#261 = ORIENTED_EDGE( '', *, *, #311, .T. );
#262 = ORIENTED_EDGE( '', *, *, #306, .T. );
#263 = CARTESIAN_POINT( '', ( 5.00000000000000, -1.44337567297406, 2.50000000000000 ) );
#264 = DIRECTION( '', ( 0.000000000000000, 0.866025403784439, -0.500000000000000 ) );
#265 = DIRECTION( '', ( 0.000000000000000, 0.500000000000000, 0.866025403784439 ) );
#266 = SURFACE_STYLE_FILL_AREA( #312 );
#267 = ORIENTED_EDGE( '', *, *, #295, .F. );
#268 = ORIENTED_EDGE( '', *, *, #289, .F. );
#269 = ORIENTED_EDGE( '', *, *, #293, .F. );
#270 = ORIENTED_EDGE( '', *, *, #303, .F. );
#271 = ORIENTED_EDGE( '', *, *, #307, .F. );
#272 = ORIENTED_EDGE( '', *, *, #311, .F. );
#273 = CARTESIAN_POINT( '', ( 5.00000000000000, 0.000000000000000, 0.000000000000000 ) );
#274 = DIRECTION( '', ( 1.00000000000000, 0.000000000000000, 0.000000000000000 ) );
#275 = DIRECTION( '', ( 0.000000000000000, 0.000000000000000, -1.00000000000000 ) );
#276 = FILL_AREA_STYLE( '', ( #313 ) );
#277 = EDGE_CURVE( '', #314, #314, #315, .T. );
#278 = EDGE_CURVE( '', #316, #317, #318, .T. );
#279 = EDGE_CURVE( '', #317, #319, #320, .T. );
#280 = EDGE_CURVE( '', #319, #321, #322, .T. );
#281 = EDGE_CURVE( '', #321, #323, #324, .T. );
#282 = EDGE_CURVE( '', #323, #325, #326, .T. );
#283 = EDGE_CURVE( '', #325, #316, #327, .T. );
#284 = FILL_AREA_STYLE( '', ( #328 ) );
#285 = EDGE_CURVE( '', #329, #329, #330, .T. );
#286 = EDGE_CURVE( '', #331, #331, #332, .T. );
#287 = FILL_AREA_STYLE( '', ( #333 ) );
#288 = EDGE_CURVE( '', #334, #325, #335, .T. );
#289 = EDGE_CURVE( '', #334, #336, #337, .T. );
#290 = EDGE_CURVE( '', #336, #316, #338, .T. );
#291 = FILL_AREA_STYLE( '', ( #339 ) );
#292 = EDGE_CURVE( '', #340, #323, #341, .T. );
#293 = EDGE_CURVE( '', #340, #334, #342, .T. );
#294 = FILL_AREA_STYLE( '', ( #343 ) );
#295 = EDGE_CURVE( '', #336, #344, #345, .T. );
#296 = EDGE_CURVE( '', #344, #317, #346, .T. );
#297 = FILL_AREA_STYLE( '', ( #347 ) );
#298 = EDGE_CURVE( '', #348, #348, #349, .T. );
#299 = EDGE_CURVE( '', #350, #350, #351, .T. );
#300 = FILL_AREA_STYLE( '', ( #352 ) );
#301 = FILL_AREA_STYLE( '', ( #353 ) );
#302 = EDGE_CURVE( '', #354, #321, #355, .T. );
#303 = EDGE_CURVE( '', #354, #340, #356, .T. );
#304 = FILL_AREA_STYLE( '', ( #357 ) );
#305 = FILL_AREA_STYLE( '', ( #358 ) );
#306 = EDGE_CURVE( '', #359, #319, #360, .T. );
#307 = EDGE_CURVE( '', #359, #354, #361, .T. );
#308 = FILL_AREA_STYLE( '', ( #362 ) );
#309 = CARTESIAN_POINT( '', ( 65.0000000000000, 1.88751509164731E-16, 0.000000000000000 ) );
#310 = FILL_AREA_STYLE( '', ( #363 ) );
#311 = EDGE_CURVE( '', #344, #359, #364, .T. );
#312 = FILL_AREA_STYLE( '', ( #365 ) );
#313 = FILL_AREA_STYLE_COLOUR( '', #366 );
#314 = VERTEX_POINT( '', #367 );
#315 = CIRCLE( '', #368, 4.08000000000000 );
#316 = VERTEX_POINT( '', #369 );
#317 = VERTEX_POINT( '', #370 );
#318 = LINE( '', #371, #372 );
#319 = VERTEX_POINT( '', #373 );
#320 = LINE( '', #374, #375 );
#321 = VERTEX_POINT( '', #376 );
#322 = LINE( '', #377, #378 );
#323 = VERTEX_POINT( '', #379 );
#324 = LINE( '', #380, #381 );
#325 = VERTEX_POINT( '', #382 );
#326 = LINE( '', #383, #384 );
#327 = LINE( '', #385, #386 );
#328 = FILL_AREA_STYLE_COLOUR( '', #387 );
#329 = VERTEX_POINT( '', #388 );
#330 = CIRCLE( '', #389, 5.00000000000000 );
#331 = VERTEX_POINT( '', #390 );
#332 = CIRCLE( '', #391, 5.00000000000000 );
#333 = FILL_AREA_STYLE_COLOUR( '', #392 );
#334 = VERTEX_POINT( '', #393 );
#335 = LINE( '', #394, #395 );
#336 = VERTEX_POINT( '', #396 );
#337 = LINE( '', #397, #398 );
#338 = LINE( '', #399, #400 );
#339 = FILL_AREA_STYLE_COLOUR( '', #401 );
#340 = VERTEX_POINT( '', #402 );
#341 = LINE( '', #403, #404 );
#342 = LINE( '', #405, #406 );
#343 = FILL_AREA_STYLE_COLOUR( '', #407 );
#344 = VERTEX_POINT( '', #408 );
#345 = LINE( '', #409, #410 );
#346 = LINE( '', #411, #412 );
#347 = FILL_AREA_STYLE_COLOUR( '', #413 );
#348 = VERTEX_POINT( '', #414 );
#349 = CIRCLE( '', #415, 3.25000000000000 );
#350 = VERTEX_POINT( '', #416 );
#351 = CIRCLE( '', #417, 3.25000000000000 );
#352 = FILL_AREA_STYLE_COLOUR( '', #418 );
#353 = FILL_AREA_STYLE_COLOUR( '', #419 );
#354 = VERTEX_POINT( '', #420 );
#355 = LINE( '', #421, #422 );
#356 = LINE( '', #423, #424 );
#357 = FILL_AREA_STYLE_COLOUR( '', #425 );
#358 = FILL_AREA_STYLE_COLOUR( '', #426 );
#359 = VERTEX_POINT( '', #427 );
#360 = LINE( '', #428, #429 );
#361 = LINE( '', #430, #431 );
#362 = FILL_AREA_STYLE_COLOUR( '', #432 );
#363 = FILL_AREA_STYLE_COLOUR( '', #433 );
#364 = LINE( '', #434, #435 );
#365 = FILL_AREA_STYLE_COLOUR( '', #436 );
#366 = COLOUR_RGB( '', 0.689999997600000, 0.689999997600000, 0.689999997600000 );
#367 = CARTESIAN_POINT( '', ( 0.000000000000000, 0.000000000000000, -4.08000000000000 ) );
#368 = AXIS2_PLACEMENT_3D( '', #437, #438, #439 );
#369 = CARTESIAN_POINT( '', ( 0.000000000000000, 1.44337567297406, 2.50000000000000 ) );
#370 = CARTESIAN_POINT( '', ( 0.000000000000000, -1.44337567297406, 2.50000000000000 ) );
#371 = CARTESIAN_POINT( '', ( 0.000000000000000, 1.44337567297406, 2.50000000000000 ) );
#372 = VECTOR( '', #440, 1000.00000000000 );
#373 = CARTESIAN_POINT( '', ( 0.000000000000000, -2.88675134594813, 0.000000000000000 ) );
#374 = CARTESIAN_POINT( '', ( 0.000000000000000, -1.44337567297406, 2.50000000000000 ) );
#375 = VECTOR( '', #441, 1000.00000000000 );
#376 = CARTESIAN_POINT( '', ( 0.000000000000000, -1.44337567297406, -2.50000000000000 ) );
#377 = CARTESIAN_POINT( '', ( 0.000000000000000, -2.88675134594813, 0.000000000000000 ) );
#378 = VECTOR( '', #442, 1000.00000000000 );
#379 = CARTESIAN_POINT( '', ( 0.000000000000000, 1.44337567297406, -2.50000000000000 ) );
#380 = CARTESIAN_POINT( '', ( 0.000000000000000, -1.44337567297406, -2.50000000000000 ) );
#381 = VECTOR( '', #443, 1000.00000000000 );
#382 = CARTESIAN_POINT( '', ( 0.000000000000000, 2.88675134594813, 0.000000000000000 ) );
#383 = CARTESIAN_POINT( '', ( 0.000000000000000, 1.44337567297406, -2.50000000000000 ) );
#384 = VECTOR( '', #444, 1000.00000000000 );
#385 = CARTESIAN_POINT( '', ( 0.000000000000000, 2.88675134594813, 0.000000000000000 ) );
#386 = VECTOR( '', #445, 1000.00000000000 );
#387 = COLOUR_RGB( '', 0.689999997600000, 0.689999997600000, 0.689999997600000 );
#388 = CARTESIAN_POINT( '', ( 56.0000000000000, 0.000000000000000, -5.00000000000001 ) );
#389 = AXIS2_PLACEMENT_3D( '', #446, #447, #448 );
#390 = CARTESIAN_POINT( '', ( 0.920000000000004, 0.000000000000000, -5.00000000000001 ) );
#391 = AXIS2_PLACEMENT_3D( '', #449, #450, #451 );
#392 = COLOUR_RGB( '', 0.689999997600000, 0.689999997600000, 0.689999997600000 );
#393 = CARTESIAN_POINT( '', ( 5.00000000000000, 2.88675134594813, 0.000000000000000 ) );
#394 = CARTESIAN_POINT( '', ( 5.00000000000000, 2.88675134594813, 0.000000000000000 ) );
#395 = VECTOR( '', #452, 1000.00000000000 );
#396 = CARTESIAN_POINT( '', ( 5.00000000000000, 1.44337567297406, 2.50000000000000 ) );
#397 = CARTESIAN_POINT( '', ( 5.00000000000000, 2.88675134594813, 0.000000000000000 ) );
#398 = VECTOR( '', #453, 1000.00000000000 );
#399 = CARTESIAN_POINT( '', ( 5.00000000000000, 1.44337567297406, 2.50000000000000 ) );
#400 = VECTOR( '', #454, 1000.00000000000 );
#401 = COLOUR_RGB( '', 0.689999997600000, 0.689999997600000, 0.689999997600000 );
#402 = CARTESIAN_POINT( '', ( 5.00000000000000, 1.44337567297406, -2.50000000000000 ) );
#403 = CARTESIAN_POINT( '', ( 5.00000000000000, 1.44337567297406, -2.50000000000000 ) );
#404 = VECTOR( '', #455, 1000.00000000000 );
#405 = CARTESIAN_POINT( '', ( 5.00000000000000, 1.44337567297406, -2.50000000000000 ) );
#406 = VECTOR( '', #456, 1000.00000000000 );
#407 = COLOUR_RGB( '', 0.689999997600000, 0.689999997600000, 0.689999997600000 );
#408 = CARTESIAN_POINT( '', ( 5.00000000000000, -1.44337567297406, 2.50000000000000 ) );
#409 = CARTESIAN_POINT( '', ( 5.00000000000000, 1.44337567297406, 2.50000000000000 ) );
#410 = VECTOR( '', #457, 1000.00000000000 );
#411 = CARTESIAN_POINT( '', ( 5.00000000000000, -1.44337567297406, 2.50000000000000 ) );
#412 = VECTOR( '', #458, 1000.00000000000 );
#413 = COLOUR_RGB( '', 0.689999997600000, 0.689999997600000, 0.689999997600000 );
#414 = CARTESIAN_POINT( '', ( 58.6681552367278, 0.000000000000000, -3.25000000000000 ) );
#415 = AXIS2_PLACEMENT_3D( '', #459, #460, #461 );
#416 = CARTESIAN_POINT( '', ( 57.8000000000000, 0.000000000000000, -3.25000000000000 ) );
#417 = AXIS2_PLACEMENT_3D( '', #462, #463, #464 );
#418 = COLOUR_RGB( '', 0.689999997600000, 0.689999997600000, 0.689999997600000 );
#419 = COLOUR_RGB( '', 0.689999997600000, 0.689999997600000, 0.689999997600000 );
#420 = CARTESIAN_POINT( '', ( 5.00000000000000, -1.44337567297406, -2.50000000000000 ) );
#421 = CARTESIAN_POINT( '', ( 5.00000000000000, -1.44337567297406, -2.50000000000000 ) );
#422 = VECTOR( '', #465, 1000.00000000000 );
#423 = CARTESIAN_POINT( '', ( 5.00000000000000, -1.44337567297406, -2.50000000000000 ) );
#424 = VECTOR( '', #466, 1000.00000000000 );
#425 = COLOUR_RGB( '', 0.689999997600000, 0.689999997600000, 0.689999997600000 );
#426 = COLOUR_RGB( '', 0.689999997600000, 0.689999997600000, 0.689999997600000 );
#427 = CARTESIAN_POINT( '', ( 5.00000000000000, -2.88675134594813, 0.000000000000000 ) );
#428 = CARTESIAN_POINT( '', ( 5.00000000000000, -2.88675134594813, 0.000000000000000 ) );
#429 = VECTOR( '', #467, 1000.00000000000 );
#430 = CARTESIAN_POINT( '', ( 5.00000000000000, -2.88675134594813, 0.000000000000000 ) );
#431 = VECTOR( '', #468, 1000.00000000000 );
#432 = COLOUR_RGB( '', 0.689999997600000, 0.689999997600000, 0.689999997600000 );
#433 = COLOUR_RGB( '', 0.689999997600000, 0.689999997600000, 0.689999997600000 );
#434 = CARTESIAN_POINT( '', ( 5.00000000000000, -1.44337567297406, 2.50000000000000 ) );
#435 = VECTOR( '', #469, 1000.00000000000 );
#436 = COLOUR_RGB( '', 0.689999997600000, 0.689999997600000, 0.689999997600000 );
#437 = CARTESIAN_POINT( '', ( 0.000000000000000, 0.000000000000000, 0.000000000000000 ) );
#438 = DIRECTION( '', ( 1.00000000000000, 0.000000000000000, -0.000000000000000 ) );
#439 = DIRECTION( '', ( -0.000000000000000, 0.000000000000000, -1.00000000000000 ) );
#440 = DIRECTION( '', ( 0.000000000000000, -1.00000000000000, 0.000000000000000 ) );
#441 = DIRECTION( '', ( 0.000000000000000, -0.500000000000000, -0.866025403784439 ) );
#442 = DIRECTION( '', ( 0.000000000000000, 0.500000000000000, -0.866025403784439 ) );
#443 = DIRECTION( '', ( 0.000000000000000, 1.00000000000000, 0.000000000000000 ) );
#444 = DIRECTION( '', ( 0.000000000000000, 0.500000000000000, 0.866025403784439 ) );
#445 = DIRECTION( '', ( 0.000000000000000, -0.500000000000000, 0.866025403784439 ) );
#446 = CARTESIAN_POINT( '', ( 56.0000000000000, 0.000000000000000, 0.000000000000000 ) );
#447 = DIRECTION( '', ( 1.00000000000000, 0.000000000000000, -0.000000000000000 ) );
#448 = DIRECTION( '', ( -0.000000000000000, 0.000000000000000, -1.00000000000000 ) );
#449 = CARTESIAN_POINT( '', ( 0.920000000000004, 0.000000000000000, 0.000000000000000 ) );
#450 = DIRECTION( '', ( 1.00000000000000, 0.000000000000000, -0.000000000000000 ) );
#451 = DIRECTION( '', ( -0.000000000000000, 0.000000000000000, -1.00000000000000 ) );
#452 = DIRECTION( '', ( -1.00000000000000, -0.000000000000000, -0.000000000000000 ) );
#453 = DIRECTION( '', ( 0.000000000000000, -0.500000000000000, 0.866025403784439 ) );
#454 = DIRECTION( '', ( -1.00000000000000, -0.000000000000000, -0.000000000000000 ) );
#455 = DIRECTION( '', ( -1.00000000000000, -0.000000000000000, -0.000000000000000 ) );
#456 = DIRECTION( '', ( 0.000000000000000, 0.500000000000000, 0.866025403784439 ) );
#457 = DIRECTION( '', ( 0.000000000000000, -1.00000000000000, 0.000000000000000 ) );
#458 = DIRECTION( '', ( -1.00000000000000, -0.000000000000000, -0.000000000000000 ) );
#459 = CARTESIAN_POINT( '', ( 58.6681552367278, 0.000000000000000, 0.000000000000000 ) );
#460 = DIRECTION( '', ( 1.00000000000000, 0.000000000000000, -0.000000000000000 ) );
#461 = DIRECTION( '', ( -0.000000000000000, 0.000000000000000, -1.00000000000000 ) );
#462 = CARTESIAN_POINT( '', ( 57.8000000000000, 0.000000000000000, 0.000000000000000 ) );
#463 = DIRECTION( '', ( 1.00000000000000, 0.000000000000000, -0.000000000000000 ) );
#464 = DIRECTION( '', ( -0.000000000000000, 0.000000000000000, -1.00000000000000 ) );
#465 = DIRECTION( '', ( -1.00000000000000, -0.000000000000000, -0.000000000000000 ) );
#466 = DIRECTION( '', ( 0.000000000000000, 1.00000000000000, 0.000000000000000 ) );
#467 = DIRECTION( '', ( -1.00000000000000, -0.000000000000000, -0.000000000000000 ) );
#468 = DIRECTION( '', ( 0.000000000000000, 0.500000000000000, -0.866025403784439 ) );
#469 = DIRECTION( '', ( 0.000000000000000, -0.500000000000000, -0.866025403784439 ) );
ENDSEC;
END-ISO-10303-21;
