ISO-10303-21;
HEADER;
FILE_DESCRIPTION( ( 'STEP AP214' ), '1' );
FILE_NAME( '//goodhand-server/Shared Folders/GoodHand Data/Kipp CAD/K0298/K0298.2101.stp', '2020-11-27T12:59:09', ( '' ), ( '' ), ' ', 'PARTsolutions', ' ' );
FILE_SCHEMA( ( 'AUTOMOTIVE_DESIGN { 1 0 10303 214 1 1 1 1 }' ) );
ENDSEC;
DATA;
#1 = MECHANICAL_DESIGN_GEOMETRIC_PRESENTATION_REPRESENTATION( ' ', ( #10, #11, #12, #13, #14, #15, #16, #17, #18, #19, #20, #21, #22, #23 ), #6 );
#2 = PRODUCT_DEFINITION_CONTEXT( '', #24, 'design' );
#3 = APPLICATION_PROTOCOL_DEFINITION( 'international standard', 'automotive_design', 2001, #24 );
#4 = PRODUCT_CATEGORY_RELATIONSHIP( 'NONE', 'NONE', #25, #26 );
#5 = SHAPE_DEFINITION_REPRESENTATION( #27, #28 );
#6 =  ( GEOMETRIC_REPRESENTATION_CONTEXT( 3 )GLOBAL_UNCERTAINTY_ASSIGNED_CONTEXT( ( #31 ) )GLOBAL_UNIT_ASSIGNED_CONTEXT( ( #33, #34, #35 ) )REPRESENTATION_CONTEXT( 'NONE', 'WORKSPACE' ) );
#10 = STYLED_ITEM( '', ( #37 ), #38 );
#11 = STYLED_ITEM( '', ( #39 ), #40 );
#12 = STYLED_ITEM( '', ( #41 ), #42 );
#13 = STYLED_ITEM( '', ( #43 ), #44 );
#14 = STYLED_ITEM( '', ( #45 ), #46 );
#15 = STYLED_ITEM( '', ( #47 ), #48 );
#16 = STYLED_ITEM( '', ( #49 ), #50 );
#17 = STYLED_ITEM( '', ( #51 ), #52 );
#18 = STYLED_ITEM( '', ( #53 ), #54 );
#19 = STYLED_ITEM( '', ( #55 ), #56 );
#20 = STYLED_ITEM( '', ( #57 ), #58 );
#21 = STYLED_ITEM( '', ( #59 ), #60 );
#22 = STYLED_ITEM( '', ( #61 ), #62 );
#23 = STYLED_ITEM( '', ( #63 ), #64 );
#24 = APPLICATION_CONTEXT( 'core data for automotive mechanical design processes' );
#25 = PRODUCT_CATEGORY( 'part', 'NONE' );
#26 = PRODUCT_RELATED_PRODUCT_CATEGORY( 'detail', ' ', ( #65 ) );
#27 = PRODUCT_DEFINITION_SHAPE( 'NONE', 'NONE', #66 );
#28 = ADVANCED_BREP_SHAPE_REPRESENTATION( '_K0298.2101', ( #67, #68 ), #6 );
#31 = UNCERTAINTY_MEASURE_WITH_UNIT( LENGTH_MEASURE( 0.00100000000000000 ), #33, '', '' );
#33 =  ( CONVERSION_BASED_UNIT( 'MILLIMETRE', #71 )LENGTH_UNIT(  )NAMED_UNIT( #74 ) );
#34 =  ( NAMED_UNIT( #76 )PLANE_ANGLE_UNIT(  )SI_UNIT( $, .RADIAN. ) );
#35 =  ( NAMED_UNIT( #76 )SI_UNIT( $, .STERADIAN. )SOLID_ANGLE_UNIT(  ) );
#37 = PRESENTATION_STYLE_ASSIGNMENT( ( #82 ) );
#38 = ADVANCED_FACE( '', ( #83, #84 ), #85, .T. );
#39 = PRESENTATION_STYLE_ASSIGNMENT( ( #86 ) );
#40 = ADVANCED_FACE( '', ( #87, #88 ), #89, .F. );
#41 = PRESENTATION_STYLE_ASSIGNMENT( ( #90 ) );
#42 = ADVANCED_FACE( '', ( #91, #92 ), #93, .T. );
#43 = PRESENTATION_STYLE_ASSIGNMENT( ( #94 ) );
#44 = ADVANCED_FACE( '', ( #95 ), #96, .F. );
#45 = PRESENTATION_STYLE_ASSIGNMENT( ( #97 ) );
#46 = ADVANCED_FACE( '', ( #98 ), #99, .F. );
#47 = PRESENTATION_STYLE_ASSIGNMENT( ( #100 ) );
#48 = ADVANCED_FACE( '', ( #101 ), #102, .F. );
#49 = PRESENTATION_STYLE_ASSIGNMENT( ( #103 ) );
#50 = ADVANCED_FACE( '', ( #104 ), #105, .F. );
#51 = PRESENTATION_STYLE_ASSIGNMENT( ( #106 ) );
#52 = ADVANCED_FACE( '', ( #107 ), #108, .F. );
#53 = PRESENTATION_STYLE_ASSIGNMENT( ( #109 ) );
#54 = ADVANCED_FACE( '', ( #110, #111 ), #112, .T. );
#55 = PRESENTATION_STYLE_ASSIGNMENT( ( #113 ) );
#56 = ADVANCED_FACE( '', ( #114, #115 ), #116, .T. );
#57 = PRESENTATION_STYLE_ASSIGNMENT( ( #117 ) );
#58 = ADVANCED_FACE( '', ( #118, #119 ), #120, .T. );
#59 = PRESENTATION_STYLE_ASSIGNMENT( ( #121 ) );
#60 = ADVANCED_FACE( '', ( #122 ), #123, .F. );
#61 = PRESENTATION_STYLE_ASSIGNMENT( ( #124 ) );
#62 = ADVANCED_FACE( '', ( #125 ), #126, .F. );
#63 = PRESENTATION_STYLE_ASSIGNMENT( ( #127 ) );
#64 = ADVANCED_FACE( '', ( #128, #129 ), #130, .F. );
#65 = PRODUCT( '_K0298.2101', '_K0298.2101', 'PART-_K0298.2101-DESC', ( #131 ) );
#66 = PRODUCT_DEFINITION( 'NONE', 'NONE', #132, #2 );
#67 = MANIFOLD_SOLID_BREP( '_K0298.2101', #133 );
#68 = AXIS2_PLACEMENT_3D( '', #134, #135, #136 );
#71 = LENGTH_MEASURE_WITH_UNIT( LENGTH_MEASURE( 1.00000000000000 ), #137 );
#74 = DIMENSIONAL_EXPONENTS( 1.00000000000000, 0.000000000000000, 0.000000000000000, 0.000000000000000, 0.000000000000000, 0.000000000000000, 0.000000000000000 );
#76 = DIMENSIONAL_EXPONENTS( 0.000000000000000, 0.000000000000000, 0.000000000000000, 0.000000000000000, 0.000000000000000, 0.000000000000000, 0.000000000000000 );
#82 = SURFACE_STYLE_USAGE( .BOTH., #138 );
#83 = FACE_OUTER_BOUND( '', #139, .T. );
#84 = FACE_OUTER_BOUND( '', #140, .T. );
#85 = CYLINDRICAL_SURFACE( '', #141, 4.00000000000000 );
#86 = SURFACE_STYLE_USAGE( .BOTH., #142 );
#87 = FACE_BOUND( '', #143, .T. );
#88 = FACE_OUTER_BOUND( '', #144, .T. );
#89 = PLANE( '', #145 );
#90 = SURFACE_STYLE_USAGE( .BOTH., #146 );
#91 = FACE_OUTER_BOUND( '', #147, .T. );
#92 = FACE_OUTER_BOUND( '', #148, .T. );
#93 = CYLINDRICAL_SURFACE( '', #149, 3.00000000000000 );
#94 = SURFACE_STYLE_USAGE( .BOTH., #150 );
#95 = FACE_OUTER_BOUND( '', #151, .T. );
#96 = PLANE( '', #152 );
#97 = SURFACE_STYLE_USAGE( .BOTH., #153 );
#98 = FACE_OUTER_BOUND( '', #154, .T. );
#99 = PLANE( '', #155 );
#100 = SURFACE_STYLE_USAGE( .BOTH., #156 );
#101 = FACE_OUTER_BOUND( '', #157, .T. );
#102 = PLANE( '', #158 );
#103 = SURFACE_STYLE_USAGE( .BOTH., #159 );
#104 = FACE_OUTER_BOUND( '', #160, .T. );
#105 = PLANE( '', #161 );
#106 = SURFACE_STYLE_USAGE( .BOTH., #162 );
#107 = FACE_OUTER_BOUND( '', #163, .T. );
#108 = PLANE( '', #164 );
#109 = SURFACE_STYLE_USAGE( .BOTH., #165 );
#110 = FACE_OUTER_BOUND( '', #166, .T. );
#111 = FACE_BOUND( '', #167, .T. );
#112 = CONICAL_SURFACE( '', #168, 3.08038475770000, 0.523598775600000 );
#113 = SURFACE_STYLE_USAGE( .BOTH., #169 );
#114 = FACE_BOUND( '', #170, .T. );
#115 = FACE_OUTER_BOUND( '', #171, .T. );
#116 = CONICAL_SURFACE( '', #172, 4.00000000000000, 0.785398163400000 );
#117 = SURFACE_STYLE_USAGE( .BOTH., #173 );
#118 = FACE_BOUND( '', #174, .T. );
#119 = FACE_OUTER_BOUND( '', #175, .T. );
#120 = SPHERICAL_SURFACE( '', #176, 30.0000000000000 );
#121 = SURFACE_STYLE_USAGE( .BOTH., #177 );
#122 = FACE_OUTER_BOUND( '', #178, .T. );
#123 = PLANE( '', #179 );
#124 = SURFACE_STYLE_USAGE( .BOTH., #180 );
#125 = FACE_OUTER_BOUND( '', #181, .T. );
#126 = PLANE( '', #182 );
#127 = SURFACE_STYLE_USAGE( .BOTH., #183 );
#128 = FACE_OUTER_BOUND( '', #184, .T. );
#129 = FACE_OUTER_BOUND( '', #185, .T. );
#130 = TOROIDAL_SURFACE( '', #186, 3.60000000000000, 0.600000000000000 );
#131 = PRODUCT_CONTEXT( '', #24, 'mechanical' );
#132 = PRODUCT_DEFINITION_FORMATION_WITH_SPECIFIED_SOURCE( ' ', 'NONE', #65, .NOT_KNOWN. );
#133 = CLOSED_SHELL( '', ( #40, #42, #64, #54, #38, #56, #52, #62, #46, #48, #44, #60, #50, #58 ) );
#134 = CARTESIAN_POINT( '', ( 0.000000000000000, 0.000000000000000, 0.000000000000000 ) );
#135 = DIRECTION( '', ( 0.000000000000000, 0.000000000000000, 1.00000000000000 ) );
#136 = DIRECTION( '', ( 1.00000000000000, 0.000000000000000, 0.000000000000000 ) );
#137 =  ( LENGTH_UNIT(  )NAMED_UNIT( #74 )SI_UNIT( .MILLI., .METRE. ) );
#138 = SURFACE_SIDE_STYLE( '', ( #188 ) );
#139 = EDGE_LOOP( '', ( #189 ) );
#140 = EDGE_LOOP( '', ( #190 ) );
#141 = AXIS2_PLACEMENT_3D( '', #191, #192, #193 );
#142 = SURFACE_SIDE_STYLE( '', ( #194 ) );
#143 = EDGE_LOOP( '', ( #195 ) );
#144 = EDGE_LOOP( '', ( #196, #197, #198, #199, #200, #201 ) );
#145 = AXIS2_PLACEMENT_3D( '', #202, #203, #204 );
#146 = SURFACE_SIDE_STYLE( '', ( #205 ) );
#147 = EDGE_LOOP( '', ( #206 ) );
#148 = EDGE_LOOP( '', ( #207 ) );
#149 = AXIS2_PLACEMENT_3D( '', #208, #209, #210 );
#150 = SURFACE_SIDE_STYLE( '', ( #211 ) );
#151 = EDGE_LOOP( '', ( #212, #213, #214, #215 ) );
#152 = AXIS2_PLACEMENT_3D( '', #216, #217, #218 );
#153 = SURFACE_SIDE_STYLE( '', ( #219 ) );
#154 = EDGE_LOOP( '', ( #220, #221, #222, #223 ) );
#155 = AXIS2_PLACEMENT_3D( '', #224, #225, #226 );
#156 = SURFACE_SIDE_STYLE( '', ( #227 ) );
#157 = EDGE_LOOP( '', ( #228, #229, #230, #231 ) );
#158 = AXIS2_PLACEMENT_3D( '', #232, #233, #234 );
#159 = SURFACE_SIDE_STYLE( '', ( #235 ) );
#160 = EDGE_LOOP( '', ( #236, #237, #238, #239 ) );
#161 = AXIS2_PLACEMENT_3D( '', #240, #241, #242 );
#162 = SURFACE_SIDE_STYLE( '', ( #243 ) );
#163 = EDGE_LOOP( '', ( #244 ) );
#164 = AXIS2_PLACEMENT_3D( '', #245, #246, #247 );
#165 = SURFACE_SIDE_STYLE( '', ( #248 ) );
#166 = EDGE_LOOP( '', ( #249 ) );
#167 = EDGE_LOOP( '', ( #250 ) );
#168 = AXIS2_PLACEMENT_3D( '', #251, #252, #253 );
#169 = SURFACE_SIDE_STYLE( '', ( #254 ) );
#170 = EDGE_LOOP( '', ( #255 ) );
#171 = EDGE_LOOP( '', ( #256 ) );
#172 = AXIS2_PLACEMENT_3D( '', #257, #258, #259 );
#173 = SURFACE_SIDE_STYLE( '', ( #260 ) );
#174 = VERTEX_LOOP( '', #261 );
#175 = EDGE_LOOP( '', ( #262, #263, #264, #265, #266, #267 ) );
#176 = AXIS2_PLACEMENT_3D( '', #268, #269, #270 );
#177 = SURFACE_SIDE_STYLE( '', ( #271 ) );
#178 = EDGE_LOOP( '', ( #272, #273, #274, #275 ) );
#179 = AXIS2_PLACEMENT_3D( '', #276, #277, #278 );
#180 = SURFACE_SIDE_STYLE( '', ( #279 ) );
#181 = EDGE_LOOP( '', ( #280, #281, #282, #283 ) );
#182 = AXIS2_PLACEMENT_3D( '', #284, #285, #286 );
#183 = SURFACE_SIDE_STYLE( '', ( #287 ) );
#184 = EDGE_LOOP( '', ( #288 ) );
#185 = EDGE_LOOP( '', ( #289 ) );
#186 = AXIS2_PLACEMENT_3D( '', #290, #291, #292 );
#188 = SURFACE_STYLE_FILL_AREA( #293 );
#189 = ORIENTED_EDGE( '', *, *, #294, .F. );
#190 = ORIENTED_EDGE( '', *, *, #295, .T. );
#191 = CARTESIAN_POINT( '', ( 0.000000000000000, -10.0000000000000, 0.000000000000000 ) );
#192 = DIRECTION( '', ( -0.000000000000000, 1.00000000000000, 0.000000000000000 ) );
#193 = DIRECTION( '', ( 0.000000000000000, 0.000000000000000, -1.00000000000000 ) );
#194 = SURFACE_STYLE_FILL_AREA( #296 );
#195 = ORIENTED_EDGE( '', *, *, #297, .F. );
#196 = ORIENTED_EDGE( '', *, *, #298, .F. );
#197 = ORIENTED_EDGE( '', *, *, #299, .F. );
#198 = ORIENTED_EDGE( '', *, *, #300, .F. );
#199 = ORIENTED_EDGE( '', *, *, #301, .F. );
#200 = ORIENTED_EDGE( '', *, *, #302, .T. );
#201 = ORIENTED_EDGE( '', *, *, #303, .F. );
#202 = CARTESIAN_POINT( '', ( 13.5000000000000, 0.000000000000000, 0.000000000000000 ) );
#203 = DIRECTION( '', ( 0.000000000000000, 1.00000000000000, 0.000000000000000 ) );
#204 = DIRECTION( '', ( 0.000000000000000, -0.000000000000000, 1.00000000000000 ) );
#205 = SURFACE_STYLE_FILL_AREA( #304 );
#206 = ORIENTED_EDGE( '', *, *, #305, .F. );
#207 = ORIENTED_EDGE( '', *, *, #297, .T. );
#208 = CARTESIAN_POINT( '', ( 0.000000000000000, -10.0000000000000, 0.000000000000000 ) );
#209 = DIRECTION( '', ( -0.000000000000000, 1.00000000000000, 0.000000000000000 ) );
#210 = DIRECTION( '', ( 0.000000000000000, 0.000000000000000, -1.00000000000000 ) );
#211 = SURFACE_STYLE_FILL_AREA( #306 );
#212 = ORIENTED_EDGE( '', *, *, #307, .T. );
#213 = ORIENTED_EDGE( '', *, *, #308, .T. );
#214 = ORIENTED_EDGE( '', *, *, #301, .T. );
#215 = ORIENTED_EDGE( '', *, *, #309, .F. );
#216 = CARTESIAN_POINT( '', ( 8.50000000000000, 10.0000000000000, -4.90747728811182 ) );
#217 = DIRECTION( '', ( -0.500000000000000, 0.000000000000000, 0.866025403784439 ) );
#218 = DIRECTION( '', ( 0.866025403784439, 0.000000000000000, 0.500000000000000 ) );
#219 = SURFACE_STYLE_FILL_AREA( #310 );
#220 = ORIENTED_EDGE( '', *, *, #311, .T. );
#221 = ORIENTED_EDGE( '', *, *, #312, .T. );
#222 = ORIENTED_EDGE( '', *, *, #303, .T. );
#223 = ORIENTED_EDGE( '', *, *, #313, .F. );
#224 = CARTESIAN_POINT( '', ( 0.000000000000000, 10.0000000000000, 9.81495457622364 ) );
#225 = DIRECTION( '', ( -0.500000000000000, 0.000000000000000, -0.866025403784439 ) );
#226 = DIRECTION( '', ( -0.866025403784439, 0.000000000000000, 0.500000000000000 ) );
#227 = SURFACE_STYLE_FILL_AREA( #314 );
#228 = ORIENTED_EDGE( '', *, *, #315, .T. );
#229 = ORIENTED_EDGE( '', *, *, #313, .T. );
#230 = ORIENTED_EDGE( '', *, *, #302, .F. );
#231 = ORIENTED_EDGE( '', *, *, #308, .F. );
#232 = CARTESIAN_POINT( '', ( 8.50000000000000, 10.0000000000000, 4.90747728811182 ) );
#233 = DIRECTION( '', ( -1.00000000000000, 0.000000000000000, 0.000000000000000 ) );
#234 = DIRECTION( '', ( 0.000000000000000, 0.000000000000000, 1.00000000000000 ) );
#235 = SURFACE_STYLE_FILL_AREA( #316 );
#236 = ORIENTED_EDGE( '', *, *, #317, .T. );
#237 = ORIENTED_EDGE( '', *, *, #318, .T. );
#238 = ORIENTED_EDGE( '', *, *, #299, .T. );
#239 = ORIENTED_EDGE( '', *, *, #319, .F. );
#240 = CARTESIAN_POINT( '', ( -8.50000000000000, 10.0000000000000, -4.90747728811182 ) );
#241 = DIRECTION( '', ( 1.00000000000000, 0.000000000000000, 0.000000000000000 ) );
#242 = DIRECTION( '', ( 0.000000000000000, 0.000000000000000, -1.00000000000000 ) );
#243 = SURFACE_STYLE_FILL_AREA( #320 );
#244 = ORIENTED_EDGE( '', *, *, #321, .T. );
#245 = CARTESIAN_POINT( '', ( 3.23300000000000, -10.0000000000000, 0.000000000000000 ) );
#246 = DIRECTION( '', ( 0.000000000000000, 1.00000000000000, 0.000000000000000 ) );
#247 = DIRECTION( '', ( 0.000000000000000, -0.000000000000000, 1.00000000000000 ) );
#248 = SURFACE_STYLE_FILL_AREA( #322 );
#249 = ORIENTED_EDGE( '', *, *, #295, .F. );
#250 = ORIENTED_EDGE( '', *, *, #323, .T. );
#251 = CARTESIAN_POINT( '', ( 0.000000000000000, -1.60717967697245, 0.000000000000000 ) );
#252 = DIRECTION( '', ( -0.000000000000000, -1.00000000000000, -0.000000000000000 ) );
#253 = DIRECTION( '', ( 0.000000000000000, 0.000000000000000, -1.00000000000000 ) );
#254 = SURFACE_STYLE_FILL_AREA( #324 );
#255 = ORIENTED_EDGE( '', *, *, #321, .F. );
#256 = ORIENTED_EDGE( '', *, *, #294, .T. );
#257 = CARTESIAN_POINT( '', ( 0.000000000000000, -9.23300000000000, 0.000000000000000 ) );
#258 = DIRECTION( '', ( -0.000000000000000, 1.00000000000000, 0.000000000000000 ) );
#259 = DIRECTION( '', ( 0.000000000000000, -0.000000000000000, 1.00000000000000 ) );
#260 = SURFACE_STYLE_FILL_AREA( #325 );
#261 = VERTEX_POINT( '', #326 );
#262 = ORIENTED_EDGE( '', *, *, #317, .F. );
#263 = ORIENTED_EDGE( '', *, *, #327, .F. );
#264 = ORIENTED_EDGE( '', *, *, #311, .F. );
#265 = ORIENTED_EDGE( '', *, *, #315, .F. );
#266 = ORIENTED_EDGE( '', *, *, #307, .F. );
#267 = ORIENTED_EDGE( '', *, *, #328, .F. );
#268 = CARTESIAN_POINT( '', ( 8.67361737988404E-16, -20.0000000000000, 0.000000000000000 ) );
#269 = DIRECTION( '', ( 0.000000000000000, -1.00000000000000, 0.000000000000000 ) );
#270 = DIRECTION( '', ( 1.00000000000000, 0.000000000000000, 0.000000000000000 ) );
#271 = SURFACE_STYLE_FILL_AREA( #329 );
#272 = ORIENTED_EDGE( '', *, *, #328, .T. );
#273 = ORIENTED_EDGE( '', *, *, #309, .T. );
#274 = ORIENTED_EDGE( '', *, *, #300, .T. );
#275 = ORIENTED_EDGE( '', *, *, #318, .F. );
#276 = CARTESIAN_POINT( '', ( 0.000000000000000, 10.0000000000000, -9.81495457622364 ) );
#277 = DIRECTION( '', ( 0.500000000000000, -0.000000000000000, 0.866025403784439 ) );
#278 = DIRECTION( '', ( 0.866025403784439, 0.000000000000000, -0.500000000000000 ) );
#279 = SURFACE_STYLE_FILL_AREA( #330 );
#280 = ORIENTED_EDGE( '', *, *, #327, .T. );
#281 = ORIENTED_EDGE( '', *, *, #319, .T. );
#282 = ORIENTED_EDGE( '', *, *, #298, .T. );
#283 = ORIENTED_EDGE( '', *, *, #312, .F. );
#284 = CARTESIAN_POINT( '', ( -8.50000000000000, 10.0000000000000, 4.90747728811182 ) );
#285 = DIRECTION( '', ( 0.500000000000000, 0.000000000000000, -0.866025403784439 ) );
#286 = DIRECTION( '', ( -0.866025403784439, 0.000000000000000, -0.500000000000000 ) );
#287 = SURFACE_STYLE_FILL_AREA( #331 );
#288 = ORIENTED_EDGE( '', *, *, #323, .F. );
#289 = ORIENTED_EDGE( '', *, *, #305, .T. );
#290 = CARTESIAN_POINT( '', ( 0.000000000000000, -1.30717967697245, 0.000000000000000 ) );
#291 = DIRECTION( '', ( 0.000000000000000, -1.00000000000000, -0.000000000000000 ) );
#292 = DIRECTION( '', ( 0.000000000000000, 0.000000000000000, -1.00000000000000 ) );
#293 = FILL_AREA_STYLE( '', ( #332 ) );
#294 = EDGE_CURVE( '', #333, #333, #334, .T. );
#295 = EDGE_CURVE( '', #335, #335, #336, .T. );
#296 = FILL_AREA_STYLE( '', ( #337 ) );
#297 = EDGE_CURVE( '', #338, #338, #339, .T. );
#298 = EDGE_CURVE( '', #340, #341, #342, .T. );
#299 = EDGE_CURVE( '', #343, #340, #344, .T. );
#300 = EDGE_CURVE( '', #345, #343, #346, .T. );
#301 = EDGE_CURVE( '', #347, #345, #348, .T. );
#302 = EDGE_CURVE( '', #347, #349, #350, .T. );
#303 = EDGE_CURVE( '', #341, #349, #351, .T. );
#304 = FILL_AREA_STYLE( '', ( #352 ) );
#305 = EDGE_CURVE( '', #353, #353, #354, .T. );
#306 = FILL_AREA_STYLE( '', ( #355 ) );
#307 = EDGE_CURVE( '', #356, #357, #358, .F. );
#308 = EDGE_CURVE( '', #357, #347, #359, .T. );
#309 = EDGE_CURVE( '', #356, #345, #360, .T. );
#310 = FILL_AREA_STYLE( '', ( #361 ) );
#311 = EDGE_CURVE( '', #362, #363, #364, .F. );
#312 = EDGE_CURVE( '', #363, #341, #365, .T. );
#313 = EDGE_CURVE( '', #362, #349, #366, .T. );
#314 = FILL_AREA_STYLE( '', ( #367 ) );
#315 = EDGE_CURVE( '', #357, #362, #368, .F. );
#316 = FILL_AREA_STYLE( '', ( #369 ) );
#317 = EDGE_CURVE( '', #370, #371, #372, .F. );
#318 = EDGE_CURVE( '', #371, #343, #373, .T. );
#319 = EDGE_CURVE( '', #370, #340, #374, .T. );
#320 = FILL_AREA_STYLE( '', ( #375 ) );
#321 = EDGE_CURVE( '', #376, #376, #377, .T. );
#322 = FILL_AREA_STYLE( '', ( #378 ) );
#323 = EDGE_CURVE( '', #379, #379, #380, .T. );
#324 = FILL_AREA_STYLE( '', ( #381 ) );
#325 = FILL_AREA_STYLE( '', ( #382 ) );
#326 = CARTESIAN_POINT( '', ( 2.70433193670943E-15, 10.0000000000000, 0.000000000000000 ) );
#327 = EDGE_CURVE( '', #363, #370, #383, .F. );
#328 = EDGE_CURVE( '', #371, #356, #384, .F. );
#329 = FILL_AREA_STYLE( '', ( #385 ) );
#330 = FILL_AREA_STYLE( '', ( #386 ) );
#331 = FILL_AREA_STYLE( '', ( #387 ) );
#332 = FILL_AREA_STYLE_COLOUR( '', #388 );
#333 = VERTEX_POINT( '', #389 );
#334 = CIRCLE( '', #390, 4.00000000000000 );
#335 = VERTEX_POINT( '', #391 );
#336 = CIRCLE( '', #392, 4.00000000000000 );
#337 = FILL_AREA_STYLE_COLOUR( '', #393 );
#338 = VERTEX_POINT( '', #394 );
#339 = CIRCLE( '', #395, 3.00000000000000 );
#340 = VERTEX_POINT( '', #396 );
#341 = VERTEX_POINT( '', #397 );
#342 = LINE( '', #398, #399 );
#343 = VERTEX_POINT( '', #400 );
#344 = LINE( '', #401, #402 );
#345 = VERTEX_POINT( '', #403 );
#346 = LINE( '', #404, #405 );
#347 = VERTEX_POINT( '', #406 );
#348 = LINE( '', #407, #408 );
#349 = VERTEX_POINT( '', #409 );
#350 = LINE( '', #410, #411 );
#351 = LINE( '', #412, #413 );
#352 = FILL_AREA_STYLE_COLOUR( '', #414 );
#353 = VERTEX_POINT( '', #415 );
#354 = CIRCLE( '', #416, 3.00000000000000 );
#355 = FILL_AREA_STYLE_COLOUR( '', #417 );
#356 = VERTEX_POINT( '', #418 );
#357 = VERTEX_POINT( '', #419 );
#358 = CIRCLE( '', #420, 28.7706447616000 );
#359 = LINE( '', #421, #422 );
#360 = LINE( '', #423, #424 );
#361 = FILL_AREA_STYLE_COLOUR( '', #425 );
#362 = VERTEX_POINT( '', #426 );
#363 = VERTEX_POINT( '', #427 );
#364 = CIRCLE( '', #428, 28.7706447616000 );
#365 = LINE( '', #429, #430 );
#366 = LINE( '', #431, #432 );
#367 = FILL_AREA_STYLE_COLOUR( '', #433 );
#368 = CIRCLE( '', #434, 28.7706447616000 );
#369 = FILL_AREA_STYLE_COLOUR( '', #435 );
#370 = VERTEX_POINT( '', #436 );
#371 = VERTEX_POINT( '', #437 );
#372 = CIRCLE( '', #438, 28.7706447616000 );
#373 = LINE( '', #439, #440 );
#374 = LINE( '', #441, #442 );
#375 = FILL_AREA_STYLE_COLOUR( '', #443 );
#376 = VERTEX_POINT( '', #444 );
#377 = CIRCLE( '', #445, 3.23300000000000 );
#378 = FILL_AREA_STYLE_COLOUR( '', #446 );
#379 = VERTEX_POINT( '', #447 );
#380 = CIRCLE( '', #448, 3.08038475770000 );
#381 = FILL_AREA_STYLE_COLOUR( '', #449 );
#382 = FILL_AREA_STYLE_COLOUR( '', #450 );
#383 = CIRCLE( '', #451, 28.7706447616000 );
#384 = CIRCLE( '', #452, 28.7706447616000 );
#385 = FILL_AREA_STYLE_COLOUR( '', #453 );
#386 = FILL_AREA_STYLE_COLOUR( '', #454 );
#387 = FILL_AREA_STYLE_COLOUR( '', #455 );
#388 = COLOUR_RGB( '', 0.689999997600000, 0.689999997600000, 0.689999997600000 );
#389 = CARTESIAN_POINT( '', ( 0.000000000000000, -9.23300000000000, -4.00000000000000 ) );
#390 = AXIS2_PLACEMENT_3D( '', #456, #457, #458 );
#391 = CARTESIAN_POINT( '', ( 0.000000000000000, -3.20000000000000, -4.00000000000000 ) );
#392 = AXIS2_PLACEMENT_3D( '', #459, #460, #461 );
#393 = COLOUR_RGB( '', 0.689999997600000, 0.689999997600000, 0.689999997600000 );
#394 = CARTESIAN_POINT( '', ( 0.000000000000000, 0.000000000000000, -3.00000000000000 ) );
#395 = AXIS2_PLACEMENT_3D( '', #462, #463, #464 );
#396 = CARTESIAN_POINT( '', ( -8.50000000000000, 0.000000000000000, 4.90747728811182 ) );
#397 = CARTESIAN_POINT( '', ( 0.000000000000000, 0.000000000000000, 9.81495457622364 ) );
#398 = CARTESIAN_POINT( '', ( -8.50000000000000, 0.000000000000000, 4.90747728811182 ) );
#399 = VECTOR( '', #465, 1000.00000000000 );
#400 = CARTESIAN_POINT( '', ( -8.50000000000000, 0.000000000000000, -4.90747728811182 ) );
#401 = CARTESIAN_POINT( '', ( -8.50000000000000, 0.000000000000000, -4.90747728811182 ) );
#402 = VECTOR( '', #466, 1000.00000000000 );
#403 = CARTESIAN_POINT( '', ( 0.000000000000000, 0.000000000000000, -9.81495457622364 ) );
#404 = CARTESIAN_POINT( '', ( 0.000000000000000, 0.000000000000000, -9.81495457622364 ) );
#405 = VECTOR( '', #467, 1000.00000000000 );
#406 = CARTESIAN_POINT( '', ( 8.50000000000000, 0.000000000000000, -4.90747728811182 ) );
#407 = CARTESIAN_POINT( '', ( 8.50000000000000, 0.000000000000000, -4.90747728811182 ) );
#408 = VECTOR( '', #468, 1000.00000000000 );
#409 = CARTESIAN_POINT( '', ( 8.50000000000000, 0.000000000000000, 4.90747728811182 ) );
#410 = CARTESIAN_POINT( '', ( 8.50000000000000, 0.000000000000000, 0.000000000000000 ) );
#411 = VECTOR( '', #469, 1000.00000000000 );
#412 = CARTESIAN_POINT( '', ( 0.000000000000000, 0.000000000000000, 9.81495457622364 ) );
#413 = VECTOR( '', #470, 1000.00000000000 );
#414 = COLOUR_RGB( '', 0.689999997600000, 0.689999997600000, 0.689999997600000 );
#415 = CARTESIAN_POINT( '', ( 0.000000000000000, -1.30717967697245, -3.00000000000000 ) );
#416 = AXIS2_PLACEMENT_3D( '', #471, #472, #473 );
#417 = COLOUR_RGB( '', 0.689999997600000, 0.689999997600000, 0.689999997600000 );
#418 = CARTESIAN_POINT( '', ( 0.000000000000000, 8.34901526802416, -9.81495457622364 ) );
#419 = CARTESIAN_POINT( '', ( 8.50000000000000, 8.34901526802416, -4.90747728811182 ) );
#420 = AXIS2_PLACEMENT_3D( '', #474, #475, #476 );
#421 = CARTESIAN_POINT( '', ( 8.50000000000000, 10.0000000000000, -4.90747728811182 ) );
#422 = VECTOR( '', #477, 1000.00000000000 );
#423 = CARTESIAN_POINT( '', ( 0.000000000000000, 10.0000000000000, -9.81495457622364 ) );
#424 = VECTOR( '', #478, 1000.00000000000 );
#425 = COLOUR_RGB( '', 0.689999997600000, 0.689999997600000, 0.689999997600000 );
#426 = CARTESIAN_POINT( '', ( 8.50000000000000, 8.34901526802416, 4.90747728811182 ) );
#427 = CARTESIAN_POINT( '', ( 0.000000000000000, 8.34901526802416, 9.81495457622364 ) );
#428 = AXIS2_PLACEMENT_3D( '', #479, #480, #481 );
#429 = CARTESIAN_POINT( '', ( 0.000000000000000, 10.0000000000000, 9.81495457622364 ) );
#430 = VECTOR( '', #482, 1000.00000000000 );
#431 = CARTESIAN_POINT( '', ( 8.50000000000000, 10.0000000000000, 4.90747728811182 ) );
#432 = VECTOR( '', #483, 1000.00000000000 );
#433 = COLOUR_RGB( '', 0.689999997600000, 0.689999997600000, 0.689999997600000 );
#434 = AXIS2_PLACEMENT_3D( '', #484, #485, #486 );
#435 = COLOUR_RGB( '', 0.689999997600000, 0.689999997600000, 0.689999997600000 );
#436 = CARTESIAN_POINT( '', ( -8.50000000000000, 8.34901526802416, 4.90747728811182 ) );
#437 = CARTESIAN_POINT( '', ( -8.50000000000000, 8.34901526802416, -4.90747728811182 ) );
#438 = AXIS2_PLACEMENT_3D( '', #487, #488, #489 );
#439 = CARTESIAN_POINT( '', ( -8.50000000000000, 10.0000000000000, -4.90747728811182 ) );
#440 = VECTOR( '', #490, 1000.00000000000 );
#441 = CARTESIAN_POINT( '', ( -8.50000000000000, 10.0000000000000, 4.90747728811182 ) );
#442 = VECTOR( '', #491, 1000.00000000000 );
#443 = COLOUR_RGB( '', 0.689999997600000, 0.689999997600000, 0.689999997600000 );
#444 = CARTESIAN_POINT( '', ( 0.000000000000000, -10.0000000000000, -3.23300000000000 ) );
#445 = AXIS2_PLACEMENT_3D( '', #492, #493, #494 );
#446 = COLOUR_RGB( '', 0.689999997600000, 0.689999997600000, 0.689999997600000 );
#447 = CARTESIAN_POINT( '', ( 0.000000000000000, -1.60717967697245, -3.08038475772934 ) );
#448 = AXIS2_PLACEMENT_3D( '', #495, #496, #497 );
#449 = COLOUR_RGB( '', 0.689999997600000, 0.689999997600000, 0.689999997600000 );
#450 = COLOUR_RGB( '', 0.689999997600000, 0.689999997600000, 0.689999997600000 );
#451 = AXIS2_PLACEMENT_3D( '', #498, #499, #500 );
#452 = AXIS2_PLACEMENT_3D( '', #501, #502, #503 );
#453 = COLOUR_RGB( '', 0.689999997600000, 0.689999997600000, 0.689999997600000 );
#454 = COLOUR_RGB( '', 0.689999997600000, 0.689999997600000, 0.689999997600000 );
#455 = COLOUR_RGB( '', 0.689999997600000, 0.689999997600000, 0.689999997600000 );
#456 = CARTESIAN_POINT( '', ( 0.000000000000000, -9.23300000000000, 0.000000000000000 ) );
#457 = DIRECTION( '', ( 0.000000000000000, -1.00000000000000, -0.000000000000000 ) );
#458 = DIRECTION( '', ( 0.000000000000000, 0.000000000000000, -1.00000000000000 ) );
#459 = CARTESIAN_POINT( '', ( 0.000000000000000, -3.20000000000000, 0.000000000000000 ) );
#460 = DIRECTION( '', ( 0.000000000000000, -1.00000000000000, -0.000000000000000 ) );
#461 = DIRECTION( '', ( 0.000000000000000, 0.000000000000000, -1.00000000000000 ) );
#462 = CARTESIAN_POINT( '', ( 0.000000000000000, 0.000000000000000, 0.000000000000000 ) );
#463 = DIRECTION( '', ( 0.000000000000000, -1.00000000000000, -0.000000000000000 ) );
#464 = DIRECTION( '', ( 0.000000000000000, 0.000000000000000, -1.00000000000000 ) );
#465 = DIRECTION( '', ( 0.866025403784439, 0.000000000000000, 0.500000000000000 ) );
#466 = DIRECTION( '', ( 0.000000000000000, 0.000000000000000, 1.00000000000000 ) );
#467 = DIRECTION( '', ( -0.866025403784439, 0.000000000000000, 0.500000000000000 ) );
#468 = DIRECTION( '', ( -0.866025403784439, 0.000000000000000, -0.500000000000000 ) );
#469 = DIRECTION( '', ( 0.000000000000000, -0.000000000000000, 1.00000000000000 ) );
#470 = DIRECTION( '', ( 0.866025403784439, 0.000000000000000, -0.500000000000000 ) );
#471 = CARTESIAN_POINT( '', ( 0.000000000000000, -1.30717967697245, 0.000000000000000 ) );
#472 = DIRECTION( '', ( 0.000000000000000, -1.00000000000000, -0.000000000000000 ) );
#473 = DIRECTION( '', ( 0.000000000000000, 0.000000000000000, -1.00000000000000 ) );
#474 = CARTESIAN_POINT( '', ( 4.25000000000000, -20.0000000000000, -7.36121593216773 ) );
#475 = DIRECTION( '', ( -0.500000000000000, 0.000000000000000, 0.866025403784439 ) );
#476 = DIRECTION( '', ( 0.866025403784439, 0.000000000000000, 0.500000000000000 ) );
#477 = DIRECTION( '', ( -0.000000000000000, -1.00000000000000, -0.000000000000000 ) );
#478 = DIRECTION( '', ( -0.000000000000000, -1.00000000000000, -0.000000000000000 ) );
#479 = CARTESIAN_POINT( '', ( 4.25000000000000, -20.0000000000000, 7.36121593216773 ) );
#480 = DIRECTION( '', ( -0.500000000000000, 0.000000000000000, -0.866025403784439 ) );
#481 = DIRECTION( '', ( -0.866025403784439, 0.000000000000000, 0.500000000000000 ) );
#482 = DIRECTION( '', ( -0.000000000000000, -1.00000000000000, -0.000000000000000 ) );
#483 = DIRECTION( '', ( -0.000000000000000, -1.00000000000000, -0.000000000000000 ) );
#484 = CARTESIAN_POINT( '', ( 8.50000000000000, -20.0000000000000, 0.000000000000000 ) );
#485 = DIRECTION( '', ( -1.00000000000000, 0.000000000000000, 0.000000000000000 ) );
#486 = DIRECTION( '', ( 0.000000000000000, 0.000000000000000, 1.00000000000000 ) );
#487 = CARTESIAN_POINT( '', ( -8.50000000000000, -20.0000000000000, 0.000000000000000 ) );
#488 = DIRECTION( '', ( 1.00000000000000, 0.000000000000000, 0.000000000000000 ) );
#489 = DIRECTION( '', ( 0.000000000000000, 0.000000000000000, -1.00000000000000 ) );
#490 = DIRECTION( '', ( -0.000000000000000, -1.00000000000000, -0.000000000000000 ) );
#491 = DIRECTION( '', ( -0.000000000000000, -1.00000000000000, -0.000000000000000 ) );
#492 = CARTESIAN_POINT( '', ( 0.000000000000000, -10.0000000000000, 0.000000000000000 ) );
#493 = DIRECTION( '', ( 0.000000000000000, -1.00000000000000, -0.000000000000000 ) );
#494 = DIRECTION( '', ( 0.000000000000000, 0.000000000000000, -1.00000000000000 ) );
#495 = CARTESIAN_POINT( '', ( 0.000000000000000, -1.60717967697245, 0.000000000000000 ) );
#496 = DIRECTION( '', ( 0.000000000000000, -1.00000000000000, -0.000000000000000 ) );
#497 = DIRECTION( '', ( 0.000000000000000, 0.000000000000000, -1.00000000000000 ) );
#498 = CARTESIAN_POINT( '', ( -4.25000000000000, -20.0000000000000, 7.36121593216773 ) );
#499 = DIRECTION( '', ( 0.500000000000000, 0.000000000000000, -0.866025403784439 ) );
#500 = DIRECTION( '', ( -0.866025403784439, 0.000000000000000, -0.500000000000000 ) );
#501 = CARTESIAN_POINT( '', ( -4.25000000000000, -20.0000000000000, -7.36121593216773 ) );
#502 = DIRECTION( '', ( 0.500000000000000, -0.000000000000000, 0.866025403784439 ) );
#503 = DIRECTION( '', ( 0.866025403784439, 0.000000000000000, -0.500000000000000 ) );
ENDSEC;
END-ISO-10303-21;
