ISO-10303-21;
HEADER;
FILE_DESCRIPTION( ( 'STEP AP214' ), '1' );
FILE_NAME( '//goodhand-server/Shared Folders/GoodHand Data/Kipp CAD/K0390/K0390.081X45.stp', '2020-12-07T10:15:30', ( '' ), ( '' ), ' ', 'PARTsolutions', ' ' );
FILE_SCHEMA( ( 'AUTOMOTIVE_DESIGN { 1 0 10303 214 1 1 1 1 }' ) );
ENDSEC;
DATA;
#1 = MECHANICAL_DESIGN_GEOMETRIC_PRESENTATION_REPRESENTATION( ' ', ( #10, #11, #12, #13, #14, #15, #16, #17, #18, #19, #20, #21, #22 ), #6 );
#2 = PRODUCT_DEFINITION_CONTEXT( '', #23, 'design' );
#3 = APPLICATION_PROTOCOL_DEFINITION( 'international standard', 'automotive_design', 2001, #23 );
#4 = PRODUCT_CATEGORY_RELATIONSHIP( 'NONE', 'NONE', #24, #25 );
#5 = SHAPE_DEFINITION_REPRESENTATION( #26, #27 );
#6 =  ( GEOMETRIC_REPRESENTATION_CONTEXT( 3 )GLOBAL_UNCERTAINTY_ASSIGNED_CONTEXT( ( #30 ) )GLOBAL_UNIT_ASSIGNED_CONTEXT( ( #32, #33, #34 ) )REPRESENTATION_CONTEXT( 'NONE', 'WORKSPACE' ) );
#10 = STYLED_ITEM( '', ( #36 ), #37 );
#11 = STYLED_ITEM( '', ( #38 ), #39 );
#12 = STYLED_ITEM( '', ( #40 ), #41 );
#13 = STYLED_ITEM( '', ( #42 ), #43 );
#14 = STYLED_ITEM( '', ( #44 ), #45 );
#15 = STYLED_ITEM( '', ( #46 ), #47 );
#16 = STYLED_ITEM( '', ( #48 ), #49 );
#17 = STYLED_ITEM( '', ( #50 ), #51 );
#18 = STYLED_ITEM( '', ( #52 ), #53 );
#19 = STYLED_ITEM( '', ( #54 ), #55 );
#20 = STYLED_ITEM( '', ( #56 ), #57 );
#21 = STYLED_ITEM( '', ( #58 ), #59 );
#22 = STYLED_ITEM( '', ( #60 ), #61 );
#23 = APPLICATION_CONTEXT( 'core data for automotive mechanical design processes' );
#24 = PRODUCT_CATEGORY( 'part', 'NONE' );
#25 = PRODUCT_RELATED_PRODUCT_CATEGORY( 'detail', ' ', ( #62 ) );
#26 = PRODUCT_DEFINITION_SHAPE( 'NONE', 'NONE', #63 );
#27 = ADVANCED_BREP_SHAPE_REPRESENTATION( '_K0390.081X45', ( #64, #65 ), #6 );
#30 = UNCERTAINTY_MEASURE_WITH_UNIT( LENGTH_MEASURE( 0.00100000000000000 ), #32, '', '' );
#32 =  ( CONVERSION_BASED_UNIT( 'MILLIMETRE', #68 )LENGTH_UNIT(  )NAMED_UNIT( #71 ) );
#33 =  ( NAMED_UNIT( #73 )PLANE_ANGLE_UNIT(  )SI_UNIT( $, .RADIAN. ) );
#34 =  ( NAMED_UNIT( #73 )SI_UNIT( $, .STERADIAN. )SOLID_ANGLE_UNIT(  ) );
#36 = PRESENTATION_STYLE_ASSIGNMENT( ( #79 ) );
#37 = ADVANCED_FACE( '', ( #80 ), #81, .F. );
#38 = PRESENTATION_STYLE_ASSIGNMENT( ( #82 ) );
#39 = ADVANCED_FACE( '', ( #83, #84 ), #85, .T. );
#40 = PRESENTATION_STYLE_ASSIGNMENT( ( #86 ) );
#41 = ADVANCED_FACE( '', ( #87, #88 ), #89, .T. );
#42 = PRESENTATION_STYLE_ASSIGNMENT( ( #90 ) );
#43 = ADVANCED_FACE( '', ( #91 ), #92, .F. );
#44 = PRESENTATION_STYLE_ASSIGNMENT( ( #93 ) );
#45 = ADVANCED_FACE( '', ( #94, #95 ), #96, .T. );
#46 = PRESENTATION_STYLE_ASSIGNMENT( ( #97 ) );
#47 = ADVANCED_FACE( '', ( #98, #99 ), #100, .F. );
#48 = PRESENTATION_STYLE_ASSIGNMENT( ( #101 ) );
#49 = ADVANCED_FACE( '', ( #102, #103 ), #104, .T. );
#50 = PRESENTATION_STYLE_ASSIGNMENT( ( #105 ) );
#51 = ADVANCED_FACE( '', ( #106 ), #107, .F. );
#52 = PRESENTATION_STYLE_ASSIGNMENT( ( #108 ) );
#53 = ADVANCED_FACE( '', ( #109 ), #110, .T. );
#54 = PRESENTATION_STYLE_ASSIGNMENT( ( #111 ) );
#55 = ADVANCED_FACE( '', ( #112 ), #113, .F. );
#56 = PRESENTATION_STYLE_ASSIGNMENT( ( #114 ) );
#57 = ADVANCED_FACE( '', ( #115 ), #116, .T. );
#58 = PRESENTATION_STYLE_ASSIGNMENT( ( #117 ) );
#59 = ADVANCED_FACE( '', ( #118 ), #119, .T. );
#60 = PRESENTATION_STYLE_ASSIGNMENT( ( #120 ) );
#61 = ADVANCED_FACE( '', ( #121, #122 ), #123, .T. );
#62 = PRODUCT( '_K0390.081X45', '_K0390.081X45', 'PART-_K0390.081X45-DESC', ( #124 ) );
#63 = PRODUCT_DEFINITION( 'NONE', 'NONE', #125, #2 );
#64 = MANIFOLD_SOLID_BREP( '_K0390.081X45', #126 );
#65 = AXIS2_PLACEMENT_3D( '', #127, #128, #129 );
#68 = LENGTH_MEASURE_WITH_UNIT( LENGTH_MEASURE( 1.00000000000000 ), #130 );
#71 = DIMENSIONAL_EXPONENTS( 1.00000000000000, 0.000000000000000, 0.000000000000000, 0.000000000000000, 0.000000000000000, 0.000000000000000, 0.000000000000000 );
#73 = DIMENSIONAL_EXPONENTS( 0.000000000000000, 0.000000000000000, 0.000000000000000, 0.000000000000000, 0.000000000000000, 0.000000000000000, 0.000000000000000 );
#79 = SURFACE_STYLE_USAGE( .BOTH., #131 );
#80 = FACE_OUTER_BOUND( '', #132, .T. );
#81 = PLANE( '', #133 );
#82 = SURFACE_STYLE_USAGE( .BOTH., #134 );
#83 = FACE_OUTER_BOUND( '', #135, .T. );
#84 = FACE_OUTER_BOUND( '', #136, .T. );
#85 = CYLINDRICAL_SURFACE( '', #137, 3.00000000000000 );
#86 = SURFACE_STYLE_USAGE( .BOTH., #138 );
#87 = FACE_BOUND( '', #139, .T. );
#88 = FACE_OUTER_BOUND( '', #140, .T. );
#89 = SPHERICAL_SURFACE( '', #141, 5.03220000000000 );
#90 = SURFACE_STYLE_USAGE( .BOTH., #142 );
#91 = FACE_OUTER_BOUND( '', #143, .T. );
#92 = PLANE( '', #144 );
#93 = SURFACE_STYLE_USAGE( .BOTH., #145 );
#94 = FACE_BOUND( '', #146, .T. );
#95 = FACE_OUTER_BOUND( '', #147, .T. );
#96 = CONICAL_SURFACE( '', #148, 4.00000000000000, 1.06399014130000 );
#97 = SURFACE_STYLE_USAGE( .BOTH., #149 );
#98 = FACE_OUTER_BOUND( '', #150, .T. );
#99 = FACE_BOUND( '', #151, .T. );
#100 = PLANE( '', #152 );
#101 = SURFACE_STYLE_USAGE( .BOTH., #153 );
#102 = FACE_OUTER_BOUND( '', #154, .T. );
#103 = FACE_OUTER_BOUND( '', #155, .T. );
#104 = CYLINDRICAL_SURFACE( '', #156, 2.70000000000000 );
#105 = SURFACE_STYLE_USAGE( .BOTH., #157 );
#106 = FACE_OUTER_BOUND( '', #158, .T. );
#107 = PLANE( '', #159 );
#108 = SURFACE_STYLE_USAGE( .BOTH., #160 );
#109 = FACE_OUTER_BOUND( '', #161, .T. );
#110 = CONICAL_SURFACE( '', #162, 3.23300000000000, 0.785398163400000 );
#111 = SURFACE_STYLE_USAGE( .BOTH., #163 );
#112 = FACE_OUTER_BOUND( '', #164, .T. );
#113 = PLANE( '', #165 );
#114 = SURFACE_STYLE_USAGE( .BOTH., #166 );
#115 = FACE_OUTER_BOUND( '', #167, .T. );
#116 = CONICAL_SURFACE( '', #168, 3.23300000000000, 0.785398163400000 );
#117 = SURFACE_STYLE_USAGE( .BOTH., #169 );
#118 = FACE_OUTER_BOUND( '', #170, .T. );
#119 = PLANE( '', #171 );
#120 = SURFACE_STYLE_USAGE( .BOTH., #172 );
#121 = FACE_OUTER_BOUND( '', #173, .T. );
#122 = FACE_OUTER_BOUND( '', #174, .T. );
#123 = CYLINDRICAL_SURFACE( '', #175, 4.00000000000000 );
#124 = PRODUCT_CONTEXT( '', #23, 'mechanical' );
#125 = PRODUCT_DEFINITION_FORMATION_WITH_SPECIFIED_SOURCE( ' ', 'NONE', #62, .NOT_KNOWN. );
#126 = CLOSED_SHELL( '', ( #55, #37, #41, #39, #47, #49, #45, #61, #57, #43, #53, #51, #59 ) );
#127 = CARTESIAN_POINT( '', ( 0.000000000000000, 0.000000000000000, 0.000000000000000 ) );
#128 = DIRECTION( '', ( 0.000000000000000, 0.000000000000000, 1.00000000000000 ) );
#129 = DIRECTION( '', ( 1.00000000000000, 0.000000000000000, 0.000000000000000 ) );
#130 =  ( LENGTH_UNIT(  )NAMED_UNIT( #71 )SI_UNIT( .MILLI., .METRE. ) );
#131 = SURFACE_SIDE_STYLE( '', ( #177 ) );
#132 = EDGE_LOOP( '', ( #178, #179, #180, #181, #182, #183 ) );
#133 = AXIS2_PLACEMENT_3D( '', #184, #185, #186 );
#134 = SURFACE_SIDE_STYLE( '', ( #187 ) );
#135 = EDGE_LOOP( '', ( #188 ) );
#136 = EDGE_LOOP( '', ( #189 ) );
#137 = AXIS2_PLACEMENT_3D( '', #190, #191, #192 );
#138 = SURFACE_SIDE_STYLE( '', ( #193 ) );
#139 = VERTEX_LOOP( '', #194 );
#140 = EDGE_LOOP( '', ( #195 ) );
#141 = AXIS2_PLACEMENT_3D( '', #196, #197, #198 );
#142 = SURFACE_SIDE_STYLE( '', ( #199 ) );
#143 = EDGE_LOOP( '', ( #200, #201 ) );
#144 = AXIS2_PLACEMENT_3D( '', #202, #203, #204 );
#145 = SURFACE_SIDE_STYLE( '', ( #205 ) );
#146 = EDGE_LOOP( '', ( #206 ) );
#147 = EDGE_LOOP( '', ( #207 ) );
#148 = AXIS2_PLACEMENT_3D( '', #208, #209, #210 );
#149 = SURFACE_SIDE_STYLE( '', ( #211 ) );
#150 = EDGE_LOOP( '', ( #212 ) );
#151 = EDGE_LOOP( '', ( #213 ) );
#152 = AXIS2_PLACEMENT_3D( '', #214, #215, #216 );
#153 = SURFACE_SIDE_STYLE( '', ( #217 ) );
#154 = EDGE_LOOP( '', ( #218 ) );
#155 = EDGE_LOOP( '', ( #219 ) );
#156 = AXIS2_PLACEMENT_3D( '', #220, #221, #222 );
#157 = SURFACE_SIDE_STYLE( '', ( #223 ) );
#158 = EDGE_LOOP( '', ( #224, #225 ) );
#159 = AXIS2_PLACEMENT_3D( '', #226, #227, #228 );
#160 = SURFACE_SIDE_STYLE( '', ( #229 ) );
#161 = EDGE_LOOP( '', ( #230, #231, #232, #233 ) );
#162 = AXIS2_PLACEMENT_3D( '', #234, #235, #236 );
#163 = SURFACE_SIDE_STYLE( '', ( #237 ) );
#164 = EDGE_LOOP( '', ( #238, #239, #240, #241, #242, #243 ) );
#165 = AXIS2_PLACEMENT_3D( '', #244, #245, #246 );
#166 = SURFACE_SIDE_STYLE( '', ( #247 ) );
#167 = EDGE_LOOP( '', ( #248, #249, #250, #251 ) );
#168 = AXIS2_PLACEMENT_3D( '', #252, #253, #254 );
#169 = SURFACE_SIDE_STYLE( '', ( #255 ) );
#170 = EDGE_LOOP( '', ( #256, #257, #258, #259 ) );
#171 = AXIS2_PLACEMENT_3D( '', #260, #261, #262 );
#172 = SURFACE_SIDE_STYLE( '', ( #263 ) );
#173 = EDGE_LOOP( '', ( #264 ) );
#174 = EDGE_LOOP( '', ( #265, #266, #267, #268, #269, #270, #271, #272 ) );
#175 = AXIS2_PLACEMENT_3D( '', #273, #274, #275 );
#177 = SURFACE_STYLE_FILL_AREA( #276 );
#178 = ORIENTED_EDGE( '', *, *, #277, .T. );
#179 = ORIENTED_EDGE( '', *, *, #278, .F. );
#180 = ORIENTED_EDGE( '', *, *, #279, .F. );
#181 = ORIENTED_EDGE( '', *, *, #280, .F. );
#182 = ORIENTED_EDGE( '', *, *, #281, .F. );
#183 = ORIENTED_EDGE( '', *, *, #282, .F. );
#184 = CARTESIAN_POINT( '', ( 3.00000000000000, -0.899999999999994, -10.5000000000000 ) );
#185 = DIRECTION( '', ( 0.000000000000000, -1.00000000000000, 0.000000000000000 ) );
#186 = DIRECTION( '', ( 0.000000000000000, 0.000000000000000, -1.00000000000000 ) );
#187 = SURFACE_STYLE_FILL_AREA( #283 );
#188 = ORIENTED_EDGE( '', *, *, #284, .F. );
#189 = ORIENTED_EDGE( '', *, *, #285, .T. );
#190 = CARTESIAN_POINT( '', ( 45.0000000000000, 3.55271367880050E-15, 0.000000000000000 ) );
#191 = DIRECTION( '', ( -1.00000000000000, 6.12323399573677E-17, 0.000000000000000 ) );
#192 = DIRECTION( '', ( 6.12323399573677E-17, 1.00000000000000, 0.000000000000000 ) );
#193 = SURFACE_STYLE_FILL_AREA( #286 );
#194 = VERTEX_POINT( '', #287 );
#195 = ORIENTED_EDGE( '', *, *, #284, .T. );
#196 = CARTESIAN_POINT( '', ( 39.9677999999999, -1.17093834628434E-14, 0.000000000000000 ) );
#197 = DIRECTION( '', ( 1.00000000000000, 0.000000000000000, 0.000000000000000 ) );
#198 = DIRECTION( '', ( 0.000000000000000, 1.00000000000000, 0.000000000000000 ) );
#199 = SURFACE_STYLE_FILL_AREA( #288 );
#200 = ORIENTED_EDGE( '', *, *, #289, .F. );
#201 = ORIENTED_EDGE( '', *, *, #277, .F. );
#202 = CARTESIAN_POINT( '', ( -9.89820775410848E-17, 6.30816897688204E-15, 0.000000000000000 ) );
#203 = DIRECTION( '', ( 1.00000000000000, -6.12323399573677E-17, -0.000000000000000 ) );
#204 = DIRECTION( '', ( 6.12323399573677E-17, 1.00000000000000, 0.000000000000000 ) );
#205 = SURFACE_STYLE_FILL_AREA( #290 );
#206 = ORIENTED_EDGE( '', *, *, #291, .F. );
#207 = ORIENTED_EDGE( '', *, *, #292, .T. );
#208 = CARTESIAN_POINT( '', ( 37.5000000000000, 4.01195622848076E-15, 0.000000000000000 ) );
#209 = DIRECTION( '', ( -1.00000000000000, 6.12323399573677E-17, -0.000000000000000 ) );
#210 = DIRECTION( '', ( -6.12323399573677E-17, -1.00000000000000, 0.000000000000000 ) );
#211 = SURFACE_STYLE_FILL_AREA( #293 );
#212 = ORIENTED_EDGE( '', *, *, #285, .F. );
#213 = ORIENTED_EDGE( '', *, *, #294, .T. );
#214 = CARTESIAN_POINT( '', ( 42.0000000000000, 2.70000000000000, 0.000000000000000 ) );
#215 = DIRECTION( '', ( 1.00000000000000, -6.12323399573677E-17, -0.000000000000000 ) );
#216 = DIRECTION( '', ( 6.12323399573677E-17, 1.00000000000000, 0.000000000000000 ) );
#217 = SURFACE_STYLE_FILL_AREA( #295 );
#218 = ORIENTED_EDGE( '', *, *, #294, .F. );
#219 = ORIENTED_EDGE( '', *, *, #291, .T. );
#220 = CARTESIAN_POINT( '', ( 45.0000000000000, 3.55271367880050E-15, 0.000000000000000 ) );
#221 = DIRECTION( '', ( -1.00000000000000, 6.12323399573676E-17, 0.000000000000000 ) );
#222 = DIRECTION( '', ( 6.12323399573677E-17, 1.00000000000000, 0.000000000000000 ) );
#223 = SURFACE_STYLE_FILL_AREA( #296 );
#224 = ORIENTED_EDGE( '', *, *, #297, .F. );
#225 = ORIENTED_EDGE( '', *, *, #298, .F. );
#226 = CARTESIAN_POINT( '', ( -9.89820775410848E-17, 6.30816897688204E-15, 0.000000000000000 ) );
#227 = DIRECTION( '', ( 1.00000000000000, -6.12323399573677E-17, -0.000000000000000 ) );
#228 = DIRECTION( '', ( 6.12323399573677E-17, 1.00000000000000, 0.000000000000000 ) );
#229 = SURFACE_STYLE_FILL_AREA( #299 );
#230 = ORIENTED_EDGE( '', *, *, #300, .F. );
#231 = ORIENTED_EDGE( '', *, *, #278, .T. );
#232 = ORIENTED_EDGE( '', *, *, #289, .T. );
#233 = ORIENTED_EDGE( '', *, *, #282, .T. );
#234 = CARTESIAN_POINT( '', ( 0.000000000000000, 6.30816897688205E-15, 0.000000000000000 ) );
#235 = DIRECTION( '', ( 1.00000000000000, -6.12323399573676E-17, -0.000000000000000 ) );
#236 = DIRECTION( '', ( 6.12323399573677E-17, 1.00000000000000, 0.000000000000000 ) );
#237 = SURFACE_STYLE_FILL_AREA( #301 );
#238 = ORIENTED_EDGE( '', *, *, #302, .F. );
#239 = ORIENTED_EDGE( '', *, *, #298, .T. );
#240 = ORIENTED_EDGE( '', *, *, #303, .F. );
#241 = ORIENTED_EDGE( '', *, *, #304, .F. );
#242 = ORIENTED_EDGE( '', *, *, #305, .F. );
#243 = ORIENTED_EDGE( '', *, *, #306, .F. );
#244 = CARTESIAN_POINT( '', ( 3.00000000000000, 0.900000000000006, 10.5000000000000 ) );
#245 = DIRECTION( '', ( 0.000000000000000, 1.00000000000000, 0.000000000000000 ) );
#246 = DIRECTION( '', ( 0.000000000000000, -0.000000000000000, 1.00000000000000 ) );
#247 = SURFACE_STYLE_FILL_AREA( #307 );
#248 = ORIENTED_EDGE( '', *, *, #297, .T. );
#249 = ORIENTED_EDGE( '', *, *, #302, .T. );
#250 = ORIENTED_EDGE( '', *, *, #308, .F. );
#251 = ORIENTED_EDGE( '', *, *, #303, .T. );
#252 = CARTESIAN_POINT( '', ( 0.000000000000000, 6.30816897688205E-15, 0.000000000000000 ) );
#253 = DIRECTION( '', ( 1.00000000000000, -6.12323399573676E-17, -0.000000000000000 ) );
#254 = DIRECTION( '', ( 6.12323399573677E-17, 1.00000000000000, 0.000000000000000 ) );
#255 = SURFACE_STYLE_FILL_AREA( #309 );
#256 = ORIENTED_EDGE( '', *, *, #310, .T. );
#257 = ORIENTED_EDGE( '', *, *, #280, .T. );
#258 = ORIENTED_EDGE( '', *, *, #311, .T. );
#259 = ORIENTED_EDGE( '', *, *, #305, .T. );
#260 = CARTESIAN_POINT( '', ( 3.00000000000000, 0.000000000000000, 0.000000000000000 ) );
#261 = DIRECTION( '', ( -1.00000000000000, 0.000000000000000, 0.000000000000000 ) );
#262 = DIRECTION( '', ( 0.000000000000000, 0.000000000000000, 1.00000000000000 ) );
#263 = SURFACE_STYLE_FILL_AREA( #312 );
#264 = ORIENTED_EDGE( '', *, *, #292, .F. );
#265 = ORIENTED_EDGE( '', *, *, #300, .T. );
#266 = ORIENTED_EDGE( '', *, *, #281, .T. );
#267 = ORIENTED_EDGE( '', *, *, #310, .F. );
#268 = ORIENTED_EDGE( '', *, *, #304, .T. );
#269 = ORIENTED_EDGE( '', *, *, #308, .T. );
#270 = ORIENTED_EDGE( '', *, *, #306, .T. );
#271 = ORIENTED_EDGE( '', *, *, #311, .F. );
#272 = ORIENTED_EDGE( '', *, *, #279, .T. );
#273 = CARTESIAN_POINT( '', ( 45.0000000000000, 3.55271367880050E-15, 0.000000000000000 ) );
#274 = DIRECTION( '', ( -1.00000000000000, 6.12323399573677E-17, 0.000000000000000 ) );
#275 = DIRECTION( '', ( 6.12323399573677E-17, 1.00000000000000, 0.000000000000000 ) );
#276 = FILL_AREA_STYLE( '', ( #313 ) );
#277 = EDGE_CURVE( '', #314, #315, #316, .T. );
#278 = EDGE_CURVE( '', #317, #315, #318, .T. );
#279 = EDGE_CURVE( '', #319, #317, #320, .F. );
#280 = EDGE_CURVE( '', #321, #319, #322, .T. );
#281 = EDGE_CURVE( '', #323, #321, #324, .T. );
#282 = EDGE_CURVE( '', #314, #323, #325, .T. );
#283 = FILL_AREA_STYLE( '', ( #326 ) );
#284 = EDGE_CURVE( '', #327, #327, #328, .T. );
#285 = EDGE_CURVE( '', #329, #329, #330, .T. );
#286 = FILL_AREA_STYLE( '', ( #331 ) );
#287 = CARTESIAN_POINT( '', ( 45.0000000000000, -1.17093834628434E-14, 0.000000000000000 ) );
#288 = FILL_AREA_STYLE( '', ( #332 ) );
#289 = EDGE_CURVE( '', #315, #314, #333, .T. );
#290 = FILL_AREA_STYLE( '', ( #334 ) );
#291 = EDGE_CURVE( '', #335, #335, #336, .T. );
#292 = EDGE_CURVE( '', #337, #337, #338, .T. );
#293 = FILL_AREA_STYLE( '', ( #339 ) );
#294 = EDGE_CURVE( '', #340, #340, #341, .T. );
#295 = FILL_AREA_STYLE( '', ( #342 ) );
#296 = FILL_AREA_STYLE( '', ( #343 ) );
#297 = EDGE_CURVE( '', #344, #345, #346, .T. );
#298 = EDGE_CURVE( '', #345, #344, #347, .T. );
#299 = FILL_AREA_STYLE( '', ( #348 ) );
#300 = EDGE_CURVE( '', #317, #323, #349, .T. );
#301 = FILL_AREA_STYLE( '', ( #350 ) );
#302 = EDGE_CURVE( '', #345, #351, #352, .T. );
#303 = EDGE_CURVE( '', #353, #344, #354, .T. );
#304 = EDGE_CURVE( '', #355, #353, #356, .F. );
#305 = EDGE_CURVE( '', #357, #355, #358, .T. );
#306 = EDGE_CURVE( '', #351, #357, #359, .T. );
#307 = FILL_AREA_STYLE( '', ( #360 ) );
#308 = EDGE_CURVE( '', #353, #351, #361, .T. );
#309 = FILL_AREA_STYLE( '', ( #362 ) );
#310 = EDGE_CURVE( '', #355, #321, #363, .T. );
#311 = EDGE_CURVE( '', #319, #357, #364, .T. );
#312 = FILL_AREA_STYLE( '', ( #365 ) );
#313 = FILL_AREA_STYLE_COLOUR( '', #366 );
#314 = VERTEX_POINT( '', #367 );
#315 = VERTEX_POINT( '', #368 );
#316 = LINE( '', #369, #370 );
#317 = VERTEX_POINT( '', #371 );
#318 = B_SPLINE_CURVE_WITH_KNOTS( '', 3, ( #372, #373, #374, #375 ), .UNSPECIFIED., .F., .F., ( 4, 4 ), ( 0.00685941369446052, 0.00796210091278451 ), .UNSPECIFIED. );
#319 = VERTEX_POINT( '', #376 );
#320 = LINE( '', #377, #378 );
#321 = VERTEX_POINT( '', #379 );
#322 = LINE( '', #380, #381 );
#323 = VERTEX_POINT( '', #382 );
#324 = LINE( '', #383, #384 );
#325 = B_SPLINE_CURVE_WITH_KNOTS( '', 3, ( #385, #386, #387, #388 ), .UNSPECIFIED., .F., .F., ( 4, 4 ), ( 0.0158157249040059, 0.0169130244324276 ), .UNSPECIFIED. );
#326 = FILL_AREA_STYLE_COLOUR( '', #389 );
#327 = VERTEX_POINT( '', #390 );
#328 = CIRCLE( '', #391, 3.00000000000000 );
#329 = VERTEX_POINT( '', #392 );
#330 = CIRCLE( '', #393, 3.00000000000000 );
#331 = FILL_AREA_STYLE_COLOUR( '', #394 );
#332 = FILL_AREA_STYLE_COLOUR( '', #395 );
#333 = CIRCLE( '', #396, 3.23300000000000 );
#334 = FILL_AREA_STYLE_COLOUR( '', #397 );
#335 = VERTEX_POINT( '', #398 );
#336 = CIRCLE( '', #399, 2.70000000000000 );
#337 = VERTEX_POINT( '', #400 );
#338 = CIRCLE( '', #401, 4.00000000000000 );
#339 = FILL_AREA_STYLE_COLOUR( '', #402 );
#340 = VERTEX_POINT( '', #403 );
#341 = CIRCLE( '', #404, 2.70000000000000 );
#342 = FILL_AREA_STYLE_COLOUR( '', #405 );
#343 = FILL_AREA_STYLE_COLOUR( '', #406 );
#344 = VERTEX_POINT( '', #407 );
#345 = VERTEX_POINT( '', #408 );
#346 = CIRCLE( '', #409, 3.23300000000000 );
#347 = LINE( '', #410, #411 );
#348 = FILL_AREA_STYLE_COLOUR( '', #412 );
#349 = CIRCLE( '', #413, 4.00000000000000 );
#350 = FILL_AREA_STYLE_COLOUR( '', #414 );
#351 = VERTEX_POINT( '', #415 );
#352 = B_SPLINE_CURVE_WITH_KNOTS( '', 3, ( #416, #417, #418, #419 ), .UNSPECIFIED., .F., .F., ( 4, 4 ), ( 0.0158157249040059, 0.0169130244324276 ), .UNSPECIFIED. );
#353 = VERTEX_POINT( '', #420 );
#354 = B_SPLINE_CURVE_WITH_KNOTS( '', 3, ( #421, #422, #423, #424 ), .UNSPECIFIED., .F., .F., ( 4, 4 ), ( 0.00685941369446053, 0.00796210091278452 ), .UNSPECIFIED. );
#355 = VERTEX_POINT( '', #425 );
#356 = LINE( '', #426, #427 );
#357 = VERTEX_POINT( '', #428 );
#358 = LINE( '', #429, #430 );
#359 = LINE( '', #431, #432 );
#360 = FILL_AREA_STYLE_COLOUR( '', #433 );
#361 = CIRCLE( '', #434, 4.00000000000000 );
#362 = FILL_AREA_STYLE_COLOUR( '', #435 );
#363 = CIRCLE( '', #436, 4.00000000000000 );
#364 = CIRCLE( '', #437, 4.00000000000000 );
#365 = FILL_AREA_STYLE_COLOUR( '', #438 );
#366 = COLOUR_RGB( '', 0.689999997600000, 0.689999997600000, 0.689999997600000 );
#367 = CARTESIAN_POINT( '', ( 0.000000000000000, -0.899999999999994, -3.10520353600211 ) );
#368 = CARTESIAN_POINT( '', ( 0.000000000000000, -0.899999999999994, 3.10520353600211 ) );
#369 = CARTESIAN_POINT( '', ( 0.000000000000000, -0.899999999999994, -10.5000000000000 ) );
#370 = VECTOR( '', #439, 1000.00000000000 );
#371 = CARTESIAN_POINT( '', ( 0.767000000000004, -0.899999999999991, 3.89743505398102 ) );
#372 = CARTESIAN_POINT( '', ( 0.767000000000001, -0.899999999999994, 3.89743505398102 ) );
#373 = CARTESIAN_POINT( '', ( 0.510490421567083, -0.899999999999994, 3.63417516651128 ) );
#374 = CARTESIAN_POINT( '', ( 0.254616510453989, -0.899999999999994, 3.37029893756074 ) );
#375 = CARTESIAN_POINT( '', ( -9.89644392929829E-17, -0.899999999999994, 3.10520353600211 ) );
#376 = CARTESIAN_POINT( '', ( 3.00000000000000, -0.899999999999994, 3.89743505398101 ) );
#377 = CARTESIAN_POINT( '', ( 45.0000000000000, -0.899999999999994, 3.89743505398102 ) );
#378 = VECTOR( '', #440, 1000.00000000000 );
#379 = CARTESIAN_POINT( '', ( 3.00000000000000, -0.899999999999994, -3.89743505398101 ) );
#380 = CARTESIAN_POINT( '', ( 3.00000000000000, -0.899999999999994, -10.5000000000000 ) );
#381 = VECTOR( '', #441, 1000.00000000000 );
#382 = CARTESIAN_POINT( '', ( 0.767000000000004, -0.899999999999991, -3.89743505398102 ) );
#383 = CARTESIAN_POINT( '', ( 45.0000000000000, -0.899999999999994, -3.89743505398102 ) );
#384 = VECTOR( '', #442, 1000.00000000000 );
#385 = CARTESIAN_POINT( '', ( -1.07228568014189E-15, -0.899999999999994, -3.10520353600211 ) );
#386 = CARTESIAN_POINT( '', ( 0.254623855499881, -0.899999999999994, -3.37030658489628 ) );
#387 = CARTESIAN_POINT( '', ( 0.510496360619597, -0.899999999999994, -3.63418126185596 ) );
#388 = CARTESIAN_POINT( '', ( 0.767000000000001, -0.899999999999994, -3.89743505398102 ) );
#389 = COLOUR_RGB( '', 0.689999997600000, 0.689999997600000, 0.689999997600000 );
#390 = CARTESIAN_POINT( '', ( 44.0079778228192, 3.00000000000000, 0.000000000000000 ) );
#391 = AXIS2_PLACEMENT_3D( '', #443, #444, #445 );
#392 = CARTESIAN_POINT( '', ( 42.0000000000000, 3.00000000000000, 0.000000000000000 ) );
#393 = AXIS2_PLACEMENT_3D( '', #446, #447, #448 );
#394 = COLOUR_RGB( '', 0.689999997600000, 0.689999997600000, 0.689999997600000 );
#395 = COLOUR_RGB( '', 0.689999997600000, 0.689999997600000, 0.689999997600000 );
#396 = AXIS2_PLACEMENT_3D( '', #449, #450, #451 );
#397 = COLOUR_RGB( '', 0.689999997600000, 0.689999997600000, 0.689999997600000 );
#398 = CARTESIAN_POINT( '', ( 38.2217250000000, 2.70000000000000, 0.000000000000000 ) );
#399 = AXIS2_PLACEMENT_3D( '', #452, #453, #454 );
#400 = CARTESIAN_POINT( '', ( 37.5000000000000, 4.00000000000000, 0.000000000000000 ) );
#401 = AXIS2_PLACEMENT_3D( '', #455, #456, #457 );
#402 = COLOUR_RGB( '', 0.689999997600000, 0.689999997600000, 0.689999997600000 );
#403 = CARTESIAN_POINT( '', ( 42.0000000000000, 2.70000000000000, 0.000000000000000 ) );
#404 = AXIS2_PLACEMENT_3D( '', #458, #459, #460 );
#405 = COLOUR_RGB( '', 0.689999997600000, 0.689999997600000, 0.689999997600000 );
#406 = COLOUR_RGB( '', 0.689999997600000, 0.689999997600000, 0.689999997600000 );
#407 = CARTESIAN_POINT( '', ( 0.000000000000000, 0.900000000000006, -3.10520353600211 ) );
#408 = CARTESIAN_POINT( '', ( 0.000000000000000, 0.900000000000006, 3.10520353600211 ) );
#409 = AXIS2_PLACEMENT_3D( '', #461, #462, #463 );
#410 = CARTESIAN_POINT( '', ( 0.000000000000000, 0.900000000000006, 10.5000000000000 ) );
#411 = VECTOR( '', #464, 1000.00000000000 );
#412 = COLOUR_RGB( '', 0.689999997600000, 0.689999997600000, 0.689999997600000 );
#413 = AXIS2_PLACEMENT_3D( '', #465, #466, #467 );
#414 = COLOUR_RGB( '', 0.689999997600000, 0.689999997600000, 0.689999997600000 );
#415 = CARTESIAN_POINT( '', ( 0.767000000000004, 0.900000000000009, 3.89743505398101 ) );
#416 = CARTESIAN_POINT( '', ( 6.05051833877497E-16, 0.900000000000006, 3.10520353600211 ) );
#417 = CARTESIAN_POINT( '', ( 0.254623855499881, 0.900000000000006, 3.37030658489628 ) );
#418 = CARTESIAN_POINT( '', ( 0.510496360619596, 0.900000000000006, 3.63418126185596 ) );
#419 = CARTESIAN_POINT( '', ( 0.766999999999999, 0.900000000000006, 3.89743505398102 ) );
#420 = CARTESIAN_POINT( '', ( 0.767000000000004, 0.900000000000009, -3.89743505398101 ) );
#421 = CARTESIAN_POINT( '', ( 0.766999999999999, 0.900000000000006, -3.89743505398102 ) );
#422 = CARTESIAN_POINT( '', ( 0.510490421567082, 0.900000000000006, -3.63417516651127 ) );
#423 = CARTESIAN_POINT( '', ( 0.254616510453989, 0.900000000000006, -3.37029893756074 ) );
#424 = CARTESIAN_POINT( '', ( 3.97124697309625E-16, 0.900000000000006, -3.10520353600211 ) );
#425 = CARTESIAN_POINT( '', ( 3.00000000000000, 0.900000000000006, -3.89743505398101 ) );
#426 = CARTESIAN_POINT( '', ( 45.0000000000000, 0.900000000000006, -3.89743505398101 ) );
#427 = VECTOR( '', #468, 1000.00000000000 );
#428 = CARTESIAN_POINT( '', ( 3.00000000000000, 0.900000000000006, 3.89743505398101 ) );
#429 = CARTESIAN_POINT( '', ( 3.00000000000000, 0.900000000000006, 10.5000000000000 ) );
#430 = VECTOR( '', #469, 1000.00000000000 );
#431 = CARTESIAN_POINT( '', ( 45.0000000000000, 0.900000000000006, 3.89743505398101 ) );
#432 = VECTOR( '', #470, 1000.00000000000 );
#433 = COLOUR_RGB( '', 0.689999997600000, 0.689999997600000, 0.689999997600000 );
#434 = AXIS2_PLACEMENT_3D( '', #471, #472, #473 );
#435 = COLOUR_RGB( '', 0.689999997600000, 0.689999997600000, 0.689999997600000 );
#436 = AXIS2_PLACEMENT_3D( '', #474, #475, #476 );
#437 = AXIS2_PLACEMENT_3D( '', #477, #478, #479 );
#438 = COLOUR_RGB( '', 0.689999997600000, 0.689999997600000, 0.689999997600000 );
#439 = DIRECTION( '', ( 0.000000000000000, 0.000000000000000, 1.00000000000000 ) );
#440 = DIRECTION( '', ( 1.00000000000000, -6.12323399573677E-17, -0.000000000000000 ) );
#441 = DIRECTION( '', ( 0.000000000000000, 0.000000000000000, 1.00000000000000 ) );
#442 = DIRECTION( '', ( 1.00000000000000, -6.12323399573677E-17, -0.000000000000000 ) );
#443 = CARTESIAN_POINT( '', ( 44.0079778228192, 3.61345751799888E-15, 0.000000000000000 ) );
#444 = DIRECTION( '', ( 1.00000000000000, -6.12323399573677E-17, -0.000000000000000 ) );
#445 = DIRECTION( '', ( 6.12323399573677E-17, 1.00000000000000, 0.000000000000000 ) );
#446 = CARTESIAN_POINT( '', ( 42.0000000000000, 3.73641069867260E-15, 0.000000000000000 ) );
#447 = DIRECTION( '', ( 1.00000000000000, -6.12323399573677E-17, -0.000000000000000 ) );
#448 = DIRECTION( '', ( 6.12323399573677E-17, 1.00000000000000, 0.000000000000000 ) );
#449 = CARTESIAN_POINT( '', ( 0.000000000000000, 6.30816897688205E-15, 0.000000000000000 ) );
#450 = DIRECTION( '', ( 1.00000000000000, -6.12323399573677E-17, -0.000000000000000 ) );
#451 = DIRECTION( '', ( 6.12323399573677E-17, 1.00000000000000, 0.000000000000000 ) );
#452 = CARTESIAN_POINT( '', ( 38.2217250000000, 3.96776331792503E-15, 0.000000000000000 ) );
#453 = DIRECTION( '', ( 1.00000000000000, -6.12323399573676E-17, -0.000000000000000 ) );
#454 = DIRECTION( '', ( 6.12323399573677E-17, 1.00000000000000, 0.000000000000000 ) );
#455 = CARTESIAN_POINT( '', ( 37.5000000000000, 4.01195622848076E-15, 0.000000000000000 ) );
#456 = DIRECTION( '', ( 1.00000000000000, -6.12323399573677E-17, -0.000000000000000 ) );
#457 = DIRECTION( '', ( 6.12323399573677E-17, 1.00000000000000, 0.000000000000000 ) );
#458 = CARTESIAN_POINT( '', ( 42.0000000000000, 3.73641069867260E-15, 0.000000000000000 ) );
#459 = DIRECTION( '', ( 1.00000000000000, -6.12323399573676E-17, -0.000000000000000 ) );
#460 = DIRECTION( '', ( 6.12323399573677E-17, 1.00000000000000, 0.000000000000000 ) );
#461 = CARTESIAN_POINT( '', ( 0.000000000000000, 6.30816897688205E-15, 0.000000000000000 ) );
#462 = DIRECTION( '', ( 1.00000000000000, -6.12323399573677E-17, -0.000000000000000 ) );
#463 = DIRECTION( '', ( 6.12323399573677E-17, 1.00000000000000, 0.000000000000000 ) );
#464 = DIRECTION( '', ( 0.000000000000000, 0.000000000000000, -1.00000000000000 ) );
#465 = CARTESIAN_POINT( '', ( 0.766999999999997, 6.26120377213474E-15, 0.000000000000000 ) );
#466 = DIRECTION( '', ( 1.00000000000000, -6.12323399573677E-17, -0.000000000000000 ) );
#467 = DIRECTION( '', ( 6.12323399573677E-17, 1.00000000000000, 0.000000000000000 ) );
#468 = DIRECTION( '', ( 1.00000000000000, -6.12323399573677E-17, -0.000000000000000 ) );
#469 = DIRECTION( '', ( 0.000000000000000, 0.000000000000000, -1.00000000000000 ) );
#470 = DIRECTION( '', ( 1.00000000000000, -6.12323399573677E-17, -0.000000000000000 ) );
#471 = CARTESIAN_POINT( '', ( 0.766999999999997, 6.26120377213474E-15, 0.000000000000000 ) );
#472 = DIRECTION( '', ( 1.00000000000000, -6.12323399573677E-17, -0.000000000000000 ) );
#473 = DIRECTION( '', ( 6.12323399573677E-17, 1.00000000000000, 0.000000000000000 ) );
#474 = CARTESIAN_POINT( '', ( 3.00000000000000, 6.12447195700994E-15, 0.000000000000000 ) );
#475 = DIRECTION( '', ( -1.00000000000000, 0.000000000000000, 0.000000000000000 ) );
#476 = DIRECTION( '', ( 0.000000000000000, 0.000000000000000, 1.00000000000000 ) );
#477 = CARTESIAN_POINT( '', ( 3.00000000000000, 6.12447195700994E-15, 0.000000000000000 ) );
#478 = DIRECTION( '', ( -1.00000000000000, 0.000000000000000, 0.000000000000000 ) );
#479 = DIRECTION( '', ( 0.000000000000000, 0.000000000000000, 1.00000000000000 ) );
ENDSEC;
END-ISO-10303-21;
