ISO-10303-21;
HEADER;
FILE_DESCRIPTION( ( 'STEP AP214' ), '1' );
FILE_NAME( '//goodhand-server/Shared Folders/GoodHand Data/Kipp CAD/K0390/K0390.141X60.stp', '2020-12-07T10:15:54', ( '' ), ( '' ), ' ', 'PARTsolutions', ' ' );
FILE_SCHEMA( ( 'AUTOMOTIVE_DESIGN { 1 0 10303 214 1 1 1 1 }' ) );
ENDSEC;
DATA;
#1 = MECHANICAL_DESIGN_GEOMETRIC_PRESENTATION_REPRESENTATION( ' ', ( #10, #11, #12, #13, #14, #15, #16, #17, #18, #19, #20, #21, #22 ), #6 );
#2 = PRODUCT_DEFINITION_CONTEXT( '', #23, 'design' );
#3 = APPLICATION_PROTOCOL_DEFINITION( 'international standard', 'automotive_design', 2001, #23 );
#4 = PRODUCT_CATEGORY_RELATIONSHIP( 'NONE', 'NONE', #24, #25 );
#5 = SHAPE_DEFINITION_REPRESENTATION( #26, #27 );
#6 =  ( GEOMETRIC_REPRESENTATION_CONTEXT( 3 )GLOBAL_UNCERTAINTY_ASSIGNED_CONTEXT( ( #30 ) )GLOBAL_UNIT_ASSIGNED_CONTEXT( ( #32, #33, #34 ) )REPRESENTATION_CONTEXT( 'NONE', 'WORKSPACE' ) );
#10 = STYLED_ITEM( '', ( #36 ), #37 );
#11 = STYLED_ITEM( '', ( #38 ), #39 );
#12 = STYLED_ITEM( '', ( #40 ), #41 );
#13 = STYLED_ITEM( '', ( #42 ), #43 );
#14 = STYLED_ITEM( '', ( #44 ), #45 );
#15 = STYLED_ITEM( '', ( #46 ), #47 );
#16 = STYLED_ITEM( '', ( #48 ), #49 );
#17 = STYLED_ITEM( '', ( #50 ), #51 );
#18 = STYLED_ITEM( '', ( #52 ), #53 );
#19 = STYLED_ITEM( '', ( #54 ), #55 );
#20 = STYLED_ITEM( '', ( #56 ), #57 );
#21 = STYLED_ITEM( '', ( #58 ), #59 );
#22 = STYLED_ITEM( '', ( #60 ), #61 );
#23 = APPLICATION_CONTEXT( 'core data for automotive mechanical design processes' );
#24 = PRODUCT_CATEGORY( 'part', 'NONE' );
#25 = PRODUCT_RELATED_PRODUCT_CATEGORY( 'detail', ' ', ( #62 ) );
#26 = PRODUCT_DEFINITION_SHAPE( 'NONE', 'NONE', #63 );
#27 = ADVANCED_BREP_SHAPE_REPRESENTATION( '_K0390.141X60', ( #64, #65 ), #6 );
#30 = UNCERTAINTY_MEASURE_WITH_UNIT( LENGTH_MEASURE( 0.00100000000000000 ), #32, '', '' );
#32 =  ( CONVERSION_BASED_UNIT( 'MILLIMETRE', #68 )LENGTH_UNIT(  )NAMED_UNIT( #71 ) );
#33 =  ( NAMED_UNIT( #73 )PLANE_ANGLE_UNIT(  )SI_UNIT( $, .RADIAN. ) );
#34 =  ( NAMED_UNIT( #73 )SI_UNIT( $, .STERADIAN. )SOLID_ANGLE_UNIT(  ) );
#36 = PRESENTATION_STYLE_ASSIGNMENT( ( #79 ) );
#37 = ADVANCED_FACE( '', ( #80, #81 ), #82, .T. );
#38 = PRESENTATION_STYLE_ASSIGNMENT( ( #83 ) );
#39 = ADVANCED_FACE( '', ( #84, #85 ), #86, .T. );
#40 = PRESENTATION_STYLE_ASSIGNMENT( ( #87 ) );
#41 = ADVANCED_FACE( '', ( #88 ), #89, .F. );
#42 = PRESENTATION_STYLE_ASSIGNMENT( ( #90 ) );
#43 = ADVANCED_FACE( '', ( #91, #92 ), #93, .T. );
#44 = PRESENTATION_STYLE_ASSIGNMENT( ( #94 ) );
#45 = ADVANCED_FACE( '', ( #95 ), #96, .T. );
#46 = PRESENTATION_STYLE_ASSIGNMENT( ( #97 ) );
#47 = ADVANCED_FACE( '', ( #98 ), #99, .F. );
#48 = PRESENTATION_STYLE_ASSIGNMENT( ( #100 ) );
#49 = ADVANCED_FACE( '', ( #101, #102 ), #103, .F. );
#50 = PRESENTATION_STYLE_ASSIGNMENT( ( #104 ) );
#51 = ADVANCED_FACE( '', ( #105, #106 ), #107, .T. );
#52 = PRESENTATION_STYLE_ASSIGNMENT( ( #108 ) );
#53 = ADVANCED_FACE( '', ( #109, #110 ), #111, .T. );
#54 = PRESENTATION_STYLE_ASSIGNMENT( ( #112 ) );
#55 = ADVANCED_FACE( '', ( #113 ), #114, .T. );
#56 = PRESENTATION_STYLE_ASSIGNMENT( ( #115 ) );
#57 = ADVANCED_FACE( '', ( #116 ), #117, .F. );
#58 = PRESENTATION_STYLE_ASSIGNMENT( ( #118 ) );
#59 = ADVANCED_FACE( '', ( #119 ), #120, .F. );
#60 = PRESENTATION_STYLE_ASSIGNMENT( ( #121 ) );
#61 = ADVANCED_FACE( '', ( #122 ), #123, .T. );
#62 = PRODUCT( '_K0390.141X60', '_K0390.141X60', 'PART-_K0390.141X60-DESC', ( #124 ) );
#63 = PRODUCT_DEFINITION( 'NONE', 'NONE', #125, #2 );
#64 = MANIFOLD_SOLID_BREP( '_K0390.141X60', #126 );
#65 = AXIS2_PLACEMENT_3D( '', #127, #128, #129 );
#68 = LENGTH_MEASURE_WITH_UNIT( LENGTH_MEASURE( 1.00000000000000 ), #130 );
#71 = DIMENSIONAL_EXPONENTS( 1.00000000000000, 0.000000000000000, 0.000000000000000, 0.000000000000000, 0.000000000000000, 0.000000000000000, 0.000000000000000 );
#73 = DIMENSIONAL_EXPONENTS( 0.000000000000000, 0.000000000000000, 0.000000000000000, 0.000000000000000, 0.000000000000000, 0.000000000000000, 0.000000000000000 );
#79 = SURFACE_STYLE_USAGE( .BOTH., #131 );
#80 = FACE_BOUND( '', #132, .T. );
#81 = FACE_OUTER_BOUND( '', #133, .T. );
#82 = SPHERICAL_SURFACE( '', #134, 8.38700000000000 );
#83 = SURFACE_STYLE_USAGE( .BOTH., #135 );
#84 = FACE_OUTER_BOUND( '', #136, .T. );
#85 = FACE_OUTER_BOUND( '', #137, .T. );
#86 = CYLINDRICAL_SURFACE( '', #138, 7.00000000000000 );
#87 = SURFACE_STYLE_USAGE( .BOTH., #139 );
#88 = FACE_OUTER_BOUND( '', #140, .T. );
#89 = PLANE( '', #141 );
#90 = SURFACE_STYLE_USAGE( .BOTH., #142 );
#91 = FACE_OUTER_BOUND( '', #143, .T. );
#92 = FACE_OUTER_BOUND( '', #144, .T. );
#93 = CYLINDRICAL_SURFACE( '', #145, 4.50000000000000 );
#94 = SURFACE_STYLE_USAGE( .BOTH., #146 );
#95 = FACE_OUTER_BOUND( '', #147, .T. );
#96 = PLANE( '', #148 );
#97 = SURFACE_STYLE_USAGE( .BOTH., #149 );
#98 = FACE_OUTER_BOUND( '', #150, .T. );
#99 = PLANE( '', #151 );
#100 = SURFACE_STYLE_USAGE( .BOTH., #152 );
#101 = FACE_OUTER_BOUND( '', #153, .T. );
#102 = FACE_BOUND( '', #154, .T. );
#103 = PLANE( '', #155 );
#104 = SURFACE_STYLE_USAGE( .BOTH., #156 );
#105 = FACE_OUTER_BOUND( '', #157, .T. );
#106 = FACE_OUTER_BOUND( '', #158, .T. );
#107 = CYLINDRICAL_SURFACE( '', #159, 5.00000000000000 );
#108 = SURFACE_STYLE_USAGE( .BOTH., #160 );
#109 = FACE_BOUND( '', #161, .T. );
#110 = FACE_OUTER_BOUND( '', #162, .T. );
#111 = CONICAL_SURFACE( '', #163, 7.00000000000000, 1.13808724680000 );
#112 = SURFACE_STYLE_USAGE( .BOTH., #164 );
#113 = FACE_OUTER_BOUND( '', #165, .T. );
#114 = CONICAL_SURFACE( '', #166, 5.77300000000000, 0.785398163400000 );
#115 = SURFACE_STYLE_USAGE( .BOTH., #167 );
#116 = FACE_OUTER_BOUND( '', #168, .T. );
#117 = PLANE( '', #169 );
#118 = SURFACE_STYLE_USAGE( .BOTH., #170 );
#119 = FACE_OUTER_BOUND( '', #171, .T. );
#120 = PLANE( '', #172 );
#121 = SURFACE_STYLE_USAGE( .BOTH., #173 );
#122 = FACE_OUTER_BOUND( '', #174, .T. );
#123 = CONICAL_SURFACE( '', #175, 5.77300000000000, 0.785398163400000 );
#124 = PRODUCT_CONTEXT( '', #23, 'mechanical' );
#125 = PRODUCT_DEFINITION_FORMATION_WITH_SPECIFIED_SOURCE( ' ', 'NONE', #62, .NOT_KNOWN. );
#126 = CLOSED_SHELL( '', ( #57, #47, #37, #51, #49, #43, #53, #39, #55, #59, #61, #41, #45 ) );
#127 = CARTESIAN_POINT( '', ( 0.000000000000000, 0.000000000000000, 0.000000000000000 ) );
#128 = DIRECTION( '', ( 0.000000000000000, 0.000000000000000, 1.00000000000000 ) );
#129 = DIRECTION( '', ( 1.00000000000000, 0.000000000000000, 0.000000000000000 ) );
#130 =  ( LENGTH_UNIT(  )NAMED_UNIT( #71 )SI_UNIT( .MILLI., .METRE. ) );
#131 = SURFACE_SIDE_STYLE( '', ( #177 ) );
#132 = VERTEX_LOOP( '', #178 );
#133 = EDGE_LOOP( '', ( #179 ) );
#134 = AXIS2_PLACEMENT_3D( '', #180, #181, #182 );
#135 = SURFACE_SIDE_STYLE( '', ( #183 ) );
#136 = EDGE_LOOP( '', ( #184 ) );
#137 = EDGE_LOOP( '', ( #185, #186, #187, #188, #189, #190, #191, #192 ) );
#138 = AXIS2_PLACEMENT_3D( '', #193, #194, #195 );
#139 = SURFACE_SIDE_STYLE( '', ( #196 ) );
#140 = EDGE_LOOP( '', ( #197, #198 ) );
#141 = AXIS2_PLACEMENT_3D( '', #199, #200, #201 );
#142 = SURFACE_SIDE_STYLE( '', ( #202 ) );
#143 = EDGE_LOOP( '', ( #203 ) );
#144 = EDGE_LOOP( '', ( #204 ) );
#145 = AXIS2_PLACEMENT_3D( '', #205, #206, #207 );
#146 = SURFACE_SIDE_STYLE( '', ( #208 ) );
#147 = EDGE_LOOP( '', ( #209, #210, #211, #212 ) );
#148 = AXIS2_PLACEMENT_3D( '', #213, #214, #215 );
#149 = SURFACE_SIDE_STYLE( '', ( #216 ) );
#150 = EDGE_LOOP( '', ( #217, #218, #219, #220, #221, #222 ) );
#151 = AXIS2_PLACEMENT_3D( '', #223, #224, #225 );
#152 = SURFACE_SIDE_STYLE( '', ( #226 ) );
#153 = EDGE_LOOP( '', ( #227 ) );
#154 = EDGE_LOOP( '', ( #228 ) );
#155 = AXIS2_PLACEMENT_3D( '', #229, #230, #231 );
#156 = SURFACE_SIDE_STYLE( '', ( #232 ) );
#157 = EDGE_LOOP( '', ( #233 ) );
#158 = EDGE_LOOP( '', ( #234 ) );
#159 = AXIS2_PLACEMENT_3D( '', #235, #236, #237 );
#160 = SURFACE_SIDE_STYLE( '', ( #238 ) );
#161 = EDGE_LOOP( '', ( #239 ) );
#162 = EDGE_LOOP( '', ( #240 ) );
#163 = AXIS2_PLACEMENT_3D( '', #241, #242, #243 );
#164 = SURFACE_SIDE_STYLE( '', ( #244 ) );
#165 = EDGE_LOOP( '', ( #245, #246, #247, #248 ) );
#166 = AXIS2_PLACEMENT_3D( '', #249, #250, #251 );
#167 = SURFACE_SIDE_STYLE( '', ( #252 ) );
#168 = EDGE_LOOP( '', ( #253, #254, #255, #256, #257, #258 ) );
#169 = AXIS2_PLACEMENT_3D( '', #259, #260, #261 );
#170 = SURFACE_SIDE_STYLE( '', ( #262 ) );
#171 = EDGE_LOOP( '', ( #263, #264 ) );
#172 = AXIS2_PLACEMENT_3D( '', #265, #266, #267 );
#173 = SURFACE_SIDE_STYLE( '', ( #268 ) );
#174 = EDGE_LOOP( '', ( #269, #270, #271, #272 ) );
#175 = AXIS2_PLACEMENT_3D( '', #273, #274, #275 );
#177 = SURFACE_STYLE_FILL_AREA( #276 );
#178 = VERTEX_POINT( '', #277 );
#179 = ORIENTED_EDGE( '', *, *, #278, .T. );
#180 = CARTESIAN_POINT( '', ( 51.6129999999999, -3.46944695195361E-14, 0.000000000000000 ) );
#181 = DIRECTION( '', ( 1.00000000000000, 0.000000000000000, 0.000000000000000 ) );
#182 = DIRECTION( '', ( 0.000000000000000, 1.00000000000000, 0.000000000000000 ) );
#183 = SURFACE_STYLE_FILL_AREA( #279 );
#184 = ORIENTED_EDGE( '', *, *, #280, .F. );
#185 = ORIENTED_EDGE( '', *, *, #281, .T. );
#186 = ORIENTED_EDGE( '', *, *, #282, .T. );
#187 = ORIENTED_EDGE( '', *, *, #283, .F. );
#188 = ORIENTED_EDGE( '', *, *, #284, .T. );
#189 = ORIENTED_EDGE( '', *, *, #285, .T. );
#190 = ORIENTED_EDGE( '', *, *, #286, .T. );
#191 = ORIENTED_EDGE( '', *, *, #287, .F. );
#192 = ORIENTED_EDGE( '', *, *, #288, .T. );
#193 = CARTESIAN_POINT( '', ( 60.0000000000000, 0.000000000000000, 0.000000000000000 ) );
#194 = DIRECTION( '', ( -1.00000000000000, 6.12323399573677E-17, 0.000000000000000 ) );
#195 = DIRECTION( '', ( 6.12323399573677E-17, 1.00000000000000, 0.000000000000000 ) );
#196 = SURFACE_STYLE_FILL_AREA( #289 );
#197 = ORIENTED_EDGE( '', *, *, #290, .F. );
#198 = ORIENTED_EDGE( '', *, *, #291, .F. );
#199 = CARTESIAN_POINT( '', ( -1.76747149286942E-16, 3.67394039744206E-15, 0.000000000000000 ) );
#200 = DIRECTION( '', ( 1.00000000000000, -6.12323399573677E-17, -0.000000000000000 ) );
#201 = DIRECTION( '', ( 6.12323399573677E-17, 1.00000000000000, 0.000000000000000 ) );
#202 = SURFACE_STYLE_FILL_AREA( #292 );
#203 = ORIENTED_EDGE( '', *, *, #293, .F. );
#204 = ORIENTED_EDGE( '', *, *, #294, .T. );
#205 = CARTESIAN_POINT( '', ( 60.0000000000000, 0.000000000000000, 0.000000000000000 ) );
#206 = DIRECTION( '', ( -1.00000000000000, 6.12323399573677E-17, 0.000000000000000 ) );
#207 = DIRECTION( '', ( 6.12323399573677E-17, 1.00000000000000, 0.000000000000000 ) );
#208 = SURFACE_STYLE_FILL_AREA( #295 );
#209 = ORIENTED_EDGE( '', *, *, #283, .T. );
#210 = ORIENTED_EDGE( '', *, *, #296, .T. );
#211 = ORIENTED_EDGE( '', *, *, #287, .T. );
#212 = ORIENTED_EDGE( '', *, *, #297, .T. );
#213 = CARTESIAN_POINT( '', ( 3.00000000000000, 0.000000000000000, 0.000000000000000 ) );
#214 = DIRECTION( '', ( -1.00000000000000, 0.000000000000000, 0.000000000000000 ) );
#215 = DIRECTION( '', ( 0.000000000000000, 0.000000000000000, 1.00000000000000 ) );
#216 = SURFACE_STYLE_FILL_AREA( #298 );
#217 = ORIENTED_EDGE( '', *, *, #299, .T. );
#218 = ORIENTED_EDGE( '', *, *, #300, .F. );
#219 = ORIENTED_EDGE( '', *, *, #288, .F. );
#220 = ORIENTED_EDGE( '', *, *, #296, .F. );
#221 = ORIENTED_EDGE( '', *, *, #282, .F. );
#222 = ORIENTED_EDGE( '', *, *, #301, .F. );
#223 = CARTESIAN_POINT( '', ( 3.00000000000000, -0.899999999999996, -10.5000000000000 ) );
#224 = DIRECTION( '', ( 0.000000000000000, -1.00000000000000, 0.000000000000000 ) );
#225 = DIRECTION( '', ( 0.000000000000000, 0.000000000000000, -1.00000000000000 ) );
#226 = SURFACE_STYLE_FILL_AREA( #302 );
#227 = ORIENTED_EDGE( '', *, *, #303, .F. );
#228 = ORIENTED_EDGE( '', *, *, #293, .T. );
#229 = CARTESIAN_POINT( '', ( 55.0000000000000, 4.50000000000000, 0.000000000000000 ) );
#230 = DIRECTION( '', ( 1.00000000000000, -6.12323399573677E-17, -0.000000000000000 ) );
#231 = DIRECTION( '', ( 6.12323399573677E-17, 1.00000000000000, 0.000000000000000 ) );
#232 = SURFACE_STYLE_FILL_AREA( #304 );
#233 = ORIENTED_EDGE( '', *, *, #278, .F. );
#234 = ORIENTED_EDGE( '', *, *, #303, .T. );
#235 = CARTESIAN_POINT( '', ( 60.0000000000000, 0.000000000000000, 0.000000000000000 ) );
#236 = DIRECTION( '', ( -1.00000000000000, 6.12323399573677E-17, 0.000000000000000 ) );
#237 = DIRECTION( '', ( 6.12323399573677E-17, 1.00000000000000, 0.000000000000000 ) );
#238 = SURFACE_STYLE_FILL_AREA( #305 );
#239 = ORIENTED_EDGE( '', *, *, #294, .F. );
#240 = ORIENTED_EDGE( '', *, *, #280, .T. );
#241 = CARTESIAN_POINT( '', ( 48.0000000000000, 7.34788079488412E-16, 0.000000000000000 ) );
#242 = DIRECTION( '', ( -1.00000000000000, 6.12323399573677E-17, -0.000000000000000 ) );
#243 = DIRECTION( '', ( -6.12323399573677E-17, -1.00000000000000, 0.000000000000000 ) );
#244 = SURFACE_STYLE_FILL_AREA( #306 );
#245 = ORIENTED_EDGE( '', *, *, #290, .T. );
#246 = ORIENTED_EDGE( '', *, *, #307, .T. );
#247 = ORIENTED_EDGE( '', *, *, #285, .F. );
#248 = ORIENTED_EDGE( '', *, *, #308, .T. );
#249 = CARTESIAN_POINT( '', ( 0.000000000000000, 3.67394039744206E-15, 0.000000000000000 ) );
#250 = DIRECTION( '', ( 1.00000000000000, -6.12323399573677E-17, -0.000000000000000 ) );
#251 = DIRECTION( '', ( 6.12323399573677E-17, 1.00000000000000, 0.000000000000000 ) );
#252 = SURFACE_STYLE_FILL_AREA( #309 );
#253 = ORIENTED_EDGE( '', *, *, #307, .F. );
#254 = ORIENTED_EDGE( '', *, *, #291, .T. );
#255 = ORIENTED_EDGE( '', *, *, #308, .F. );
#256 = ORIENTED_EDGE( '', *, *, #284, .F. );
#257 = ORIENTED_EDGE( '', *, *, #297, .F. );
#258 = ORIENTED_EDGE( '', *, *, #286, .F. );
#259 = CARTESIAN_POINT( '', ( 3.00000000000000, 0.900000000000004, 10.5000000000000 ) );
#260 = DIRECTION( '', ( 0.000000000000000, 1.00000000000000, 0.000000000000000 ) );
#261 = DIRECTION( '', ( 0.000000000000000, -0.000000000000000, 1.00000000000000 ) );
#262 = SURFACE_STYLE_FILL_AREA( #310 );
#263 = ORIENTED_EDGE( '', *, *, #311, .F. );
#264 = ORIENTED_EDGE( '', *, *, #299, .F. );
#265 = CARTESIAN_POINT( '', ( -1.76747149286942E-16, 3.67394039744206E-15, 0.000000000000000 ) );
#266 = DIRECTION( '', ( 1.00000000000000, -6.12323399573677E-17, -0.000000000000000 ) );
#267 = DIRECTION( '', ( 6.12323399573677E-17, 1.00000000000000, 0.000000000000000 ) );
#268 = SURFACE_STYLE_FILL_AREA( #312 );
#269 = ORIENTED_EDGE( '', *, *, #281, .F. );
#270 = ORIENTED_EDGE( '', *, *, #300, .T. );
#271 = ORIENTED_EDGE( '', *, *, #311, .T. );
#272 = ORIENTED_EDGE( '', *, *, #301, .T. );
#273 = CARTESIAN_POINT( '', ( 0.000000000000000, 3.67394039744206E-15, 0.000000000000000 ) );
#274 = DIRECTION( '', ( 1.00000000000000, -6.12323399573677E-17, -0.000000000000000 ) );
#275 = DIRECTION( '', ( 6.12323399573677E-17, 1.00000000000000, 0.000000000000000 ) );
#276 = FILL_AREA_STYLE( '', ( #313 ) );
#277 = CARTESIAN_POINT( '', ( 60.0000000000000, -3.46944695195361E-14, 0.000000000000000 ) );
#278 = EDGE_CURVE( '', #314, #314, #315, .T. );
#279 = FILL_AREA_STYLE( '', ( #316 ) );
#280 = EDGE_CURVE( '', #317, #317, #318, .T. );
#281 = EDGE_CURVE( '', #319, #320, #321, .T. );
#282 = EDGE_CURVE( '', #320, #322, #323, .T. );
#283 = EDGE_CURVE( '', #324, #322, #325, .T. );
#284 = EDGE_CURVE( '', #324, #326, #327, .F. );
#285 = EDGE_CURVE( '', #326, #328, #329, .T. );
#286 = EDGE_CURVE( '', #328, #330, #331, .T. );
#287 = EDGE_CURVE( '', #332, #330, #333, .T. );
#288 = EDGE_CURVE( '', #332, #319, #334, .F. );
#289 = FILL_AREA_STYLE( '', ( #335 ) );
#290 = EDGE_CURVE( '', #336, #337, #338, .T. );
#291 = EDGE_CURVE( '', #337, #336, #339, .T. );
#292 = FILL_AREA_STYLE( '', ( #340 ) );
#293 = EDGE_CURVE( '', #341, #341, #342, .T. );
#294 = EDGE_CURVE( '', #343, #343, #344, .T. );
#295 = FILL_AREA_STYLE( '', ( #345 ) );
#296 = EDGE_CURVE( '', #322, #332, #346, .T. );
#297 = EDGE_CURVE( '', #330, #324, #347, .T. );
#298 = FILL_AREA_STYLE( '', ( #348 ) );
#299 = EDGE_CURVE( '', #349, #350, #351, .T. );
#300 = EDGE_CURVE( '', #319, #350, #352, .T. );
#301 = EDGE_CURVE( '', #349, #320, #353, .T. );
#302 = FILL_AREA_STYLE( '', ( #354 ) );
#303 = EDGE_CURVE( '', #355, #355, #356, .T. );
#304 = FILL_AREA_STYLE( '', ( #357 ) );
#305 = FILL_AREA_STYLE( '', ( #358 ) );
#306 = FILL_AREA_STYLE( '', ( #359 ) );
#307 = EDGE_CURVE( '', #337, #328, #360, .T. );
#308 = EDGE_CURVE( '', #326, #336, #361, .T. );
#309 = FILL_AREA_STYLE( '', ( #362 ) );
#310 = FILL_AREA_STYLE( '', ( #363 ) );
#311 = EDGE_CURVE( '', #350, #349, #364, .T. );
#312 = FILL_AREA_STYLE( '', ( #365 ) );
#313 = FILL_AREA_STYLE_COLOUR( '', #366 );
#314 = VERTEX_POINT( '', #367 );
#315 = CIRCLE( '', #368, 5.00000000000000 );
#316 = FILL_AREA_STYLE_COLOUR( '', #369 );
#317 = VERTEX_POINT( '', #370 );
#318 = CIRCLE( '', #371, 7.00000000000000 );
#319 = VERTEX_POINT( '', #372 );
#320 = VERTEX_POINT( '', #373 );
#321 = CIRCLE( '', #374, 7.00000000000000 );
#322 = VERTEX_POINT( '', #375 );
#323 = LINE( '', #376, #377 );
#324 = VERTEX_POINT( '', #378 );
#325 = CIRCLE( '', #379, 7.00000000000000 );
#326 = VERTEX_POINT( '', #380 );
#327 = LINE( '', #381, #382 );
#328 = VERTEX_POINT( '', #383 );
#329 = CIRCLE( '', #384, 7.00000000000000 );
#330 = VERTEX_POINT( '', #385 );
#331 = LINE( '', #386, #387 );
#332 = VERTEX_POINT( '', #388 );
#333 = CIRCLE( '', #389, 7.00000000000000 );
#334 = LINE( '', #390, #391 );
#335 = FILL_AREA_STYLE_COLOUR( '', #392 );
#336 = VERTEX_POINT( '', #393 );
#337 = VERTEX_POINT( '', #394 );
#338 = CIRCLE( '', #395, 5.77300000000000 );
#339 = LINE( '', #396, #397 );
#340 = FILL_AREA_STYLE_COLOUR( '', #398 );
#341 = VERTEX_POINT( '', #399 );
#342 = CIRCLE( '', #400, 4.50000000000000 );
#343 = VERTEX_POINT( '', #401 );
#344 = CIRCLE( '', #402, 4.50000000000000 );
#345 = FILL_AREA_STYLE_COLOUR( '', #403 );
#346 = LINE( '', #404, #405 );
#347 = LINE( '', #406, #407 );
#348 = FILL_AREA_STYLE_COLOUR( '', #408 );
#349 = VERTEX_POINT( '', #409 );
#350 = VERTEX_POINT( '', #410 );
#351 = LINE( '', #411, #412 );
#352 = B_SPLINE_CURVE_WITH_KNOTS( '', 3, ( #413, #414, #415, #416 ), .UNSPECIFIED., .F., .F., ( 4, 4 ), ( 0.0119476865857433, 0.0136917789295996 ), .UNSPECIFIED. );
#353 = B_SPLINE_CURVE_WITH_KNOTS( '', 3, ( #417, #418, #419, #420 ), .UNSPECIFIED., .F., .F., ( 4, 4 ), ( 0.0288470734708196, 0.0305935337729001 ), .UNSPECIFIED. );
#354 = FILL_AREA_STYLE_COLOUR( '', #421 );
#355 = VERTEX_POINT( '', #422 );
#356 = CIRCLE( '', #423, 5.00000000000000 );
#357 = FILL_AREA_STYLE_COLOUR( '', #424 );
#358 = FILL_AREA_STYLE_COLOUR( '', #425 );
#359 = FILL_AREA_STYLE_COLOUR( '', #426 );
#360 = B_SPLINE_CURVE_WITH_KNOTS( '', 3, ( #427, #428, #429, #430 ), .UNSPECIFIED., .F., .F., ( 4, 4 ), ( 0.0288470734708196, 0.0305935337729002 ), .UNSPECIFIED. );
#361 = B_SPLINE_CURVE_WITH_KNOTS( '', 3, ( #431, #432, #433, #434 ), .UNSPECIFIED., .F., .F., ( 4, 4 ), ( 0.0119476865857433, 0.0136917789295996 ), .UNSPECIFIED. );
#362 = FILL_AREA_STYLE_COLOUR( '', #435 );
#363 = FILL_AREA_STYLE_COLOUR( '', #436 );
#364 = CIRCLE( '', #437, 5.77300000000000 );
#365 = FILL_AREA_STYLE_COLOUR( '', #438 );
#366 = COLOUR_RGB( '', 0.689999997600000, 0.689999997600000, 0.689999997600000 );
#367 = CARTESIAN_POINT( '', ( 58.3466297046986, 5.00000000000000, 0.000000000000000 ) );
#368 = AXIS2_PLACEMENT_3D( '', #439, #440, #441 );
#369 = COLOUR_RGB( '', 0.689999997600000, 0.689999997600000, 0.689999997600000 );
#370 = CARTESIAN_POINT( '', ( 48.0000000000000, 7.00000000000000, 0.000000000000000 ) );
#371 = AXIS2_PLACEMENT_3D( '', #442, #443, #444 );
#372 = CARTESIAN_POINT( '', ( 1.22700000000000, -0.899999999999993, 6.94190175672344 ) );
#373 = CARTESIAN_POINT( '', ( 1.22700000000000, -0.899999999999993, -6.94190175672344 ) );
#374 = AXIS2_PLACEMENT_3D( '', #445, #446, #447 );
#375 = CARTESIAN_POINT( '', ( 3.00000000000000, -0.899999999999996, -6.94190175672344 ) );
#376 = CARTESIAN_POINT( '', ( 60.0000000000000, -0.899999999999996, -6.94190175672344 ) );
#377 = VECTOR( '', #448, 1000.00000000000 );
#378 = CARTESIAN_POINT( '', ( 3.00000000000000, 0.900000000000004, -6.94190175672344 ) );
#379 = AXIS2_PLACEMENT_3D( '', #449, #450, #451 );
#380 = CARTESIAN_POINT( '', ( 1.22700000000000, 0.900000000000007, -6.94190175672344 ) );
#381 = CARTESIAN_POINT( '', ( 60.0000000000000, 0.900000000000004, -6.94190175672344 ) );
#382 = VECTOR( '', #452, 1000.00000000000 );
#383 = CARTESIAN_POINT( '', ( 1.22700000000000, 0.900000000000007, 6.94190175672344 ) );
#384 = AXIS2_PLACEMENT_3D( '', #453, #454, #455 );
#385 = CARTESIAN_POINT( '', ( 3.00000000000000, 0.900000000000004, 6.94190175672344 ) );
#386 = CARTESIAN_POINT( '', ( 60.0000000000000, 0.900000000000004, 6.94190175672344 ) );
#387 = VECTOR( '', #456, 1000.00000000000 );
#388 = CARTESIAN_POINT( '', ( 3.00000000000000, -0.899999999999996, 6.94190175672344 ) );
#389 = AXIS2_PLACEMENT_3D( '', #457, #458, #459 );
#390 = CARTESIAN_POINT( '', ( 60.0000000000000, -0.899999999999996, 6.94190175672344 ) );
#391 = VECTOR( '', #460, 1000.00000000000 );
#392 = COLOUR_RGB( '', 0.689999997600000, 0.689999997600000, 0.689999997600000 );
#393 = CARTESIAN_POINT( '', ( 0.000000000000000, 0.900000000000004, -5.70241431325364 ) );
#394 = CARTESIAN_POINT( '', ( 0.000000000000000, 0.900000000000004, 5.70241431325364 ) );
#395 = AXIS2_PLACEMENT_3D( '', #461, #462, #463 );
#396 = CARTESIAN_POINT( '', ( 0.000000000000000, 0.900000000000004, 10.5000000000000 ) );
#397 = VECTOR( '', #464, 1000.00000000000 );
#398 = COLOUR_RGB( '', 0.689999997600000, 0.689999997600000, 0.689999997600000 );
#399 = CARTESIAN_POINT( '', ( 55.0000000000000, 4.50000000000000, 0.000000000000000 ) );
#400 = AXIS2_PLACEMENT_3D( '', #465, #466, #467 );
#401 = CARTESIAN_POINT( '', ( 49.1547600000000, 4.50000000000000, 0.000000000000000 ) );
#402 = AXIS2_PLACEMENT_3D( '', #468, #469, #470 );
#403 = COLOUR_RGB( '', 0.689999997600000, 0.689999997600000, 0.689999997600000 );
#404 = CARTESIAN_POINT( '', ( 3.00000000000000, -0.899999999999996, -10.5000000000000 ) );
#405 = VECTOR( '', #471, 1000.00000000000 );
#406 = CARTESIAN_POINT( '', ( 3.00000000000000, 0.900000000000004, 10.5000000000000 ) );
#407 = VECTOR( '', #472, 1000.00000000000 );
#408 = COLOUR_RGB( '', 0.689999997600000, 0.689999997600000, 0.689999997600000 );
#409 = CARTESIAN_POINT( '', ( 0.000000000000000, -0.899999999999996, -5.70241431325364 ) );
#410 = CARTESIAN_POINT( '', ( 0.000000000000000, -0.899999999999996, 5.70241431325364 ) );
#411 = CARTESIAN_POINT( '', ( 0.000000000000000, -0.899999999999996, -10.5000000000000 ) );
#412 = VECTOR( '', #473, 1000.00000000000 );
#413 = CARTESIAN_POINT( '', ( 1.22699999999999, -0.899999999999996, 6.94190175672345 ) );
#414 = CARTESIAN_POINT( '', ( 0.817629976282229, -0.899999999999996, 6.52910562873893 ) );
#415 = CARTESIAN_POINT( '', ( 0.408550449058580, -0.899999999999996, 6.11602188591518 ) );
#416 = CARTESIAN_POINT( '', ( -6.77771569359974E-15, -0.899999999999996, 5.70241431325364 ) );
#417 = CARTESIAN_POINT( '', ( -5.95551152116425E-16, -0.899999999999996, -5.70241431325364 ) );
#418 = CARTESIAN_POINT( '', ( 0.408551604172652, -0.899999999999996, -6.11602305532749 ) );
#419 = CARTESIAN_POINT( '', ( 0.817630928954739, -0.899999999999996, -6.52910658938455 ) );
#420 = CARTESIAN_POINT( '', ( 1.22700000000000, -0.899999999999996, -6.94190175672344 ) );
#421 = COLOUR_RGB( '', 0.689999997600000, 0.689999997600000, 0.689999997600000 );
#422 = CARTESIAN_POINT( '', ( 55.0000000000000, 5.00000000000000, 0.000000000000000 ) );
#423 = AXIS2_PLACEMENT_3D( '', #474, #475, #476 );
#424 = COLOUR_RGB( '', 0.689999997600000, 0.689999997600000, 0.689999997600000 );
#425 = COLOUR_RGB( '', 0.689999997600000, 0.689999997600000, 0.689999997600000 );
#426 = COLOUR_RGB( '', 0.689999997600000, 0.689999997600000, 0.689999997600000 );
#427 = CARTESIAN_POINT( '', ( -1.01774174492066E-15, 0.900000000000004, 5.70241431325364 ) );
#428 = CARTESIAN_POINT( '', ( 0.408551604172652, 0.900000000000004, 6.11602305532749 ) );
#429 = CARTESIAN_POINT( '', ( 0.817630928954739, 0.900000000000004, 6.52910658938455 ) );
#430 = CARTESIAN_POINT( '', ( 1.22700000000000, 0.900000000000004, 6.94190175672344 ) );
#431 = CARTESIAN_POINT( '', ( 1.22699999999999, 0.900000000000004, -6.94190175672345 ) );
#432 = CARTESIAN_POINT( '', ( 0.817629976282229, 0.900000000000004, -6.52910562873893 ) );
#433 = CARTESIAN_POINT( '', ( 0.408550449058580, 0.900000000000004, -6.11602188591518 ) );
#434 = CARTESIAN_POINT( '', ( -5.41731129713788E-15, 0.900000000000004, -5.70241431325365 ) );
#435 = COLOUR_RGB( '', 0.689999997600000, 0.689999997600000, 0.689999997600000 );
#436 = COLOUR_RGB( '', 0.689999997600000, 0.689999997600000, 0.689999997600000 );
#437 = AXIS2_PLACEMENT_3D( '', #477, #478, #479 );
#438 = COLOUR_RGB( '', 0.689999997600000, 0.689999997600000, 0.689999997600000 );
#439 = CARTESIAN_POINT( '', ( 58.3466297046986, 1.01239731997305E-16, 0.000000000000000 ) );
#440 = DIRECTION( '', ( 1.00000000000000, -6.12323399573677E-17, -0.000000000000000 ) );
#441 = DIRECTION( '', ( 6.12323399573677E-17, 1.00000000000000, 0.000000000000000 ) );
#442 = CARTESIAN_POINT( '', ( 48.0000000000000, 7.34788079488412E-16, 0.000000000000000 ) );
#443 = DIRECTION( '', ( 1.00000000000000, -6.12323399573677E-17, -0.000000000000000 ) );
#444 = DIRECTION( '', ( 6.12323399573677E-17, 1.00000000000000, 0.000000000000000 ) );
#445 = CARTESIAN_POINT( '', ( 1.22700000000000, 3.59880831631437E-15, 0.000000000000000 ) );
#446 = DIRECTION( '', ( 1.00000000000000, -6.12323399573677E-17, -0.000000000000000 ) );
#447 = DIRECTION( '', ( 6.12323399573677E-17, 1.00000000000000, 0.000000000000000 ) );
#448 = DIRECTION( '', ( 1.00000000000000, -6.12323399573677E-17, -0.000000000000000 ) );
#449 = CARTESIAN_POINT( '', ( 3.00000000000000, 3.49024337756996E-15, 0.000000000000000 ) );
#450 = DIRECTION( '', ( -1.00000000000000, 0.000000000000000, 0.000000000000000 ) );
#451 = DIRECTION( '', ( 0.000000000000000, 0.000000000000000, 1.00000000000000 ) );
#452 = DIRECTION( '', ( 1.00000000000000, -6.12323399573677E-17, -0.000000000000000 ) );
#453 = CARTESIAN_POINT( '', ( 1.22700000000000, 3.59880831631437E-15, 0.000000000000000 ) );
#454 = DIRECTION( '', ( 1.00000000000000, -6.12323399573677E-17, -0.000000000000000 ) );
#455 = DIRECTION( '', ( 6.12323399573677E-17, 1.00000000000000, 0.000000000000000 ) );
#456 = DIRECTION( '', ( 1.00000000000000, -6.12323399573677E-17, -0.000000000000000 ) );
#457 = CARTESIAN_POINT( '', ( 3.00000000000000, 3.49024337756996E-15, 0.000000000000000 ) );
#458 = DIRECTION( '', ( -1.00000000000000, 0.000000000000000, 0.000000000000000 ) );
#459 = DIRECTION( '', ( 0.000000000000000, 0.000000000000000, 1.00000000000000 ) );
#460 = DIRECTION( '', ( 1.00000000000000, -6.12323399573677E-17, -0.000000000000000 ) );
#461 = CARTESIAN_POINT( '', ( 0.000000000000000, 3.67394039744206E-15, 0.000000000000000 ) );
#462 = DIRECTION( '', ( 1.00000000000000, -6.12323399573677E-17, -0.000000000000000 ) );
#463 = DIRECTION( '', ( 6.12323399573677E-17, 1.00000000000000, 0.000000000000000 ) );
#464 = DIRECTION( '', ( 0.000000000000000, 0.000000000000000, -1.00000000000000 ) );
#465 = CARTESIAN_POINT( '', ( 55.0000000000000, 3.06161699786838E-16, 0.000000000000000 ) );
#466 = DIRECTION( '', ( 1.00000000000000, -6.12323399573677E-17, -0.000000000000000 ) );
#467 = DIRECTION( '', ( 6.12323399573677E-17, 1.00000000000000, 0.000000000000000 ) );
#468 = CARTESIAN_POINT( '', ( 49.1547600000000, 6.64079422599242E-16, 0.000000000000000 ) );
#469 = DIRECTION( '', ( 1.00000000000000, -6.12323399573677E-17, -0.000000000000000 ) );
#470 = DIRECTION( '', ( 6.12323399573677E-17, 1.00000000000000, 0.000000000000000 ) );
#471 = DIRECTION( '', ( 0.000000000000000, 0.000000000000000, 1.00000000000000 ) );
#472 = DIRECTION( '', ( 0.000000000000000, 0.000000000000000, -1.00000000000000 ) );
#473 = DIRECTION( '', ( 0.000000000000000, 0.000000000000000, 1.00000000000000 ) );
#474 = CARTESIAN_POINT( '', ( 55.0000000000000, 3.06161699786838E-16, 0.000000000000000 ) );
#475 = DIRECTION( '', ( 1.00000000000000, -6.12323399573677E-17, -0.000000000000000 ) );
#476 = DIRECTION( '', ( 6.12323399573677E-17, 1.00000000000000, 0.000000000000000 ) );
#477 = CARTESIAN_POINT( '', ( 0.000000000000000, 3.67394039744206E-15, 0.000000000000000 ) );
#478 = DIRECTION( '', ( 1.00000000000000, -6.12323399573677E-17, -0.000000000000000 ) );
#479 = DIRECTION( '', ( 6.12323399573677E-17, 1.00000000000000, 0.000000000000000 ) );
ENDSEC;
END-ISO-10303-21;
