ISO-10303-21;
HEADER;
FILE_DESCRIPTION( ( 'STEP AP214' ), '1' );
FILE_NAME( '//goodhand-server/Shared Folders/GoodHand Data/Kipp CAD/K0713/K0713.1612.stp', '2020-12-09T12:39:13', ( '' ), ( '' ), ' ', 'PARTsolutions', ' ' );
FILE_SCHEMA( ( 'AUTOMOTIVE_DESIGN { 1 0 10303 214 1 1 1 1 }' ) );
ENDSEC;
DATA;
#1 = MECHANICAL_DESIGN_GEOMETRIC_PRESENTATION_REPRESENTATION( ' ', ( #10, #11, #12, #13, #14, #15, #16, #17, #18, #19, #20 ), #6 );
#2 = PRODUCT_DEFINITION_CONTEXT( '', #21, 'design' );
#3 = APPLICATION_PROTOCOL_DEFINITION( 'international standard', 'automotive_design', 2001, #21 );
#4 = PRODUCT_CATEGORY_RELATIONSHIP( 'NONE', 'NONE', #22, #23 );
#5 = SHAPE_DEFINITION_REPRESENTATION( #24, #25 );
#6 =  ( GEOMETRIC_REPRESENTATION_CONTEXT( 3 )GLOBAL_UNCERTAINTY_ASSIGNED_CONTEXT( ( #28 ) )GLOBAL_UNIT_ASSIGNED_CONTEXT( ( #30, #31, #32 ) )REPRESENTATION_CONTEXT( 'NONE', 'WORKSPACE' ) );
#10 = STYLED_ITEM( '', ( #34 ), #35 );
#11 = STYLED_ITEM( '', ( #36 ), #37 );
#12 = STYLED_ITEM( '', ( #38 ), #39 );
#13 = STYLED_ITEM( '', ( #40 ), #41 );
#14 = STYLED_ITEM( '', ( #42 ), #43 );
#15 = STYLED_ITEM( '', ( #44 ), #45 );
#16 = STYLED_ITEM( '', ( #46 ), #47 );
#17 = STYLED_ITEM( '', ( #48 ), #49 );
#18 = STYLED_ITEM( '', ( #50 ), #51 );
#19 = STYLED_ITEM( '', ( #52 ), #53 );
#20 = STYLED_ITEM( '', ( #54 ), #55 );
#21 = APPLICATION_CONTEXT( 'core data for automotive mechanical design processes' );
#22 = PRODUCT_CATEGORY( 'part', 'NONE' );
#23 = PRODUCT_RELATED_PRODUCT_CATEGORY( 'detail', ' ', ( #56 ) );
#24 = PRODUCT_DEFINITION_SHAPE( 'NONE', 'NONE', #57 );
#25 = ADVANCED_BREP_SHAPE_REPRESENTATION( '_K0713.1612', ( #58, #59 ), #6 );
#28 = UNCERTAINTY_MEASURE_WITH_UNIT( LENGTH_MEASURE( 0.00100000000000000 ), #30, '', '' );
#30 =  ( CONVERSION_BASED_UNIT( 'MILLIMETRE', #62 )LENGTH_UNIT(  )NAMED_UNIT( #65 ) );
#31 =  ( NAMED_UNIT( #67 )PLANE_ANGLE_UNIT(  )SI_UNIT( $, .RADIAN. ) );
#32 =  ( NAMED_UNIT( #67 )SI_UNIT( $, .STERADIAN. )SOLID_ANGLE_UNIT(  ) );
#34 = PRESENTATION_STYLE_ASSIGNMENT( ( #73 ) );
#35 = ADVANCED_FACE( '', ( #74 ), #75, .T. );
#36 = PRESENTATION_STYLE_ASSIGNMENT( ( #76 ) );
#37 = ADVANCED_FACE( '', ( #77 ), #78, .T. );
#38 = PRESENTATION_STYLE_ASSIGNMENT( ( #79 ) );
#39 = ADVANCED_FACE( '', ( #80, #81 ), #82, .T. );
#40 = PRESENTATION_STYLE_ASSIGNMENT( ( #83 ) );
#41 = ADVANCED_FACE( '', ( #84, #85 ), #86, .F. );
#42 = PRESENTATION_STYLE_ASSIGNMENT( ( #87 ) );
#43 = ADVANCED_FACE( '', ( #88 ), #89, .F. );
#44 = PRESENTATION_STYLE_ASSIGNMENT( ( #90 ) );
#45 = ADVANCED_FACE( '', ( #91, #92 ), #93, .T. );
#46 = PRESENTATION_STYLE_ASSIGNMENT( ( #94 ) );
#47 = ADVANCED_FACE( '', ( #95, #96 ), #97, .F. );
#48 = PRESENTATION_STYLE_ASSIGNMENT( ( #98 ) );
#49 = ADVANCED_FACE( '', ( #99, #100 ), #101, .T. );
#50 = PRESENTATION_STYLE_ASSIGNMENT( ( #102 ) );
#51 = ADVANCED_FACE( '', ( #103, #104 ), #105, .T. );
#52 = PRESENTATION_STYLE_ASSIGNMENT( ( #106 ) );
#53 = ADVANCED_FACE( '', ( #107 ), #108, .T. );
#54 = PRESENTATION_STYLE_ASSIGNMENT( ( #109 ) );
#55 = ADVANCED_FACE( '', ( #110 ), #111, .T. );
#56 = PRODUCT( '_K0713.1612', '_K0713.1612', 'PART-_K0713.1612-DESC', ( #112 ) );
#57 = PRODUCT_DEFINITION( 'NONE', 'NONE', #113, #2 );
#58 = MANIFOLD_SOLID_BREP( '_K0713.1612', #114 );
#59 = AXIS2_PLACEMENT_3D( '', #115, #116, #117 );
#62 = LENGTH_MEASURE_WITH_UNIT( LENGTH_MEASURE( 1.00000000000000 ), #118 );
#65 = DIMENSIONAL_EXPONENTS( 1.00000000000000, 0.000000000000000, 0.000000000000000, 0.000000000000000, 0.000000000000000, 0.000000000000000, 0.000000000000000 );
#67 = DIMENSIONAL_EXPONENTS( 0.000000000000000, 0.000000000000000, 0.000000000000000, 0.000000000000000, 0.000000000000000, 0.000000000000000, 0.000000000000000 );
#73 = SURFACE_STYLE_USAGE( .BOTH., #119 );
#74 = FACE_OUTER_BOUND( '', #120, .T. );
#75 = CYLINDRICAL_SURFACE( '', #121, 8.00000000000000 );
#76 = SURFACE_STYLE_USAGE( .BOTH., #122 );
#77 = FACE_OUTER_BOUND( '', #123, .T. );
#78 = CYLINDRICAL_SURFACE( '', #124, 8.00000000000000 );
#79 = SURFACE_STYLE_USAGE( .BOTH., #125 );
#80 = FACE_OUTER_BOUND( '', #126, .T. );
#81 = FACE_BOUND( '', #127, .T. );
#82 = CONICAL_SURFACE( '', #128, 3.48711915480000, 0.421796227800000 );
#83 = SURFACE_STYLE_USAGE( .BOTH., #129 );
#84 = FACE_OUTER_BOUND( '', #130, .T. );
#85 = FACE_BOUND( '', #131, .T. );
#86 = PLANE( '', #132 );
#87 = SURFACE_STYLE_USAGE( .BOTH., #133 );
#88 = FACE_OUTER_BOUND( '', #134, .T. );
#89 = PLANE( '', #135 );
#90 = SURFACE_STYLE_USAGE( .BOTH., #136 );
#91 = FACE_OUTER_BOUND( '', #137, .T. );
#92 = FACE_OUTER_BOUND( '', #138, .T. );
#93 = CYLINDRICAL_SURFACE( '', #139, 6.00000000000000 );
#94 = SURFACE_STYLE_USAGE( .BOTH., #140 );
#95 = FACE_BOUND( '', #141, .T. );
#96 = FACE_OUTER_BOUND( '', #142, .T. );
#97 = PLANE( '', #143 );
#98 = SURFACE_STYLE_USAGE( .BOTH., #144 );
#99 = FACE_OUTER_BOUND( '', #145, .T. );
#100 = FACE_OUTER_BOUND( '', #146, .T. );
#101 = SPHERICAL_SURFACE( '', #147, 8.00000000000000 );
#102 = SURFACE_STYLE_USAGE( .BOTH., #148 );
#103 = FACE_BOUND( '', #149, .T. );
#104 = FACE_OUTER_BOUND( '', #150, .T. );
#105 = SPHERICAL_SURFACE( '', #151, 10.0000000000000 );
#106 = SURFACE_STYLE_USAGE( .BOTH., #152 );
#107 = FACE_OUTER_BOUND( '', #153, .T. );
#108 = PLANE( '', #154 );
#109 = SURFACE_STYLE_USAGE( .BOTH., #155 );
#110 = FACE_OUTER_BOUND( '', #156, .T. );
#111 = PLANE( '', #157 );
#112 = PRODUCT_CONTEXT( '', #21, 'mechanical' );
#113 = PRODUCT_DEFINITION_FORMATION_WITH_SPECIFIED_SOURCE( ' ', 'NONE', #56, .NOT_KNOWN. );
#114 = CLOSED_SHELL( '', ( #45, #47, #35, #37, #41, #39, #49, #43, #51, #53, #55 ) );
#115 = CARTESIAN_POINT( '', ( 0.000000000000000, 0.000000000000000, 0.000000000000000 ) );
#116 = DIRECTION( '', ( 0.000000000000000, 0.000000000000000, 1.00000000000000 ) );
#117 = DIRECTION( '', ( 1.00000000000000, 0.000000000000000, 0.000000000000000 ) );
#118 =  ( LENGTH_UNIT(  )NAMED_UNIT( #65 )SI_UNIT( .MILLI., .METRE. ) );
#119 = SURFACE_SIDE_STYLE( '', ( #159 ) );
#120 = EDGE_LOOP( '', ( #160, #161, #162, #163 ) );
#121 = AXIS2_PLACEMENT_3D( '', #164, #165, #166 );
#122 = SURFACE_SIDE_STYLE( '', ( #167 ) );
#123 = EDGE_LOOP( '', ( #168, #169, #170, #171 ) );
#124 = AXIS2_PLACEMENT_3D( '', #172, #173, #174 );
#125 = SURFACE_SIDE_STYLE( '', ( #175 ) );
#126 = EDGE_LOOP( '', ( #176 ) );
#127 = EDGE_LOOP( '', ( #177 ) );
#128 = AXIS2_PLACEMENT_3D( '', #178, #179, #180 );
#129 = SURFACE_SIDE_STYLE( '', ( #181 ) );
#130 = EDGE_LOOP( '', ( #182, #183, #184, #185 ) );
#131 = EDGE_LOOP( '', ( #186 ) );
#132 = AXIS2_PLACEMENT_3D( '', #187, #188, #189 );
#133 = SURFACE_SIDE_STYLE( '', ( #190 ) );
#134 = EDGE_LOOP( '', ( #191 ) );
#135 = AXIS2_PLACEMENT_3D( '', #192, #193, #194 );
#136 = SURFACE_SIDE_STYLE( '', ( #195 ) );
#137 = EDGE_LOOP( '', ( #196 ) );
#138 = EDGE_LOOP( '', ( #197 ) );
#139 = AXIS2_PLACEMENT_3D( '', #198, #199, #200 );
#140 = SURFACE_SIDE_STYLE( '', ( #201 ) );
#141 = EDGE_LOOP( '', ( #202 ) );
#142 = EDGE_LOOP( '', ( #203, #204, #205, #206 ) );
#143 = AXIS2_PLACEMENT_3D( '', #207, #208, #209 );
#144 = SURFACE_SIDE_STYLE( '', ( #210 ) );
#145 = EDGE_LOOP( '', ( #211 ) );
#146 = EDGE_LOOP( '', ( #212 ) );
#147 = AXIS2_PLACEMENT_3D( '', #213, #214, #215 );
#148 = SURFACE_SIDE_STYLE( '', ( #216 ) );
#149 = VERTEX_LOOP( '', #217 );
#150 = EDGE_LOOP( '', ( #218 ) );
#151 = AXIS2_PLACEMENT_3D( '', #219, #220, #221 );
#152 = SURFACE_SIDE_STYLE( '', ( #222 ) );
#153 = EDGE_LOOP( '', ( #223, #224, #225, #226 ) );
#154 = AXIS2_PLACEMENT_3D( '', #227, #228, #229 );
#155 = SURFACE_SIDE_STYLE( '', ( #230 ) );
#156 = EDGE_LOOP( '', ( #231, #232, #233, #234 ) );
#157 = AXIS2_PLACEMENT_3D( '', #235, #236, #237 );
#159 = SURFACE_STYLE_FILL_AREA( #238 );
#160 = ORIENTED_EDGE( '', *, *, #239, .F. );
#161 = ORIENTED_EDGE( '', *, *, #240, .F. );
#162 = ORIENTED_EDGE( '', *, *, #241, .F. );
#163 = ORIENTED_EDGE( '', *, *, #242, .T. );
#164 = CARTESIAN_POINT( '', ( 36.0000000000000, 0.000000000000000, 0.000000000000000 ) );
#165 = DIRECTION( '', ( -1.00000000000000, -0.000000000000000, 0.000000000000000 ) );
#166 = DIRECTION( '', ( -0.000000000000000, 0.000000000000000, -1.00000000000000 ) );
#167 = SURFACE_STYLE_FILL_AREA( #243 );
#168 = ORIENTED_EDGE( '', *, *, #244, .F. );
#169 = ORIENTED_EDGE( '', *, *, #245, .F. );
#170 = ORIENTED_EDGE( '', *, *, #246, .F. );
#171 = ORIENTED_EDGE( '', *, *, #247, .T. );
#172 = CARTESIAN_POINT( '', ( 36.0000000000000, 0.000000000000000, 0.000000000000000 ) );
#173 = DIRECTION( '', ( -1.00000000000000, -0.000000000000000, 0.000000000000000 ) );
#174 = DIRECTION( '', ( -0.000000000000000, 0.000000000000000, -1.00000000000000 ) );
#175 = SURFACE_STYLE_FILL_AREA( #248 );
#176 = ORIENTED_EDGE( '', *, *, #249, .F. );
#177 = ORIENTED_EDGE( '', *, *, #250, .T. );
#178 = CARTESIAN_POINT( '', ( 7.20000000000000, 0.000000000000000, 0.000000000000000 ) );
#179 = DIRECTION( '', ( 1.00000000000000, -0.000000000000000, -0.000000000000000 ) );
#180 = DIRECTION( '', ( -0.000000000000000, 0.000000000000000, -1.00000000000000 ) );
#181 = SURFACE_STYLE_FILL_AREA( #251 );
#182 = ORIENTED_EDGE( '', *, *, #242, .F. );
#183 = ORIENTED_EDGE( '', *, *, #252, .F. );
#184 = ORIENTED_EDGE( '', *, *, #247, .F. );
#185 = ORIENTED_EDGE( '', *, *, #253, .F. );
#186 = ORIENTED_EDGE( '', *, *, #249, .T. );
#187 = CARTESIAN_POINT( '', ( 12.8000000000000, 6.00000000000001, 0.000000000000000 ) );
#188 = DIRECTION( '', ( 1.00000000000000, 0.000000000000000, -0.000000000000000 ) );
#189 = DIRECTION( '', ( -0.000000000000000, 0.000000000000000, -1.00000000000000 ) );
#190 = SURFACE_STYLE_FILL_AREA( #254 );
#191 = ORIENTED_EDGE( '', *, *, #255, .F. );
#192 = CARTESIAN_POINT( '', ( -6.40000000000000, 0.000000000000000, 0.000000000000000 ) );
#193 = DIRECTION( '', ( 1.00000000000000, 0.000000000000000, -0.000000000000000 ) );
#194 = DIRECTION( '', ( -0.000000000000000, 0.000000000000000, -1.00000000000000 ) );
#195 = SURFACE_STYLE_FILL_AREA( #256 );
#196 = ORIENTED_EDGE( '', *, *, #257, .F. );
#197 = ORIENTED_EDGE( '', *, *, #258, .T. );
#198 = CARTESIAN_POINT( '', ( 36.0000000000000, 0.000000000000000, 0.000000000000000 ) );
#199 = DIRECTION( '', ( -1.00000000000000, -0.000000000000000, 0.000000000000000 ) );
#200 = DIRECTION( '', ( -0.000000000000000, 0.000000000000000, -1.00000000000000 ) );
#201 = SURFACE_STYLE_FILL_AREA( #259 );
#202 = ORIENTED_EDGE( '', *, *, #258, .F. );
#203 = ORIENTED_EDGE( '', *, *, #260, .F. );
#204 = ORIENTED_EDGE( '', *, *, #240, .T. );
#205 = ORIENTED_EDGE( '', *, *, #261, .F. );
#206 = ORIENTED_EDGE( '', *, *, #245, .T. );
#207 = CARTESIAN_POINT( '', ( 16.0000000000000, 7.99999999999999, 0.000000000000000 ) );
#208 = DIRECTION( '', ( -1.00000000000000, 0.000000000000000, 0.000000000000000 ) );
#209 = DIRECTION( '', ( 0.000000000000000, 0.000000000000000, 1.00000000000000 ) );
#210 = SURFACE_STYLE_FILL_AREA( #262 );
#211 = ORIENTED_EDGE( '', *, *, #255, .T. );
#212 = ORIENTED_EDGE( '', *, *, #250, .F. );
#213 = CARTESIAN_POINT( '', ( 0.000000000000000, -6.07153216591882E-15, 0.000000000000000 ) );
#214 = DIRECTION( '', ( 1.00000000000000, 0.000000000000000, 0.000000000000000 ) );
#215 = DIRECTION( '', ( 0.000000000000000, 1.00000000000000, 0.000000000000000 ) );
#216 = SURFACE_STYLE_FILL_AREA( #263 );
#217 = VERTEX_POINT( '', #264 );
#218 = ORIENTED_EDGE( '', *, *, #257, .T. );
#219 = CARTESIAN_POINT( '', ( 26.0000000000001, 1.47451495458029E-14, 0.000000000000000 ) );
#220 = DIRECTION( '', ( 1.00000000000000, 0.000000000000000, 0.000000000000000 ) );
#221 = DIRECTION( '', ( 0.000000000000000, -1.00000000000000, 0.000000000000000 ) );
#222 = SURFACE_STYLE_FILL_AREA( #265 );
#223 = ORIENTED_EDGE( '', *, *, #253, .T. );
#224 = ORIENTED_EDGE( '', *, *, #246, .T. );
#225 = ORIENTED_EDGE( '', *, *, #261, .T. );
#226 = ORIENTED_EDGE( '', *, *, #239, .T. );
#227 = CARTESIAN_POINT( '', ( 5.50000000000000, 6.49999999999999, 6.50000000000000 ) );
#228 = DIRECTION( '', ( 0.000000000000000, 0.000000000000000, 1.00000000000000 ) );
#229 = DIRECTION( '', ( 1.00000000000000, 0.000000000000000, -0.000000000000000 ) );
#230 = SURFACE_STYLE_FILL_AREA( #266 );
#231 = ORIENTED_EDGE( '', *, *, #252, .T. );
#232 = ORIENTED_EDGE( '', *, *, #241, .T. );
#233 = ORIENTED_EDGE( '', *, *, #260, .T. );
#234 = ORIENTED_EDGE( '', *, *, #244, .T. );
#235 = CARTESIAN_POINT( '', ( 5.50000000000000, -6.49999999999999, -6.50000000000000 ) );
#236 = DIRECTION( '', ( 0.000000000000000, 0.000000000000000, -1.00000000000000 ) );
#237 = DIRECTION( '', ( -1.00000000000000, 0.000000000000000, 0.000000000000000 ) );
#238 = FILL_AREA_STYLE( '', ( #267 ) );
#239 = EDGE_CURVE( '', #268, #269, #270, .F. );
#240 = EDGE_CURVE( '', #271, #268, #272, .T. );
#241 = EDGE_CURVE( '', #273, #271, #274, .T. );
#242 = EDGE_CURVE( '', #273, #269, #275, .T. );
#243 = FILL_AREA_STYLE( '', ( #276 ) );
#244 = EDGE_CURVE( '', #277, #278, #279, .F. );
#245 = EDGE_CURVE( '', #280, #277, #281, .T. );
#246 = EDGE_CURVE( '', #282, #280, #283, .T. );
#247 = EDGE_CURVE( '', #282, #278, #284, .T. );
#248 = FILL_AREA_STYLE( '', ( #285 ) );
#249 = EDGE_CURVE( '', #286, #286, #287, .T. );
#250 = EDGE_CURVE( '', #288, #288, #289, .T. );
#251 = FILL_AREA_STYLE( '', ( #290 ) );
#252 = EDGE_CURVE( '', #278, #273, #291, .T. );
#253 = EDGE_CURVE( '', #269, #282, #292, .T. );
#254 = FILL_AREA_STYLE( '', ( #293 ) );
#255 = EDGE_CURVE( '', #294, #294, #295, .T. );
#256 = FILL_AREA_STYLE( '', ( #296 ) );
#257 = EDGE_CURVE( '', #297, #297, #298, .T. );
#258 = EDGE_CURVE( '', #299, #299, #300, .T. );
#259 = FILL_AREA_STYLE( '', ( #301 ) );
#260 = EDGE_CURVE( '', #271, #277, #302, .T. );
#261 = EDGE_CURVE( '', #280, #268, #303, .T. );
#262 = FILL_AREA_STYLE( '', ( #304 ) );
#263 = FILL_AREA_STYLE( '', ( #305 ) );
#264 = CARTESIAN_POINT( '', ( 36.0000000000000, 1.41328261462292E-14, 0.000000000000000 ) );
#265 = FILL_AREA_STYLE( '', ( #306 ) );
#266 = FILL_AREA_STYLE( '', ( #307 ) );
#267 = FILL_AREA_STYLE_COLOUR( '', #308 );
#268 = VERTEX_POINT( '', #309 );
#269 = VERTEX_POINT( '', #310 );
#270 = LINE( '', #311, #312 );
#271 = VERTEX_POINT( '', #313 );
#272 = CIRCLE( '', #314, 8.00000000000000 );
#273 = VERTEX_POINT( '', #315 );
#274 = LINE( '', #316, #317 );
#275 = CIRCLE( '', #318, 8.00000000000000 );
#276 = FILL_AREA_STYLE_COLOUR( '', #319 );
#277 = VERTEX_POINT( '', #320 );
#278 = VERTEX_POINT( '', #321 );
#279 = LINE( '', #322, #323 );
#280 = VERTEX_POINT( '', #324 );
#281 = CIRCLE( '', #325, 8.00000000000000 );
#282 = VERTEX_POINT( '', #326 );
#283 = LINE( '', #327, #328 );
#284 = CIRCLE( '', #329, 8.00000000000000 );
#285 = FILL_AREA_STYLE_COLOUR( '', #330 );
#286 = VERTEX_POINT( '', #331 );
#287 = CIRCLE( '', #332, 6.00000000000000 );
#288 = VERTEX_POINT( '', #333 );
#289 = CIRCLE( '', #334, 3.48711915480000 );
#290 = FILL_AREA_STYLE_COLOUR( '', #335 );
#291 = LINE( '', #336, #337 );
#292 = LINE( '', #338, #339 );
#293 = FILL_AREA_STYLE_COLOUR( '', #340 );
#294 = VERTEX_POINT( '', #341 );
#295 = CIRCLE( '', #342, 4.80000000000000 );
#296 = FILL_AREA_STYLE_COLOUR( '', #343 );
#297 = VERTEX_POINT( '', #344 );
#298 = CIRCLE( '', #345, 6.00000000000000 );
#299 = VERTEX_POINT( '', #346 );
#300 = CIRCLE( '', #347, 6.00000000000000 );
#301 = FILL_AREA_STYLE_COLOUR( '', #348 );
#302 = LINE( '', #349, #350 );
#303 = LINE( '', #351, #352 );
#304 = FILL_AREA_STYLE_COLOUR( '', #353 );
#305 = FILL_AREA_STYLE_COLOUR( '', #354 );
#306 = FILL_AREA_STYLE_COLOUR( '', #355 );
#307 = FILL_AREA_STYLE_COLOUR( '', #356 );
#308 = COLOUR_RGB( '', 0.689999997600000, 0.689999997600000, 0.689999997600000 );
#309 = CARTESIAN_POINT( '', ( 16.0000000000000, 4.66368952654439, 6.50000000000000 ) );
#310 = CARTESIAN_POINT( '', ( 12.8000000000000, 4.66368952654439, 6.50000000000000 ) );
#311 = CARTESIAN_POINT( '', ( 36.0000000000000, 4.66368952654439, 6.50000000000000 ) );
#312 = VECTOR( '', #357, 1000.00000000000 );
#313 = CARTESIAN_POINT( '', ( 16.0000000000000, 4.66368952654439, -6.50000000000000 ) );
#314 = AXIS2_PLACEMENT_3D( '', #358, #359, #360 );
#315 = CARTESIAN_POINT( '', ( 12.8000000000000, 4.66368952654439, -6.50000000000000 ) );
#316 = CARTESIAN_POINT( '', ( 36.0000000000000, 4.66368952654439, -6.50000000000000 ) );
#317 = VECTOR( '', #361, 1000.00000000000 );
#318 = AXIS2_PLACEMENT_3D( '', #362, #363, #364 );
#319 = COLOUR_RGB( '', 0.689999997600000, 0.689999997600000, 0.689999997600000 );
#320 = CARTESIAN_POINT( '', ( 16.0000000000000, -4.66368952654439, -6.50000000000000 ) );
#321 = CARTESIAN_POINT( '', ( 12.8000000000000, -4.66368952654439, -6.50000000000000 ) );
#322 = CARTESIAN_POINT( '', ( 36.0000000000000, -4.66368952654439, -6.50000000000000 ) );
#323 = VECTOR( '', #365, 1000.00000000000 );
#324 = CARTESIAN_POINT( '', ( 16.0000000000000, -4.66368952654439, 6.50000000000000 ) );
#325 = AXIS2_PLACEMENT_3D( '', #366, #367, #368 );
#326 = CARTESIAN_POINT( '', ( 12.8000000000000, -4.66368952654439, 6.50000000000000 ) );
#327 = CARTESIAN_POINT( '', ( 36.0000000000000, -4.66368952654439, 6.50000000000000 ) );
#328 = VECTOR( '', #369, 1000.00000000000 );
#329 = AXIS2_PLACEMENT_3D( '', #370, #371, #372 );
#330 = COLOUR_RGB( '', 0.689999997600000, 0.689999997600000, 0.689999997600000 );
#331 = CARTESIAN_POINT( '', ( 12.8000000000000, 0.000000000000000, -6.00000000000001 ) );
#332 = AXIS2_PLACEMENT_3D( '', #373, #374, #375 );
#333 = CARTESIAN_POINT( '', ( 7.20000000000000, 0.000000000000000, -3.48711915483254 ) );
#334 = AXIS2_PLACEMENT_3D( '', #376, #377, #378 );
#335 = COLOUR_RGB( '', 0.689999997600000, 0.689999997600000, 0.689999997600000 );
#336 = CARTESIAN_POINT( '', ( 12.8000000000000, 6.00000000000001, -6.50000000000000 ) );
#337 = VECTOR( '', #379, 1000.00000000000 );
#338 = CARTESIAN_POINT( '', ( 12.8000000000000, 6.00000000000001, 6.50000000000000 ) );
#339 = VECTOR( '', #380, 1000.00000000000 );
#340 = COLOUR_RGB( '', 0.689999997600000, 0.689999997600000, 0.689999997600000 );
#341 = CARTESIAN_POINT( '', ( -6.40000000000000, 0.000000000000000, -4.80000000000000 ) );
#342 = AXIS2_PLACEMENT_3D( '', #381, #382, #383 );
#343 = COLOUR_RGB( '', 0.689999997600000, 0.689999997600000, 0.689999997600000 );
#344 = CARTESIAN_POINT( '', ( 34.0000000000000, 0.000000000000000, -6.00000000000000 ) );
#345 = AXIS2_PLACEMENT_3D( '', #384, #385, #386 );
#346 = CARTESIAN_POINT( '', ( 16.0000000000000, 0.000000000000000, -6.00000000000000 ) );
#347 = AXIS2_PLACEMENT_3D( '', #387, #388, #389 );
#348 = COLOUR_RGB( '', 0.689999997600000, 0.689999997600000, 0.689999997600000 );
#349 = CARTESIAN_POINT( '', ( 16.0000000000000, 7.99999999999999, -6.50000000000000 ) );
#350 = VECTOR( '', #390, 1000.00000000000 );
#351 = CARTESIAN_POINT( '', ( 16.0000000000000, 7.99999999999999, 6.50000000000000 ) );
#352 = VECTOR( '', #391, 1000.00000000000 );
#353 = COLOUR_RGB( '', 0.689999997600000, 0.689999997600000, 0.689999997600000 );
#354 = COLOUR_RGB( '', 0.689999997600000, 0.689999997600000, 0.689999997600000 );
#355 = COLOUR_RGB( '', 0.689999997600000, 0.689999997600000, 0.689999997600000 );
#356 = COLOUR_RGB( '', 0.689999997600000, 0.689999997600000, 0.689999997600000 );
#357 = DIRECTION( '', ( 1.00000000000000, -0.000000000000000, -0.000000000000000 ) );
#358 = CARTESIAN_POINT( '', ( 16.0000000000000, 0.000000000000000, 0.000000000000000 ) );
#359 = DIRECTION( '', ( 1.00000000000000, 0.000000000000000, -0.000000000000000 ) );
#360 = DIRECTION( '', ( -0.000000000000000, 0.000000000000000, -1.00000000000000 ) );
#361 = DIRECTION( '', ( 1.00000000000000, -0.000000000000000, -0.000000000000000 ) );
#362 = CARTESIAN_POINT( '', ( 12.8000000000000, 0.000000000000000, 0.000000000000000 ) );
#363 = DIRECTION( '', ( 1.00000000000000, 0.000000000000000, -0.000000000000000 ) );
#364 = DIRECTION( '', ( -0.000000000000000, 0.000000000000000, -1.00000000000000 ) );
#365 = DIRECTION( '', ( 1.00000000000000, -0.000000000000000, -0.000000000000000 ) );
#366 = CARTESIAN_POINT( '', ( 16.0000000000000, 0.000000000000000, 0.000000000000000 ) );
#367 = DIRECTION( '', ( 1.00000000000000, 0.000000000000000, -0.000000000000000 ) );
#368 = DIRECTION( '', ( -0.000000000000000, 0.000000000000000, -1.00000000000000 ) );
#369 = DIRECTION( '', ( 1.00000000000000, -0.000000000000000, -0.000000000000000 ) );
#370 = CARTESIAN_POINT( '', ( 12.8000000000000, 0.000000000000000, 0.000000000000000 ) );
#371 = DIRECTION( '', ( 1.00000000000000, 0.000000000000000, -0.000000000000000 ) );
#372 = DIRECTION( '', ( -0.000000000000000, 0.000000000000000, -1.00000000000000 ) );
#373 = CARTESIAN_POINT( '', ( 12.8000000000000, 0.000000000000000, 0.000000000000000 ) );
#374 = DIRECTION( '', ( 1.00000000000000, 0.000000000000000, -0.000000000000000 ) );
#375 = DIRECTION( '', ( -0.000000000000000, 0.000000000000000, -1.00000000000000 ) );
#376 = CARTESIAN_POINT( '', ( 7.20000000000000, 0.000000000000000, 0.000000000000000 ) );
#377 = DIRECTION( '', ( 1.00000000000000, 0.000000000000000, -0.000000000000000 ) );
#378 = DIRECTION( '', ( -0.000000000000000, 0.000000000000000, -1.00000000000000 ) );
#379 = DIRECTION( '', ( 0.000000000000000, 1.00000000000000, 0.000000000000000 ) );
#380 = DIRECTION( '', ( 0.000000000000000, -1.00000000000000, 0.000000000000000 ) );
#381 = CARTESIAN_POINT( '', ( -6.40000000000000, 0.000000000000000, 0.000000000000000 ) );
#382 = DIRECTION( '', ( 1.00000000000000, 0.000000000000000, -0.000000000000000 ) );
#383 = DIRECTION( '', ( -0.000000000000000, 0.000000000000000, -1.00000000000000 ) );
#384 = CARTESIAN_POINT( '', ( 34.0000000000000, 0.000000000000000, 0.000000000000000 ) );
#385 = DIRECTION( '', ( 1.00000000000000, 0.000000000000000, -0.000000000000000 ) );
#386 = DIRECTION( '', ( -0.000000000000000, 0.000000000000000, -1.00000000000000 ) );
#387 = CARTESIAN_POINT( '', ( 16.0000000000000, 0.000000000000000, 0.000000000000000 ) );
#388 = DIRECTION( '', ( 1.00000000000000, 0.000000000000000, -0.000000000000000 ) );
#389 = DIRECTION( '', ( -0.000000000000000, 0.000000000000000, -1.00000000000000 ) );
#390 = DIRECTION( '', ( 0.000000000000000, -1.00000000000000, 0.000000000000000 ) );
#391 = DIRECTION( '', ( 0.000000000000000, 1.00000000000000, -0.000000000000000 ) );
ENDSEC;
END-ISO-10303-21;
