ISO-10303-21;
HEADER;
FILE_DESCRIPTION( ( 'STEP AP214' ), '1' );
FILE_NAME( '//goodhand-server/Shared Folders/GoodHand Data/Kipp CAD/K0390/K0390.08X60.stp', '2020-12-07T10:14:25', ( '' ), ( '' ), ' ', 'PARTsolutions', ' ' );
FILE_SCHEMA( ( 'AUTOMOTIVE_DESIGN { 1 0 10303 214 1 1 1 1 }' ) );
ENDSEC;
DATA;
#1 = MECHANICAL_DESIGN_GEOMETRIC_PRESENTATION_REPRESENTATION( ' ', ( #10, #11, #12, #13, #14, #15, #16, #17, #18, #19, #20, #21, #22 ), #6 );
#2 = PRODUCT_DEFINITION_CONTEXT( '', #23, 'design' );
#3 = APPLICATION_PROTOCOL_DEFINITION( 'international standard', 'automotive_design', 2001, #23 );
#4 = PRODUCT_CATEGORY_RELATIONSHIP( 'NONE', 'NONE', #24, #25 );
#5 = SHAPE_DEFINITION_REPRESENTATION( #26, #27 );
#6 =  ( GEOMETRIC_REPRESENTATION_CONTEXT( 3 )GLOBAL_UNCERTAINTY_ASSIGNED_CONTEXT( ( #30 ) )GLOBAL_UNIT_ASSIGNED_CONTEXT( ( #32, #33, #34 ) )REPRESENTATION_CONTEXT( 'NONE', 'WORKSPACE' ) );
#10 = STYLED_ITEM( '', ( #36 ), #37 );
#11 = STYLED_ITEM( '', ( #38 ), #39 );
#12 = STYLED_ITEM( '', ( #40 ), #41 );
#13 = STYLED_ITEM( '', ( #42 ), #43 );
#14 = STYLED_ITEM( '', ( #44 ), #45 );
#15 = STYLED_ITEM( '', ( #46 ), #47 );
#16 = STYLED_ITEM( '', ( #48 ), #49 );
#17 = STYLED_ITEM( '', ( #50 ), #51 );
#18 = STYLED_ITEM( '', ( #52 ), #53 );
#19 = STYLED_ITEM( '', ( #54 ), #55 );
#20 = STYLED_ITEM( '', ( #56 ), #57 );
#21 = STYLED_ITEM( '', ( #58 ), #59 );
#22 = STYLED_ITEM( '', ( #60 ), #61 );
#23 = APPLICATION_CONTEXT( 'core data for automotive mechanical design processes' );
#24 = PRODUCT_CATEGORY( 'part', 'NONE' );
#25 = PRODUCT_RELATED_PRODUCT_CATEGORY( 'detail', ' ', ( #62 ) );
#26 = PRODUCT_DEFINITION_SHAPE( 'NONE', 'NONE', #63 );
#27 = ADVANCED_BREP_SHAPE_REPRESENTATION( '_K0390.08X60', ( #64, #65 ), #6 );
#30 = UNCERTAINTY_MEASURE_WITH_UNIT( LENGTH_MEASURE( 0.00100000000000000 ), #32, '', '' );
#32 =  ( CONVERSION_BASED_UNIT( 'MILLIMETRE', #68 )LENGTH_UNIT(  )NAMED_UNIT( #71 ) );
#33 =  ( NAMED_UNIT( #73 )PLANE_ANGLE_UNIT(  )SI_UNIT( $, .RADIAN. ) );
#34 =  ( NAMED_UNIT( #73 )SI_UNIT( $, .STERADIAN. )SOLID_ANGLE_UNIT(  ) );
#36 = PRESENTATION_STYLE_ASSIGNMENT( ( #79 ) );
#37 = ADVANCED_FACE( '', ( #80 ), #81, .F. );
#38 = PRESENTATION_STYLE_ASSIGNMENT( ( #82 ) );
#39 = ADVANCED_FACE( '', ( #83 ), #84, .F. );
#40 = PRESENTATION_STYLE_ASSIGNMENT( ( #85 ) );
#41 = ADVANCED_FACE( '', ( #86, #87 ), #88, .T. );
#42 = PRESENTATION_STYLE_ASSIGNMENT( ( #89 ) );
#43 = ADVANCED_FACE( '', ( #90, #91 ), #92, .T. );
#44 = PRESENTATION_STYLE_ASSIGNMENT( ( #93 ) );
#45 = ADVANCED_FACE( '', ( #94, #95 ), #96, .T. );
#46 = PRESENTATION_STYLE_ASSIGNMENT( ( #97 ) );
#47 = ADVANCED_FACE( '', ( #98 ), #99, .F. );
#48 = PRESENTATION_STYLE_ASSIGNMENT( ( #100 ) );
#49 = ADVANCED_FACE( '', ( #101, #102 ), #103, .F. );
#50 = PRESENTATION_STYLE_ASSIGNMENT( ( #104 ) );
#51 = ADVANCED_FACE( '', ( #105 ), #106, .T. );
#52 = PRESENTATION_STYLE_ASSIGNMENT( ( #107 ) );
#53 = ADVANCED_FACE( '', ( #108, #109 ), #110, .T. );
#54 = PRESENTATION_STYLE_ASSIGNMENT( ( #111 ) );
#55 = ADVANCED_FACE( '', ( #112 ), #113, .T. );
#56 = PRESENTATION_STYLE_ASSIGNMENT( ( #114 ) );
#57 = ADVANCED_FACE( '', ( #115 ), #116, .T. );
#58 = PRESENTATION_STYLE_ASSIGNMENT( ( #117 ) );
#59 = ADVANCED_FACE( '', ( #118, #119 ), #120, .T. );
#60 = PRESENTATION_STYLE_ASSIGNMENT( ( #121 ) );
#61 = ADVANCED_FACE( '', ( #122 ), #123, .F. );
#62 = PRODUCT( '_K0390.08X60', '_K0390.08X60', 'PART-_K0390.08X60-DESC', ( #124 ) );
#63 = PRODUCT_DEFINITION( 'NONE', 'NONE', #125, #2 );
#64 = MANIFOLD_SOLID_BREP( '_K0390.08X60', #126 );
#65 = AXIS2_PLACEMENT_3D( '', #127, #128, #129 );
#68 = LENGTH_MEASURE_WITH_UNIT( LENGTH_MEASURE( 1.00000000000000 ), #130 );
#71 = DIMENSIONAL_EXPONENTS( 1.00000000000000, 0.000000000000000, 0.000000000000000, 0.000000000000000, 0.000000000000000, 0.000000000000000, 0.000000000000000 );
#73 = DIMENSIONAL_EXPONENTS( 0.000000000000000, 0.000000000000000, 0.000000000000000, 0.000000000000000, 0.000000000000000, 0.000000000000000, 0.000000000000000 );
#79 = SURFACE_STYLE_USAGE( .BOTH., #131 );
#80 = FACE_OUTER_BOUND( '', #132, .T. );
#81 = PLANE( '', #133 );
#82 = SURFACE_STYLE_USAGE( .BOTH., #134 );
#83 = FACE_OUTER_BOUND( '', #135, .T. );
#84 = PLANE( '', #136 );
#85 = SURFACE_STYLE_USAGE( .BOTH., #137 );
#86 = FACE_OUTER_BOUND( '', #138, .T. );
#87 = FACE_OUTER_BOUND( '', #139, .T. );
#88 = CYLINDRICAL_SURFACE( '', #140, 3.00000000000000 );
#89 = SURFACE_STYLE_USAGE( .BOTH., #141 );
#90 = FACE_OUTER_BOUND( '', #142, .T. );
#91 = FACE_OUTER_BOUND( '', #143, .T. );
#92 = CYLINDRICAL_SURFACE( '', #144, 2.70000000000000 );
#93 = SURFACE_STYLE_USAGE( .BOTH., #145 );
#94 = FACE_OUTER_BOUND( '', #146, .T. );
#95 = FACE_OUTER_BOUND( '', #147, .T. );
#96 = CYLINDRICAL_SURFACE( '', #148, 4.00000000000000 );
#97 = SURFACE_STYLE_USAGE( .BOTH., #149 );
#98 = FACE_OUTER_BOUND( '', #150, .T. );
#99 = PLANE( '', #151 );
#100 = SURFACE_STYLE_USAGE( .BOTH., #152 );
#101 = FACE_OUTER_BOUND( '', #153, .T. );
#102 = FACE_BOUND( '', #154, .T. );
#103 = PLANE( '', #155 );
#104 = SURFACE_STYLE_USAGE( .BOTH., #156 );
#105 = FACE_OUTER_BOUND( '', #157, .T. );
#106 = PLANE( '', #158 );
#107 = SURFACE_STYLE_USAGE( .BOTH., #159 );
#108 = FACE_BOUND( '', #160, .T. );
#109 = FACE_OUTER_BOUND( '', #161, .T. );
#110 = CONICAL_SURFACE( '', #162, 4.00000000000000, 1.06399014130000 );
#111 = SURFACE_STYLE_USAGE( .BOTH., #163 );
#112 = FACE_OUTER_BOUND( '', #164, .T. );
#113 = CONICAL_SURFACE( '', #165, 3.23300000000000, 0.785398163400000 );
#114 = SURFACE_STYLE_USAGE( .BOTH., #166 );
#115 = FACE_OUTER_BOUND( '', #167, .T. );
#116 = CONICAL_SURFACE( '', #168, 3.23300000000000, 0.785398163400000 );
#117 = SURFACE_STYLE_USAGE( .BOTH., #169 );
#118 = FACE_BOUND( '', #170, .T. );
#119 = FACE_OUTER_BOUND( '', #171, .T. );
#120 = SPHERICAL_SURFACE( '', #172, 5.03220000000000 );
#121 = SURFACE_STYLE_USAGE( .BOTH., #173 );
#122 = FACE_OUTER_BOUND( '', #174, .T. );
#123 = PLANE( '', #175 );
#124 = PRODUCT_CONTEXT( '', #23, 'mechanical' );
#125 = PRODUCT_DEFINITION_FORMATION_WITH_SPECIFIED_SOURCE( ' ', 'NONE', #62, .NOT_KNOWN. );
#126 = CLOSED_SHELL( '', ( #47, #39, #59, #41, #49, #43, #53, #45, #57, #37, #55, #61, #51 ) );
#127 = CARTESIAN_POINT( '', ( 0.000000000000000, 0.000000000000000, 0.000000000000000 ) );
#128 = DIRECTION( '', ( 0.000000000000000, 0.000000000000000, 1.00000000000000 ) );
#129 = DIRECTION( '', ( 1.00000000000000, 0.000000000000000, 0.000000000000000 ) );
#130 =  ( LENGTH_UNIT(  )NAMED_UNIT( #71 )SI_UNIT( .MILLI., .METRE. ) );
#131 = SURFACE_SIDE_STYLE( '', ( #177 ) );
#132 = EDGE_LOOP( '', ( #178, #179 ) );
#133 = AXIS2_PLACEMENT_3D( '', #180, #181, #182 );
#134 = SURFACE_SIDE_STYLE( '', ( #183 ) );
#135 = EDGE_LOOP( '', ( #184, #185, #186, #187, #188, #189 ) );
#136 = AXIS2_PLACEMENT_3D( '', #190, #191, #192 );
#137 = SURFACE_SIDE_STYLE( '', ( #193 ) );
#138 = EDGE_LOOP( '', ( #194 ) );
#139 = EDGE_LOOP( '', ( #195 ) );
#140 = AXIS2_PLACEMENT_3D( '', #196, #197, #198 );
#141 = SURFACE_SIDE_STYLE( '', ( #199 ) );
#142 = EDGE_LOOP( '', ( #200 ) );
#143 = EDGE_LOOP( '', ( #201 ) );
#144 = AXIS2_PLACEMENT_3D( '', #202, #203, #204 );
#145 = SURFACE_SIDE_STYLE( '', ( #205 ) );
#146 = EDGE_LOOP( '', ( #206 ) );
#147 = EDGE_LOOP( '', ( #207, #208, #209, #210, #211, #212, #213, #214 ) );
#148 = AXIS2_PLACEMENT_3D( '', #215, #216, #217 );
#149 = SURFACE_SIDE_STYLE( '', ( #218 ) );
#150 = EDGE_LOOP( '', ( #219, #220, #221, #222, #223, #224 ) );
#151 = AXIS2_PLACEMENT_3D( '', #225, #226, #227 );
#152 = SURFACE_SIDE_STYLE( '', ( #228 ) );
#153 = EDGE_LOOP( '', ( #229 ) );
#154 = EDGE_LOOP( '', ( #230 ) );
#155 = AXIS2_PLACEMENT_3D( '', #231, #232, #233 );
#156 = SURFACE_SIDE_STYLE( '', ( #234 ) );
#157 = EDGE_LOOP( '', ( #235, #236, #237, #238 ) );
#158 = AXIS2_PLACEMENT_3D( '', #239, #240, #241 );
#159 = SURFACE_SIDE_STYLE( '', ( #242 ) );
#160 = EDGE_LOOP( '', ( #243 ) );
#161 = EDGE_LOOP( '', ( #244 ) );
#162 = AXIS2_PLACEMENT_3D( '', #245, #246, #247 );
#163 = SURFACE_SIDE_STYLE( '', ( #248 ) );
#164 = EDGE_LOOP( '', ( #249, #250, #251, #252 ) );
#165 = AXIS2_PLACEMENT_3D( '', #253, #254, #255 );
#166 = SURFACE_SIDE_STYLE( '', ( #256 ) );
#167 = EDGE_LOOP( '', ( #257, #258, #259, #260 ) );
#168 = AXIS2_PLACEMENT_3D( '', #261, #262, #263 );
#169 = SURFACE_SIDE_STYLE( '', ( #264 ) );
#170 = VERTEX_LOOP( '', #265 );
#171 = EDGE_LOOP( '', ( #266 ) );
#172 = AXIS2_PLACEMENT_3D( '', #267, #268, #269 );
#173 = SURFACE_SIDE_STYLE( '', ( #270 ) );
#174 = EDGE_LOOP( '', ( #271, #272 ) );
#175 = AXIS2_PLACEMENT_3D( '', #273, #274, #275 );
#177 = SURFACE_STYLE_FILL_AREA( #276 );
#178 = ORIENTED_EDGE( '', *, *, #277, .F. );
#179 = ORIENTED_EDGE( '', *, *, #278, .F. );
#180 = CARTESIAN_POINT( '', ( -9.89820775410848E-17, 7.22665407624256E-15, 0.000000000000000 ) );
#181 = DIRECTION( '', ( 1.00000000000000, -6.12323399573677E-17, -0.000000000000000 ) );
#182 = DIRECTION( '', ( 6.12323399573677E-17, 1.00000000000000, 0.000000000000000 ) );
#183 = SURFACE_STYLE_FILL_AREA( #279 );
#184 = ORIENTED_EDGE( '', *, *, #278, .T. );
#185 = ORIENTED_EDGE( '', *, *, #280, .F. );
#186 = ORIENTED_EDGE( '', *, *, #281, .F. );
#187 = ORIENTED_EDGE( '', *, *, #282, .F. );
#188 = ORIENTED_EDGE( '', *, *, #283, .F. );
#189 = ORIENTED_EDGE( '', *, *, #284, .F. );
#190 = CARTESIAN_POINT( '', ( 3.00000000000000, -0.899999999999993, -10.5000000000000 ) );
#191 = DIRECTION( '', ( 0.000000000000000, -1.00000000000000, 0.000000000000000 ) );
#192 = DIRECTION( '', ( 0.000000000000000, 0.000000000000000, -1.00000000000000 ) );
#193 = SURFACE_STYLE_FILL_AREA( #285 );
#194 = ORIENTED_EDGE( '', *, *, #286, .F. );
#195 = ORIENTED_EDGE( '', *, *, #287, .T. );
#196 = CARTESIAN_POINT( '', ( 60.0000000000000, 3.55271367880050E-15, 0.000000000000000 ) );
#197 = DIRECTION( '', ( -1.00000000000000, 6.12323399573677E-17, 0.000000000000000 ) );
#198 = DIRECTION( '', ( 6.12323399573677E-17, 1.00000000000000, 0.000000000000000 ) );
#199 = SURFACE_STYLE_FILL_AREA( #288 );
#200 = ORIENTED_EDGE( '', *, *, #289, .F. );
#201 = ORIENTED_EDGE( '', *, *, #290, .T. );
#202 = CARTESIAN_POINT( '', ( 60.0000000000000, 3.55271367880050E-15, 0.000000000000000 ) );
#203 = DIRECTION( '', ( -1.00000000000000, 6.12323399573676E-17, 0.000000000000000 ) );
#204 = DIRECTION( '', ( 6.12323399573677E-17, 1.00000000000000, 0.000000000000000 ) );
#205 = SURFACE_STYLE_FILL_AREA( #291 );
#206 = ORIENTED_EDGE( '', *, *, #292, .F. );
#207 = ORIENTED_EDGE( '', *, *, #293, .T. );
#208 = ORIENTED_EDGE( '', *, *, #283, .T. );
#209 = ORIENTED_EDGE( '', *, *, #294, .F. );
#210 = ORIENTED_EDGE( '', *, *, #295, .T. );
#211 = ORIENTED_EDGE( '', *, *, #296, .T. );
#212 = ORIENTED_EDGE( '', *, *, #297, .T. );
#213 = ORIENTED_EDGE( '', *, *, #298, .F. );
#214 = ORIENTED_EDGE( '', *, *, #281, .T. );
#215 = CARTESIAN_POINT( '', ( 60.0000000000000, 3.55271367880050E-15, 0.000000000000000 ) );
#216 = DIRECTION( '', ( -1.00000000000000, 6.12323399573677E-17, 0.000000000000000 ) );
#217 = DIRECTION( '', ( 6.12323399573677E-17, 1.00000000000000, 0.000000000000000 ) );
#218 = SURFACE_STYLE_FILL_AREA( #299 );
#219 = ORIENTED_EDGE( '', *, *, #300, .F. );
#220 = ORIENTED_EDGE( '', *, *, #301, .T. );
#221 = ORIENTED_EDGE( '', *, *, #302, .F. );
#222 = ORIENTED_EDGE( '', *, *, #295, .F. );
#223 = ORIENTED_EDGE( '', *, *, #303, .F. );
#224 = ORIENTED_EDGE( '', *, *, #297, .F. );
#225 = CARTESIAN_POINT( '', ( 3.00000000000000, 0.900000000000007, 10.5000000000000 ) );
#226 = DIRECTION( '', ( 0.000000000000000, 1.00000000000000, 0.000000000000000 ) );
#227 = DIRECTION( '', ( 0.000000000000000, -0.000000000000000, 1.00000000000000 ) );
#228 = SURFACE_STYLE_FILL_AREA( #304 );
#229 = ORIENTED_EDGE( '', *, *, #287, .F. );
#230 = ORIENTED_EDGE( '', *, *, #289, .T. );
#231 = CARTESIAN_POINT( '', ( 57.0000000000000, 2.70000000000000, 0.000000000000000 ) );
#232 = DIRECTION( '', ( 1.00000000000000, -6.12323399573677E-17, -0.000000000000000 ) );
#233 = DIRECTION( '', ( 6.12323399573677E-17, 1.00000000000000, 0.000000000000000 ) );
#234 = SURFACE_STYLE_FILL_AREA( #305 );
#235 = ORIENTED_EDGE( '', *, *, #294, .T. );
#236 = ORIENTED_EDGE( '', *, *, #282, .T. );
#237 = ORIENTED_EDGE( '', *, *, #298, .T. );
#238 = ORIENTED_EDGE( '', *, *, #303, .T. );
#239 = CARTESIAN_POINT( '', ( 3.00000000000000, 0.000000000000000, 0.000000000000000 ) );
#240 = DIRECTION( '', ( -1.00000000000000, 0.000000000000000, 0.000000000000000 ) );
#241 = DIRECTION( '', ( 0.000000000000000, 0.000000000000000, 1.00000000000000 ) );
#242 = SURFACE_STYLE_FILL_AREA( #306 );
#243 = ORIENTED_EDGE( '', *, *, #290, .F. );
#244 = ORIENTED_EDGE( '', *, *, #292, .T. );
#245 = CARTESIAN_POINT( '', ( 52.5000000000000, 4.01195622848076E-15, 0.000000000000000 ) );
#246 = DIRECTION( '', ( -1.00000000000000, 6.12323399573677E-17, -0.000000000000000 ) );
#247 = DIRECTION( '', ( -6.12323399573677E-17, -1.00000000000000, 0.000000000000000 ) );
#248 = SURFACE_STYLE_FILL_AREA( #307 );
#249 = ORIENTED_EDGE( '', *, *, #293, .F. );
#250 = ORIENTED_EDGE( '', *, *, #280, .T. );
#251 = ORIENTED_EDGE( '', *, *, #277, .T. );
#252 = ORIENTED_EDGE( '', *, *, #284, .T. );
#253 = CARTESIAN_POINT( '', ( 0.000000000000000, 7.22665407624256E-15, 0.000000000000000 ) );
#254 = DIRECTION( '', ( 1.00000000000000, -6.12323399573676E-17, -0.000000000000000 ) );
#255 = DIRECTION( '', ( 6.12323399573677E-17, 1.00000000000000, 0.000000000000000 ) );
#256 = SURFACE_STYLE_FILL_AREA( #308 );
#257 = ORIENTED_EDGE( '', *, *, #309, .T. );
#258 = ORIENTED_EDGE( '', *, *, #300, .T. );
#259 = ORIENTED_EDGE( '', *, *, #296, .F. );
#260 = ORIENTED_EDGE( '', *, *, #302, .T. );
#261 = CARTESIAN_POINT( '', ( 0.000000000000000, 7.22665407624256E-15, 0.000000000000000 ) );
#262 = DIRECTION( '', ( 1.00000000000000, -6.12323399573676E-17, -0.000000000000000 ) );
#263 = DIRECTION( '', ( 6.12323399573677E-17, 1.00000000000000, 0.000000000000000 ) );
#264 = SURFACE_STYLE_FILL_AREA( #310 );
#265 = VERTEX_POINT( '', #311 );
#266 = ORIENTED_EDGE( '', *, *, #286, .T. );
#267 = CARTESIAN_POINT( '', ( 54.9678000000001, 2.94902990916057E-14, 0.000000000000000 ) );
#268 = DIRECTION( '', ( 1.00000000000000, 0.000000000000000, 0.000000000000000 ) );
#269 = DIRECTION( '', ( 0.000000000000000, -1.00000000000000, 0.000000000000000 ) );
#270 = SURFACE_STYLE_FILL_AREA( #312 );
#271 = ORIENTED_EDGE( '', *, *, #309, .F. );
#272 = ORIENTED_EDGE( '', *, *, #301, .F. );
#273 = CARTESIAN_POINT( '', ( -9.89820775410848E-17, 7.22665407624256E-15, 0.000000000000000 ) );
#274 = DIRECTION( '', ( 1.00000000000000, -6.12323399573677E-17, -0.000000000000000 ) );
#275 = DIRECTION( '', ( 6.12323399573677E-17, 1.00000000000000, 0.000000000000000 ) );
#276 = FILL_AREA_STYLE( '', ( #313 ) );
#277 = EDGE_CURVE( '', #314, #315, #316, .T. );
#278 = EDGE_CURVE( '', #315, #314, #317, .T. );
#279 = FILL_AREA_STYLE( '', ( #318 ) );
#280 = EDGE_CURVE( '', #319, #314, #320, .T. );
#281 = EDGE_CURVE( '', #321, #319, #322, .F. );
#282 = EDGE_CURVE( '', #323, #321, #324, .T. );
#283 = EDGE_CURVE( '', #325, #323, #326, .T. );
#284 = EDGE_CURVE( '', #315, #325, #327, .T. );
#285 = FILL_AREA_STYLE( '', ( #328 ) );
#286 = EDGE_CURVE( '', #329, #329, #330, .T. );
#287 = EDGE_CURVE( '', #331, #331, #332, .T. );
#288 = FILL_AREA_STYLE( '', ( #333 ) );
#289 = EDGE_CURVE( '', #334, #334, #335, .T. );
#290 = EDGE_CURVE( '', #336, #336, #337, .T. );
#291 = FILL_AREA_STYLE( '', ( #338 ) );
#292 = EDGE_CURVE( '', #339, #339, #340, .T. );
#293 = EDGE_CURVE( '', #319, #325, #341, .T. );
#294 = EDGE_CURVE( '', #342, #323, #343, .T. );
#295 = EDGE_CURVE( '', #342, #344, #345, .F. );
#296 = EDGE_CURVE( '', #344, #346, #347, .T. );
#297 = EDGE_CURVE( '', #346, #348, #349, .T. );
#298 = EDGE_CURVE( '', #321, #348, #350, .T. );
#299 = FILL_AREA_STYLE( '', ( #351 ) );
#300 = EDGE_CURVE( '', #352, #346, #353, .T. );
#301 = EDGE_CURVE( '', #352, #354, #355, .T. );
#302 = EDGE_CURVE( '', #344, #354, #356, .T. );
#303 = EDGE_CURVE( '', #348, #342, #357, .T. );
#304 = FILL_AREA_STYLE( '', ( #358 ) );
#305 = FILL_AREA_STYLE( '', ( #359 ) );
#306 = FILL_AREA_STYLE( '', ( #360 ) );
#307 = FILL_AREA_STYLE( '', ( #361 ) );
#308 = FILL_AREA_STYLE( '', ( #362 ) );
#309 = EDGE_CURVE( '', #354, #352, #363, .T. );
#310 = FILL_AREA_STYLE( '', ( #364 ) );
#311 = CARTESIAN_POINT( '', ( 60.0000000000000, 2.88740323293388E-14, 0.000000000000000 ) );
#312 = FILL_AREA_STYLE( '', ( #365 ) );
#313 = FILL_AREA_STYLE_COLOUR( '', #366 );
#314 = VERTEX_POINT( '', #367 );
#315 = VERTEX_POINT( '', #368 );
#316 = CIRCLE( '', #369, 3.23300000000000 );
#317 = LINE( '', #370, #371 );
#318 = FILL_AREA_STYLE_COLOUR( '', #372 );
#319 = VERTEX_POINT( '', #373 );
#320 = B_SPLINE_CURVE_WITH_KNOTS( '', 3, ( #374, #375, #376, #377 ), .UNSPECIFIED., .F., .F., ( 4, 4 ), ( 0.00685941369446052, 0.00796210091278451 ), .UNSPECIFIED. );
#321 = VERTEX_POINT( '', #378 );
#322 = LINE( '', #379, #380 );
#323 = VERTEX_POINT( '', #381 );
#324 = LINE( '', #382, #383 );
#325 = VERTEX_POINT( '', #384 );
#326 = LINE( '', #385, #386 );
#327 = B_SPLINE_CURVE_WITH_KNOTS( '', 3, ( #387, #388, #389, #390 ), .UNSPECIFIED., .F., .F., ( 4, 4 ), ( 0.0158157249040059, 0.0169130244324276 ), .UNSPECIFIED. );
#328 = FILL_AREA_STYLE_COLOUR( '', #391 );
#329 = VERTEX_POINT( '', #392 );
#330 = CIRCLE( '', #393, 3.00000000000000 );
#331 = VERTEX_POINT( '', #394 );
#332 = CIRCLE( '', #395, 3.00000000000000 );
#333 = FILL_AREA_STYLE_COLOUR( '', #396 );
#334 = VERTEX_POINT( '', #397 );
#335 = CIRCLE( '', #398, 2.70000000000000 );
#336 = VERTEX_POINT( '', #399 );
#337 = CIRCLE( '', #400, 2.70000000000000 );
#338 = FILL_AREA_STYLE_COLOUR( '', #401 );
#339 = VERTEX_POINT( '', #402 );
#340 = CIRCLE( '', #403, 4.00000000000000 );
#341 = CIRCLE( '', #404, 4.00000000000000 );
#342 = VERTEX_POINT( '', #405 );
#343 = CIRCLE( '', #406, 4.00000000000000 );
#344 = VERTEX_POINT( '', #407 );
#345 = LINE( '', #408, #409 );
#346 = VERTEX_POINT( '', #410 );
#347 = CIRCLE( '', #411, 4.00000000000000 );
#348 = VERTEX_POINT( '', #412 );
#349 = LINE( '', #413, #414 );
#350 = CIRCLE( '', #415, 4.00000000000000 );
#351 = FILL_AREA_STYLE_COLOUR( '', #416 );
#352 = VERTEX_POINT( '', #417 );
#353 = B_SPLINE_CURVE_WITH_KNOTS( '', 3, ( #418, #419, #420, #421 ), .UNSPECIFIED., .F., .F., ( 4, 4 ), ( 0.0158157249040059, 0.0169130244324276 ), .UNSPECIFIED. );
#354 = VERTEX_POINT( '', #422 );
#355 = LINE( '', #423, #424 );
#356 = B_SPLINE_CURVE_WITH_KNOTS( '', 3, ( #425, #426, #427, #428 ), .UNSPECIFIED., .F., .F., ( 4, 4 ), ( 0.00685941369446053, 0.00796210091278452 ), .UNSPECIFIED. );
#357 = LINE( '', #429, #430 );
#358 = FILL_AREA_STYLE_COLOUR( '', #431 );
#359 = FILL_AREA_STYLE_COLOUR( '', #432 );
#360 = FILL_AREA_STYLE_COLOUR( '', #433 );
#361 = FILL_AREA_STYLE_COLOUR( '', #434 );
#362 = FILL_AREA_STYLE_COLOUR( '', #435 );
#363 = CIRCLE( '', #436, 3.23300000000000 );
#364 = FILL_AREA_STYLE_COLOUR( '', #437 );
#365 = FILL_AREA_STYLE_COLOUR( '', #438 );
#366 = COLOUR_RGB( '', 0.689999997600000, 0.689999997600000, 0.689999997600000 );
#367 = CARTESIAN_POINT( '', ( 0.000000000000000, -0.899999999999993, 3.10520353600211 ) );
#368 = CARTESIAN_POINT( '', ( 0.000000000000000, -0.899999999999993, -3.10520353600211 ) );
#369 = AXIS2_PLACEMENT_3D( '', #439, #440, #441 );
#370 = CARTESIAN_POINT( '', ( 0.000000000000000, -0.899999999999993, -10.5000000000000 ) );
#371 = VECTOR( '', #442, 1000.00000000000 );
#372 = COLOUR_RGB( '', 0.689999997600000, 0.689999997600000, 0.689999997600000 );
#373 = CARTESIAN_POINT( '', ( 0.767000000000004, -0.899999999999989, 3.89743505398102 ) );
#374 = CARTESIAN_POINT( '', ( 0.767000000000001, -0.899999999999993, 3.89743505398102 ) );
#375 = CARTESIAN_POINT( '', ( 0.510490421567083, -0.899999999999993, 3.63417516651128 ) );
#376 = CARTESIAN_POINT( '', ( 0.254616510453989, -0.899999999999993, 3.37029893756074 ) );
#377 = CARTESIAN_POINT( '', ( -9.89644392929829E-17, -0.899999999999993, 3.10520353600211 ) );
#378 = CARTESIAN_POINT( '', ( 3.00000000000000, -0.899999999999993, 3.89743505398101 ) );
#379 = CARTESIAN_POINT( '', ( 60.0000000000000, -0.899999999999993, 3.89743505398102 ) );
#380 = VECTOR( '', #443, 1000.00000000000 );
#381 = CARTESIAN_POINT( '', ( 3.00000000000000, -0.899999999999993, -3.89743505398101 ) );
#382 = CARTESIAN_POINT( '', ( 3.00000000000000, -0.899999999999993, -10.5000000000000 ) );
#383 = VECTOR( '', #444, 1000.00000000000 );
#384 = CARTESIAN_POINT( '', ( 0.767000000000004, -0.899999999999989, -3.89743505398102 ) );
#385 = CARTESIAN_POINT( '', ( 60.0000000000000, -0.899999999999993, -3.89743505398102 ) );
#386 = VECTOR( '', #445, 1000.00000000000 );
#387 = CARTESIAN_POINT( '', ( -1.07228568014189E-15, -0.899999999999993, -3.10520353600211 ) );
#388 = CARTESIAN_POINT( '', ( 0.254623855499881, -0.899999999999993, -3.37030658489628 ) );
#389 = CARTESIAN_POINT( '', ( 0.510496360619597, -0.899999999999993, -3.63418126185596 ) );
#390 = CARTESIAN_POINT( '', ( 0.767000000000001, -0.899999999999993, -3.89743505398102 ) );
#391 = COLOUR_RGB( '', 0.689999997600000, 0.689999997600000, 0.689999997600000 );
#392 = CARTESIAN_POINT( '', ( 59.0079778228192, 3.00000000000000, 0.000000000000000 ) );
#393 = AXIS2_PLACEMENT_3D( '', #446, #447, #448 );
#394 = CARTESIAN_POINT( '', ( 57.0000000000000, 3.00000000000000, 0.000000000000000 ) );
#395 = AXIS2_PLACEMENT_3D( '', #449, #450, #451 );
#396 = COLOUR_RGB( '', 0.689999997600000, 0.689999997600000, 0.689999997600000 );
#397 = CARTESIAN_POINT( '', ( 57.0000000000000, 2.70000000000000, 0.000000000000000 ) );
#398 = AXIS2_PLACEMENT_3D( '', #452, #453, #454 );
#399 = CARTESIAN_POINT( '', ( 53.2217250000000, 2.70000000000000, 0.000000000000000 ) );
#400 = AXIS2_PLACEMENT_3D( '', #455, #456, #457 );
#401 = COLOUR_RGB( '', 0.689999997600000, 0.689999997600000, 0.689999997600000 );
#402 = CARTESIAN_POINT( '', ( 52.5000000000000, 4.00000000000000, 0.000000000000000 ) );
#403 = AXIS2_PLACEMENT_3D( '', #458, #459, #460 );
#404 = AXIS2_PLACEMENT_3D( '', #461, #462, #463 );
#405 = CARTESIAN_POINT( '', ( 3.00000000000000, 0.900000000000007, -3.89743505398101 ) );
#406 = AXIS2_PLACEMENT_3D( '', #464, #465, #466 );
#407 = CARTESIAN_POINT( '', ( 0.767000000000004, 0.900000000000011, -3.89743505398101 ) );
#408 = CARTESIAN_POINT( '', ( 60.0000000000000, 0.900000000000007, -3.89743505398101 ) );
#409 = VECTOR( '', #467, 1000.00000000000 );
#410 = CARTESIAN_POINT( '', ( 0.767000000000004, 0.900000000000011, 3.89743505398101 ) );
#411 = AXIS2_PLACEMENT_3D( '', #468, #469, #470 );
#412 = CARTESIAN_POINT( '', ( 3.00000000000000, 0.900000000000007, 3.89743505398101 ) );
#413 = CARTESIAN_POINT( '', ( 60.0000000000000, 0.900000000000007, 3.89743505398101 ) );
#414 = VECTOR( '', #471, 1000.00000000000 );
#415 = AXIS2_PLACEMENT_3D( '', #472, #473, #474 );
#416 = COLOUR_RGB( '', 0.689999997600000, 0.689999997600000, 0.689999997600000 );
#417 = CARTESIAN_POINT( '', ( 0.000000000000000, 0.900000000000007, 3.10520353600211 ) );
#418 = CARTESIAN_POINT( '', ( 6.05051833877497E-16, 0.900000000000007, 3.10520353600211 ) );
#419 = CARTESIAN_POINT( '', ( 0.254623855499881, 0.900000000000007, 3.37030658489628 ) );
#420 = CARTESIAN_POINT( '', ( 0.510496360619596, 0.900000000000007, 3.63418126185596 ) );
#421 = CARTESIAN_POINT( '', ( 0.766999999999999, 0.900000000000007, 3.89743505398102 ) );
#422 = CARTESIAN_POINT( '', ( 0.000000000000000, 0.900000000000007, -3.10520353600211 ) );
#423 = CARTESIAN_POINT( '', ( 0.000000000000000, 0.900000000000007, 10.5000000000000 ) );
#424 = VECTOR( '', #475, 1000.00000000000 );
#425 = CARTESIAN_POINT( '', ( 0.766999999999999, 0.900000000000007, -3.89743505398102 ) );
#426 = CARTESIAN_POINT( '', ( 0.510490421567082, 0.900000000000007, -3.63417516651127 ) );
#427 = CARTESIAN_POINT( '', ( 0.254616510453989, 0.900000000000007, -3.37029893756074 ) );
#428 = CARTESIAN_POINT( '', ( 3.97124697309625E-16, 0.900000000000007, -3.10520353600211 ) );
#429 = CARTESIAN_POINT( '', ( 3.00000000000000, 0.900000000000007, 10.5000000000000 ) );
#430 = VECTOR( '', #476, 1000.00000000000 );
#431 = COLOUR_RGB( '', 0.689999997600000, 0.689999997600000, 0.689999997600000 );
#432 = COLOUR_RGB( '', 0.689999997600000, 0.689999997600000, 0.689999997600000 );
#433 = COLOUR_RGB( '', 0.689999997600000, 0.689999997600000, 0.689999997600000 );
#434 = COLOUR_RGB( '', 0.689999997600000, 0.689999997600000, 0.689999997600000 );
#435 = COLOUR_RGB( '', 0.689999997600000, 0.689999997600000, 0.689999997600000 );
#436 = AXIS2_PLACEMENT_3D( '', #477, #478, #479 );
#437 = COLOUR_RGB( '', 0.689999997600000, 0.689999997600000, 0.689999997600000 );
#438 = COLOUR_RGB( '', 0.689999997600000, 0.689999997600000, 0.689999997600000 );
#439 = CARTESIAN_POINT( '', ( 0.000000000000000, 7.22665407624256E-15, 0.000000000000000 ) );
#440 = DIRECTION( '', ( 1.00000000000000, -6.12323399573677E-17, -0.000000000000000 ) );
#441 = DIRECTION( '', ( 6.12323399573677E-17, 1.00000000000000, 0.000000000000000 ) );
#442 = DIRECTION( '', ( 0.000000000000000, 0.000000000000000, 1.00000000000000 ) );
#443 = DIRECTION( '', ( 1.00000000000000, -6.12323399573677E-17, -0.000000000000000 ) );
#444 = DIRECTION( '', ( 0.000000000000000, 0.000000000000000, 1.00000000000000 ) );
#445 = DIRECTION( '', ( 1.00000000000000, -6.12323399573677E-17, -0.000000000000000 ) );
#446 = CARTESIAN_POINT( '', ( 59.0079778228192, 3.61345751799888E-15, 0.000000000000000 ) );
#447 = DIRECTION( '', ( 1.00000000000000, -6.12323399573677E-17, -0.000000000000000 ) );
#448 = DIRECTION( '', ( 6.12323399573677E-17, 1.00000000000000, 0.000000000000000 ) );
#449 = CARTESIAN_POINT( '', ( 57.0000000000000, 3.73641069867260E-15, 0.000000000000000 ) );
#450 = DIRECTION( '', ( 1.00000000000000, -6.12323399573677E-17, -0.000000000000000 ) );
#451 = DIRECTION( '', ( 6.12323399573677E-17, 1.00000000000000, 0.000000000000000 ) );
#452 = CARTESIAN_POINT( '', ( 57.0000000000000, 3.73641069867260E-15, 0.000000000000000 ) );
#453 = DIRECTION( '', ( 1.00000000000000, -6.12323399573676E-17, -0.000000000000000 ) );
#454 = DIRECTION( '', ( 6.12323399573677E-17, 1.00000000000000, 0.000000000000000 ) );
#455 = CARTESIAN_POINT( '', ( 53.2217250000000, 3.96776331792503E-15, 0.000000000000000 ) );
#456 = DIRECTION( '', ( 1.00000000000000, -6.12323399573676E-17, -0.000000000000000 ) );
#457 = DIRECTION( '', ( 6.12323399573677E-17, 1.00000000000000, 0.000000000000000 ) );
#458 = CARTESIAN_POINT( '', ( 52.5000000000000, 4.01195622848076E-15, 0.000000000000000 ) );
#459 = DIRECTION( '', ( 1.00000000000000, -6.12323399573677E-17, -0.000000000000000 ) );
#460 = DIRECTION( '', ( 6.12323399573677E-17, 1.00000000000000, 0.000000000000000 ) );
#461 = CARTESIAN_POINT( '', ( 0.766999999999997, 7.17968887149526E-15, 0.000000000000000 ) );
#462 = DIRECTION( '', ( 1.00000000000000, -6.12323399573677E-17, -0.000000000000000 ) );
#463 = DIRECTION( '', ( 6.12323399573677E-17, 1.00000000000000, 0.000000000000000 ) );
#464 = CARTESIAN_POINT( '', ( 3.00000000000000, 7.04295705637046E-15, 0.000000000000000 ) );
#465 = DIRECTION( '', ( -1.00000000000000, 0.000000000000000, 0.000000000000000 ) );
#466 = DIRECTION( '', ( 0.000000000000000, 0.000000000000000, 1.00000000000000 ) );
#467 = DIRECTION( '', ( 1.00000000000000, -6.12323399573677E-17, -0.000000000000000 ) );
#468 = CARTESIAN_POINT( '', ( 0.766999999999997, 7.17968887149526E-15, 0.000000000000000 ) );
#469 = DIRECTION( '', ( 1.00000000000000, -6.12323399573677E-17, -0.000000000000000 ) );
#470 = DIRECTION( '', ( 6.12323399573677E-17, 1.00000000000000, 0.000000000000000 ) );
#471 = DIRECTION( '', ( 1.00000000000000, -6.12323399573677E-17, -0.000000000000000 ) );
#472 = CARTESIAN_POINT( '', ( 3.00000000000000, 7.04295705637046E-15, 0.000000000000000 ) );
#473 = DIRECTION( '', ( -1.00000000000000, 0.000000000000000, 0.000000000000000 ) );
#474 = DIRECTION( '', ( 0.000000000000000, 0.000000000000000, 1.00000000000000 ) );
#475 = DIRECTION( '', ( 0.000000000000000, 0.000000000000000, -1.00000000000000 ) );
#476 = DIRECTION( '', ( 0.000000000000000, 0.000000000000000, -1.00000000000000 ) );
#477 = CARTESIAN_POINT( '', ( 0.000000000000000, 7.22665407624256E-15, 0.000000000000000 ) );
#478 = DIRECTION( '', ( 1.00000000000000, -6.12323399573677E-17, -0.000000000000000 ) );
#479 = DIRECTION( '', ( 6.12323399573677E-17, 1.00000000000000, 0.000000000000000 ) );
ENDSEC;
END-ISO-10303-21;
