ISO-10303-21;
HEADER;
FILE_DESCRIPTION( ( 'STEP AP214' ), '1' );
FILE_NAME( '//goodhand-server/Shared Folders/GoodHand Data/Kipp CAD/K1129/K1129.102015.stp', '2020-12-10T10:16:00', ( '' ), ( '' ), ' ', 'PARTsolutions', ' ' );
FILE_SCHEMA( ( 'AUTOMOTIVE_DESIGN { 1 0 10303 214 1 1 1 1 }' ) );
ENDSEC;
DATA;
#1 = MECHANICAL_DESIGN_GEOMETRIC_PRESENTATION_REPRESENTATION( ' ', ( #10, #11, #12, #13, #14, #15, #16, #17, #18, #19, #20, #21 ), #6 );
#2 = PRODUCT_DEFINITION_CONTEXT( '', #22, 'design' );
#3 = APPLICATION_PROTOCOL_DEFINITION( 'international standard', 'automotive_design', 2001, #22 );
#4 = PRODUCT_CATEGORY_RELATIONSHIP( 'NONE', 'NONE', #23, #24 );
#5 = SHAPE_DEFINITION_REPRESENTATION( #25, #26 );
#6 =  ( GEOMETRIC_REPRESENTATION_CONTEXT( 3 )GLOBAL_UNCERTAINTY_ASSIGNED_CONTEXT( ( #29 ) )GLOBAL_UNIT_ASSIGNED_CONTEXT( ( #31, #32, #33 ) )REPRESENTATION_CONTEXT( 'NONE', 'WORKSPACE' ) );
#10 = STYLED_ITEM( '', ( #35 ), #36 );
#11 = STYLED_ITEM( '', ( #37 ), #38 );
#12 = STYLED_ITEM( '', ( #39 ), #40 );
#13 = STYLED_ITEM( '', ( #41 ), #42 );
#14 = STYLED_ITEM( '', ( #43 ), #44 );
#15 = STYLED_ITEM( '', ( #45 ), #46 );
#16 = STYLED_ITEM( '', ( #47 ), #48 );
#17 = STYLED_ITEM( '', ( #49 ), #50 );
#18 = STYLED_ITEM( '', ( #51 ), #52 );
#19 = STYLED_ITEM( '', ( #53 ), #54 );
#20 = STYLED_ITEM( '', ( #55 ), #56 );
#21 = STYLED_ITEM( '', ( #57 ), #58 );
#22 = APPLICATION_CONTEXT( 'core data for automotive mechanical design processes' );
#23 = PRODUCT_CATEGORY( 'part', 'NONE' );
#24 = PRODUCT_RELATED_PRODUCT_CATEGORY( 'detail', ' ', ( #59 ) );
#25 = PRODUCT_DEFINITION_SHAPE( 'NONE', 'NONE', #60 );
#26 = ADVANCED_BREP_SHAPE_REPRESENTATION( '_K1129.102015', ( #61, #62 ), #6 );
#29 = UNCERTAINTY_MEASURE_WITH_UNIT( LENGTH_MEASURE( 0.00100000000000000 ), #31, '', '' );
#31 =  ( CONVERSION_BASED_UNIT( 'MILLIMETRE', #65 )LENGTH_UNIT(  )NAMED_UNIT( #68 ) );
#32 =  ( NAMED_UNIT( #70 )PLANE_ANGLE_UNIT(  )SI_UNIT( $, .RADIAN. ) );
#33 =  ( NAMED_UNIT( #70 )SI_UNIT( $, .STERADIAN. )SOLID_ANGLE_UNIT(  ) );
#35 = PRESENTATION_STYLE_ASSIGNMENT( ( #76 ) );
#36 = ADVANCED_FACE( '', ( #77, #78 ), #79, .T. );
#37 = PRESENTATION_STYLE_ASSIGNMENT( ( #80 ) );
#38 = ADVANCED_FACE( '', ( #81 ), #82, .T. );
#39 = PRESENTATION_STYLE_ASSIGNMENT( ( #83 ) );
#40 = ADVANCED_FACE( '', ( #84 ), #85, .F. );
#41 = PRESENTATION_STYLE_ASSIGNMENT( ( #86 ) );
#42 = ADVANCED_FACE( '', ( #87 ), #88, .T. );
#43 = PRESENTATION_STYLE_ASSIGNMENT( ( #89 ) );
#44 = ADVANCED_FACE( '', ( #90, #91 ), #92, .F. );
#45 = PRESENTATION_STYLE_ASSIGNMENT( ( #93 ) );
#46 = ADVANCED_FACE( '', ( #94, #95 ), #96, .T. );
#47 = PRESENTATION_STYLE_ASSIGNMENT( ( #97 ) );
#48 = ADVANCED_FACE( '', ( #98 ), #99, .T. );
#49 = PRESENTATION_STYLE_ASSIGNMENT( ( #100 ) );
#50 = ADVANCED_FACE( '', ( #101, #102 ), #103, .T. );
#51 = PRESENTATION_STYLE_ASSIGNMENT( ( #104 ) );
#52 = ADVANCED_FACE( '', ( #105 ), #106, .T. );
#53 = PRESENTATION_STYLE_ASSIGNMENT( ( #107 ) );
#54 = ADVANCED_FACE( '', ( #108 ), #109, .T. );
#55 = PRESENTATION_STYLE_ASSIGNMENT( ( #110 ) );
#56 = ADVANCED_FACE( '', ( #111 ), #112, .T. );
#57 = PRESENTATION_STYLE_ASSIGNMENT( ( #113 ) );
#58 = ADVANCED_FACE( '', ( #114 ), #115, .F. );
#59 = PRODUCT( '_K1129.102015', '_K1129.102015', 'PART-_K1129.102015-DESC', ( #116 ) );
#60 = PRODUCT_DEFINITION( 'NONE', 'NONE', #117, #2 );
#61 = MANIFOLD_SOLID_BREP( '_K1129.102015', #118 );
#62 = AXIS2_PLACEMENT_3D( '', #119, #120, #121 );
#65 = LENGTH_MEASURE_WITH_UNIT( LENGTH_MEASURE( 1.00000000000000 ), #122 );
#68 = DIMENSIONAL_EXPONENTS( 1.00000000000000, 0.000000000000000, 0.000000000000000, 0.000000000000000, 0.000000000000000, 0.000000000000000, 0.000000000000000 );
#70 = DIMENSIONAL_EXPONENTS( 0.000000000000000, 0.000000000000000, 0.000000000000000, 0.000000000000000, 0.000000000000000, 0.000000000000000, 0.000000000000000 );
#76 = SURFACE_STYLE_USAGE( .BOTH., #123 );
#77 = FACE_BOUND( '', #124, .T. );
#78 = FACE_OUTER_BOUND( '', #125, .T. );
#79 = CONICAL_SURFACE( '', #126, 10.1414259507000, 0.0314159265000000 );
#80 = SURFACE_STYLE_USAGE( .BOTH., #127 );
#81 = FACE_OUTER_BOUND( '', #128, .T. );
#82 = PLANE( '', #129 );
#83 = SURFACE_STYLE_USAGE( .BOTH., #130 );
#84 = FACE_OUTER_BOUND( '', #131, .T. );
#85 = PLANE( '', #132 );
#86 = SURFACE_STYLE_USAGE( .BOTH., #133 );
#87 = FACE_OUTER_BOUND( '', #134, .T. );
#88 = PLANE( '', #135 );
#89 = SURFACE_STYLE_USAGE( .BOTH., #136 );
#90 = FACE_OUTER_BOUND( '', #137, .T. );
#91 = FACE_BOUND( '', #138, .T. );
#92 = PLANE( '', #139 );
#93 = SURFACE_STYLE_USAGE( .BOTH., #140 );
#94 = FACE_OUTER_BOUND( '', #141, .T. );
#95 = FACE_BOUND( '', #142, .T. );
#96 = CONICAL_SURFACE( '', #143, 9.65713133020000, 0.769690200100000 );
#97 = SURFACE_STYLE_USAGE( .BOTH., #144 );
#98 = FACE_OUTER_BOUND( '', #145, .T. );
#99 = PLANE( '', #146 );
#100 = SURFACE_STYLE_USAGE( .BOTH., #147 );
#101 = FACE_BOUND( '', #148, .T. );
#102 = FACE_OUTER_BOUND( '', #149, .T. );
#103 = CONICAL_SURFACE( '', #150, 9.85857404930000, 0.801106126700000 );
#104 = SURFACE_STYLE_USAGE( .BOTH., #151 );
#105 = FACE_OUTER_BOUND( '', #152, .T. );
#106 = PLANE( '', #153 );
#107 = SURFACE_STYLE_USAGE( .BOTH., #154 );
#108 = FACE_OUTER_BOUND( '', #155, .T. );
#109 = PLANE( '', #156 );
#110 = SURFACE_STYLE_USAGE( .BOTH., #157 );
#111 = FACE_OUTER_BOUND( '', #158, .T. );
#112 = PLANE( '', #159 );
#113 = SURFACE_STYLE_USAGE( .BOTH., #160 );
#114 = FACE_OUTER_BOUND( '', #161, .T. );
#115 = PLANE( '', #162 );
#116 = PRODUCT_CONTEXT( '', #22, 'mechanical' );
#117 = PRODUCT_DEFINITION_FORMATION_WITH_SPECIFIED_SOURCE( ' ', 'NONE', #59, .NOT_KNOWN. );
#118 = CLOSED_SHELL( '', ( #46, #44, #48, #38, #42, #40, #50, #36, #52, #54, #56, #58 ) );
#119 = CARTESIAN_POINT( '', ( 0.000000000000000, 0.000000000000000, 0.000000000000000 ) );
#120 = DIRECTION( '', ( 0.000000000000000, 0.000000000000000, 1.00000000000000 ) );
#121 = DIRECTION( '', ( 1.00000000000000, 0.000000000000000, 0.000000000000000 ) );
#122 =  ( LENGTH_UNIT(  )NAMED_UNIT( #68 )SI_UNIT( .MILLI., .METRE. ) );
#123 = SURFACE_SIDE_STYLE( '', ( #164 ) );
#124 = EDGE_LOOP( '', ( #165 ) );
#125 = EDGE_LOOP( '', ( #166 ) );
#126 = AXIS2_PLACEMENT_3D( '', #167, #168, #169 );
#127 = SURFACE_SIDE_STYLE( '', ( #170 ) );
#128 = EDGE_LOOP( '', ( #171, #172, #173, #174 ) );
#129 = AXIS2_PLACEMENT_3D( '', #175, #176, #177 );
#130 = SURFACE_SIDE_STYLE( '', ( #178 ) );
#131 = EDGE_LOOP( '', ( #179 ) );
#132 = AXIS2_PLACEMENT_3D( '', #180, #181, #182 );
#133 = SURFACE_SIDE_STYLE( '', ( #183 ) );
#134 = EDGE_LOOP( '', ( #184, #185, #186, #187 ) );
#135 = AXIS2_PLACEMENT_3D( '', #188, #189, #190 );
#136 = SURFACE_SIDE_STYLE( '', ( #191 ) );
#137 = EDGE_LOOP( '', ( #192 ) );
#138 = EDGE_LOOP( '', ( #193, #194, #195, #196, #197, #198 ) );
#139 = AXIS2_PLACEMENT_3D( '', #199, #200, #201 );
#140 = SURFACE_SIDE_STYLE( '', ( #202 ) );
#141 = EDGE_LOOP( '', ( #203 ) );
#142 = EDGE_LOOP( '', ( #204 ) );
#143 = AXIS2_PLACEMENT_3D( '', #205, #206, #207 );
#144 = SURFACE_SIDE_STYLE( '', ( #208 ) );
#145 = EDGE_LOOP( '', ( #209, #210, #211, #212 ) );
#146 = AXIS2_PLACEMENT_3D( '', #213, #214, #215 );
#147 = SURFACE_SIDE_STYLE( '', ( #216 ) );
#148 = EDGE_LOOP( '', ( #217 ) );
#149 = EDGE_LOOP( '', ( #218 ) );
#150 = AXIS2_PLACEMENT_3D( '', #219, #220, #221 );
#151 = SURFACE_SIDE_STYLE( '', ( #222 ) );
#152 = EDGE_LOOP( '', ( #223, #224, #225, #226 ) );
#153 = AXIS2_PLACEMENT_3D( '', #227, #228, #229 );
#154 = SURFACE_SIDE_STYLE( '', ( #230 ) );
#155 = EDGE_LOOP( '', ( #231, #232, #233, #234 ) );
#156 = AXIS2_PLACEMENT_3D( '', #235, #236, #237 );
#157 = SURFACE_SIDE_STYLE( '', ( #238 ) );
#158 = EDGE_LOOP( '', ( #239, #240, #241, #242 ) );
#159 = AXIS2_PLACEMENT_3D( '', #243, #244, #245 );
#160 = SURFACE_SIDE_STYLE( '', ( #246 ) );
#161 = EDGE_LOOP( '', ( #247, #248, #249, #250, #251, #252 ) );
#162 = AXIS2_PLACEMENT_3D( '', #253, #254, #255 );
#164 = SURFACE_STYLE_FILL_AREA( #256 );
#165 = ORIENTED_EDGE( '', *, *, #257, .F. );
#166 = ORIENTED_EDGE( '', *, *, #258, .T. );
#167 = CARTESIAN_POINT( '', ( 0.499753280182865, 0.000000000000000, 0.000000000000000 ) );
#168 = DIRECTION( '', ( -1.00000000000000, 0.000000000000000, -0.000000000000000 ) );
#169 = DIRECTION( '', ( 0.000000000000000, 0.000000000000000, 1.00000000000000 ) );
#170 = SURFACE_STYLE_FILL_AREA( #259 );
#171 = ORIENTED_EDGE( '', *, *, #260, .F. );
#172 = ORIENTED_EDGE( '', *, *, #261, .F. );
#173 = ORIENTED_EDGE( '', *, *, #262, .T. );
#174 = ORIENTED_EDGE( '', *, *, #263, .T. );
#175 = CARTESIAN_POINT( '', ( 5.00000000000000, -5.77350269189626, 0.000000000000000 ) );
#176 = DIRECTION( '', ( -0.000000000000000, 0.866025403784439, 0.500000000000000 ) );
#177 = DIRECTION( '', ( 0.000000000000000, -0.500000000000000, 0.866025403784439 ) );
#178 = SURFACE_STYLE_FILL_AREA( #264 );
#179 = ORIENTED_EDGE( '', *, *, #265, .T. );
#180 = CARTESIAN_POINT( '', ( 10.0000000000000, 9.34286866978324, 0.000000000000000 ) );
#181 = DIRECTION( '', ( -1.00000000000000, 0.000000000000000, 0.000000000000000 ) );
#182 = DIRECTION( '', ( 0.000000000000000, 0.000000000000000, 1.00000000000000 ) );
#183 = SURFACE_STYLE_FILL_AREA( #266 );
#184 = ORIENTED_EDGE( '', *, *, #267, .F. );
#185 = ORIENTED_EDGE( '', *, *, #268, .F. );
#186 = ORIENTED_EDGE( '', *, *, #269, .T. );
#187 = ORIENTED_EDGE( '', *, *, #270, .T. );
#188 = CARTESIAN_POINT( '', ( 5.00000000000000, 2.88675134594813, 5.00000000000000 ) );
#189 = DIRECTION( '', ( 0.000000000000000, 0.000000000000000, -1.00000000000000 ) );
#190 = DIRECTION( '', ( -1.00000000000000, 0.000000000000000, 0.000000000000000 ) );
#191 = SURFACE_STYLE_FILL_AREA( #271 );
#192 = ORIENTED_EDGE( '', *, *, #272, .F. );
#193 = ORIENTED_EDGE( '', *, *, #267, .T. );
#194 = ORIENTED_EDGE( '', *, *, #273, .T. );
#195 = ORIENTED_EDGE( '', *, *, #260, .T. );
#196 = ORIENTED_EDGE( '', *, *, #274, .T. );
#197 = ORIENTED_EDGE( '', *, *, #275, .T. );
#198 = ORIENTED_EDGE( '', *, *, #276, .T. );
#199 = CARTESIAN_POINT( '', ( 0.000000000000000, 0.000000000000000, 0.000000000000000 ) );
#200 = DIRECTION( '', ( 1.00000000000000, 0.000000000000000, -0.000000000000000 ) );
#201 = DIRECTION( '', ( -0.000000000000000, 0.000000000000000, -1.00000000000000 ) );
#202 = SURFACE_STYLE_FILL_AREA( #277 );
#203 = ORIENTED_EDGE( '', *, *, #258, .F. );
#204 = ORIENTED_EDGE( '', *, *, #272, .T. );
#205 = CARTESIAN_POINT( '', ( 0.000000000000000, 0.000000000000000, 0.000000000000000 ) );
#206 = DIRECTION( '', ( 1.00000000000000, -0.000000000000000, -0.000000000000000 ) );
#207 = DIRECTION( '', ( -0.000000000000000, 0.000000000000000, -1.00000000000000 ) );
#208 = SURFACE_STYLE_FILL_AREA( #278 );
#209 = ORIENTED_EDGE( '', *, *, #273, .F. );
#210 = ORIENTED_EDGE( '', *, *, #270, .F. );
#211 = ORIENTED_EDGE( '', *, *, #279, .T. );
#212 = ORIENTED_EDGE( '', *, *, #261, .T. );
#213 = CARTESIAN_POINT( '', ( 5.00000000000000, -2.88675134594813, 5.00000000000000 ) );
#214 = DIRECTION( '', ( 0.000000000000000, 0.866025403784439, -0.500000000000000 ) );
#215 = DIRECTION( '', ( 0.000000000000000, 0.500000000000000, 0.866025403784439 ) );
#216 = SURFACE_STYLE_FILL_AREA( #280 );
#217 = ORIENTED_EDGE( '', *, *, #265, .F. );
#218 = ORIENTED_EDGE( '', *, *, #257, .T. );
#219 = CARTESIAN_POINT( '', ( 9.50024671981713, 0.000000000000000, 0.000000000000000 ) );
#220 = DIRECTION( '', ( -1.00000000000000, 0.000000000000000, -0.000000000000000 ) );
#221 = DIRECTION( '', ( 0.000000000000000, 0.000000000000000, 1.00000000000000 ) );
#222 = SURFACE_STYLE_FILL_AREA( #281 );
#223 = ORIENTED_EDGE( '', *, *, #274, .F. );
#224 = ORIENTED_EDGE( '', *, *, #263, .F. );
#225 = ORIENTED_EDGE( '', *, *, #282, .T. );
#226 = ORIENTED_EDGE( '', *, *, #283, .T. );
#227 = CARTESIAN_POINT( '', ( 5.00000000000000, -2.88675134594813, -5.00000000000000 ) );
#228 = DIRECTION( '', ( 0.000000000000000, 0.000000000000000, 1.00000000000000 ) );
#229 = DIRECTION( '', ( 1.00000000000000, 0.000000000000000, -0.000000000000000 ) );
#230 = SURFACE_STYLE_FILL_AREA( #284 );
#231 = ORIENTED_EDGE( '', *, *, #275, .F. );
#232 = ORIENTED_EDGE( '', *, *, #283, .F. );
#233 = ORIENTED_EDGE( '', *, *, #285, .T. );
#234 = ORIENTED_EDGE( '', *, *, #286, .T. );
#235 = CARTESIAN_POINT( '', ( 5.00000000000000, 2.88675134594813, -5.00000000000000 ) );
#236 = DIRECTION( '', ( 0.000000000000000, -0.866025403784439, 0.500000000000000 ) );
#237 = DIRECTION( '', ( 0.000000000000000, -0.500000000000000, -0.866025403784439 ) );
#238 = SURFACE_STYLE_FILL_AREA( #287 );
#239 = ORIENTED_EDGE( '', *, *, #276, .F. );
#240 = ORIENTED_EDGE( '', *, *, #286, .F. );
#241 = ORIENTED_EDGE( '', *, *, #288, .T. );
#242 = ORIENTED_EDGE( '', *, *, #268, .T. );
#243 = CARTESIAN_POINT( '', ( 5.00000000000000, 5.77350269189626, 0.000000000000000 ) );
#244 = DIRECTION( '', ( 0.000000000000000, -0.866025403784439, -0.500000000000000 ) );
#245 = DIRECTION( '', ( 0.000000000000000, 0.500000000000000, -0.866025403784439 ) );
#246 = SURFACE_STYLE_FILL_AREA( #289 );
#247 = ORIENTED_EDGE( '', *, *, #269, .F. );
#248 = ORIENTED_EDGE( '', *, *, #288, .F. );
#249 = ORIENTED_EDGE( '', *, *, #285, .F. );
#250 = ORIENTED_EDGE( '', *, *, #282, .F. );
#251 = ORIENTED_EDGE( '', *, *, #262, .F. );
#252 = ORIENTED_EDGE( '', *, *, #279, .F. );
#253 = CARTESIAN_POINT( '', ( 5.00000000000000, 0.000000000000000, 0.000000000000000 ) );
#254 = DIRECTION( '', ( 1.00000000000000, 0.000000000000000, 0.000000000000000 ) );
#255 = DIRECTION( '', ( 0.000000000000000, 0.000000000000000, -1.00000000000000 ) );
#256 = FILL_AREA_STYLE( '', ( #290 ) );
#257 = EDGE_CURVE( '', #291, #291, #292, .T. );
#258 = EDGE_CURVE( '', #293, #293, #294, .T. );
#259 = FILL_AREA_STYLE( '', ( #295 ) );
#260 = EDGE_CURVE( '', #296, #297, #298, .T. );
#261 = EDGE_CURVE( '', #299, #296, #300, .T. );
#262 = EDGE_CURVE( '', #299, #301, #302, .T. );
#263 = EDGE_CURVE( '', #301, #297, #303, .T. );
#264 = FILL_AREA_STYLE( '', ( #304 ) );
#265 = EDGE_CURVE( '', #305, #305, #306, .T. );
#266 = FILL_AREA_STYLE( '', ( #307 ) );
#267 = EDGE_CURVE( '', #308, #309, #310, .T. );
#268 = EDGE_CURVE( '', #311, #308, #312, .T. );
#269 = EDGE_CURVE( '', #311, #313, #314, .T. );
#270 = EDGE_CURVE( '', #313, #309, #315, .T. );
#271 = FILL_AREA_STYLE( '', ( #316 ) );
#272 = EDGE_CURVE( '', #317, #317, #318, .T. );
#273 = EDGE_CURVE( '', #309, #296, #319, .T. );
#274 = EDGE_CURVE( '', #297, #320, #321, .T. );
#275 = EDGE_CURVE( '', #320, #322, #323, .T. );
#276 = EDGE_CURVE( '', #322, #308, #324, .T. );
#277 = FILL_AREA_STYLE( '', ( #325 ) );
#278 = FILL_AREA_STYLE( '', ( #326 ) );
#279 = EDGE_CURVE( '', #313, #299, #327, .T. );
#280 = FILL_AREA_STYLE( '', ( #328 ) );
#281 = FILL_AREA_STYLE( '', ( #329 ) );
#282 = EDGE_CURVE( '', #301, #330, #331, .T. );
#283 = EDGE_CURVE( '', #330, #320, #332, .T. );
#284 = FILL_AREA_STYLE( '', ( #333 ) );
#285 = EDGE_CURVE( '', #330, #334, #335, .T. );
#286 = EDGE_CURVE( '', #334, #322, #336, .T. );
#287 = FILL_AREA_STYLE( '', ( #337 ) );
#288 = EDGE_CURVE( '', #334, #311, #338, .T. );
#289 = FILL_AREA_STYLE( '', ( #339 ) );
#290 = FILL_AREA_STYLE_COLOUR( '', #340 );
#291 = VERTEX_POINT( '', #341 );
#292 = CIRCLE( '', #342, 9.85857404930000 );
#293 = VERTEX_POINT( '', #343 );
#294 = CIRCLE( '', #344, 10.1414259507000 );
#295 = FILL_AREA_STYLE_COLOUR( '', #345 );
#296 = VERTEX_POINT( '', #346 );
#297 = VERTEX_POINT( '', #347 );
#298 = LINE( '', #348, #349 );
#299 = VERTEX_POINT( '', #350 );
#300 = LINE( '', #351, #352 );
#301 = VERTEX_POINT( '', #353 );
#302 = LINE( '', #354, #355 );
#303 = LINE( '', #356, #357 );
#304 = FILL_AREA_STYLE_COLOUR( '', #358 );
#305 = VERTEX_POINT( '', #359 );
#306 = CIRCLE( '', #360, 9.34286866980000 );
#307 = FILL_AREA_STYLE_COLOUR( '', #361 );
#308 = VERTEX_POINT( '', #362 );
#309 = VERTEX_POINT( '', #363 );
#310 = LINE( '', #364, #365 );
#311 = VERTEX_POINT( '', #366 );
#312 = LINE( '', #367, #368 );
#313 = VERTEX_POINT( '', #369 );
#314 = LINE( '', #370, #371 );
#315 = LINE( '', #372, #373 );
#316 = FILL_AREA_STYLE_COLOUR( '', #374 );
#317 = VERTEX_POINT( '', #375 );
#318 = CIRCLE( '', #376, 9.65713133020000 );
#319 = LINE( '', #377, #378 );
#320 = VERTEX_POINT( '', #379 );
#321 = LINE( '', #380, #381 );
#322 = VERTEX_POINT( '', #382 );
#323 = LINE( '', #383, #384 );
#324 = LINE( '', #385, #386 );
#325 = FILL_AREA_STYLE_COLOUR( '', #387 );
#326 = FILL_AREA_STYLE_COLOUR( '', #388 );
#327 = LINE( '', #389, #390 );
#328 = FILL_AREA_STYLE_COLOUR( '', #391 );
#329 = FILL_AREA_STYLE_COLOUR( '', #392 );
#330 = VERTEX_POINT( '', #393 );
#331 = LINE( '', #394, #395 );
#332 = LINE( '', #396, #397 );
#333 = FILL_AREA_STYLE_COLOUR( '', #398 );
#334 = VERTEX_POINT( '', #399 );
#335 = LINE( '', #400, #401 );
#336 = LINE( '', #402, #403 );
#337 = FILL_AREA_STYLE_COLOUR( '', #404 );
#338 = LINE( '', #405, #406 );
#339 = FILL_AREA_STYLE_COLOUR( '', #407 );
#340 = COLOUR_RGB( '', 0.689999997600000, 0.689999997600000, 0.689999997600000 );
#341 = CARTESIAN_POINT( '', ( 9.50024671981713, 0.000000000000000, -9.85857404932231 ) );
#342 = AXIS2_PLACEMENT_3D( '', #408, #409, #410 );
#343 = CARTESIAN_POINT( '', ( 0.499753280182865, 0.000000000000000, -10.1414259506777 ) );
#344 = AXIS2_PLACEMENT_3D( '', #411, #412, #413 );
#345 = COLOUR_RGB( '', 0.689999997600000, 0.689999997600000, 0.689999997600000 );
#346 = CARTESIAN_POINT( '', ( 0.000000000000000, -5.77350269189626, 0.000000000000000 ) );
#347 = CARTESIAN_POINT( '', ( 0.000000000000000, -2.88675134594813, -5.00000000000000 ) );
#348 = CARTESIAN_POINT( '', ( 0.000000000000000, -5.77350269189626, 0.000000000000000 ) );
#349 = VECTOR( '', #414, 1000.00000000000 );
#350 = CARTESIAN_POINT( '', ( 5.00000000000000, -5.77350269189626, 0.000000000000000 ) );
#351 = CARTESIAN_POINT( '', ( 5.00000000000000, -5.77350269189626, 0.000000000000000 ) );
#352 = VECTOR( '', #415, 1000.00000000000 );
#353 = CARTESIAN_POINT( '', ( 5.00000000000000, -2.88675134594813, -5.00000000000000 ) );
#354 = CARTESIAN_POINT( '', ( 5.00000000000000, -5.77350269189626, 0.000000000000000 ) );
#355 = VECTOR( '', #416, 1000.00000000000 );
#356 = CARTESIAN_POINT( '', ( 5.00000000000000, -2.88675134594813, -5.00000000000000 ) );
#357 = VECTOR( '', #417, 1000.00000000000 );
#358 = COLOUR_RGB( '', 0.689999997600000, 0.689999997600000, 0.689999997600000 );
#359 = CARTESIAN_POINT( '', ( 10.0000000000000, 0.000000000000000, -9.34286866978324 ) );
#360 = AXIS2_PLACEMENT_3D( '', #418, #419, #420 );
#361 = COLOUR_RGB( '', 0.689999997600000, 0.689999997600000, 0.689999997600000 );
#362 = CARTESIAN_POINT( '', ( 0.000000000000000, 2.88675134594813, 5.00000000000000 ) );
#363 = CARTESIAN_POINT( '', ( 0.000000000000000, -2.88675134594813, 5.00000000000000 ) );
#364 = CARTESIAN_POINT( '', ( 0.000000000000000, 2.88675134594813, 5.00000000000000 ) );
#365 = VECTOR( '', #421, 1000.00000000000 );
#366 = CARTESIAN_POINT( '', ( 5.00000000000000, 2.88675134594813, 5.00000000000000 ) );
#367 = CARTESIAN_POINT( '', ( 5.00000000000000, 2.88675134594813, 5.00000000000000 ) );
#368 = VECTOR( '', #422, 1000.00000000000 );
#369 = CARTESIAN_POINT( '', ( 5.00000000000000, -2.88675134594813, 5.00000000000000 ) );
#370 = CARTESIAN_POINT( '', ( 5.00000000000000, 2.88675134594813, 5.00000000000000 ) );
#371 = VECTOR( '', #423, 1000.00000000000 );
#372 = CARTESIAN_POINT( '', ( 5.00000000000000, -2.88675134594813, 5.00000000000000 ) );
#373 = VECTOR( '', #424, 1000.00000000000 );
#374 = COLOUR_RGB( '', 0.689999997600000, 0.689999997600000, 0.689999997600000 );
#375 = CARTESIAN_POINT( '', ( 0.000000000000000, 0.000000000000000, -9.65713133021676 ) );
#376 = AXIS2_PLACEMENT_3D( '', #425, #426, #427 );
#377 = CARTESIAN_POINT( '', ( 0.000000000000000, -2.88675134594813, 5.00000000000000 ) );
#378 = VECTOR( '', #428, 1000.00000000000 );
#379 = CARTESIAN_POINT( '', ( 0.000000000000000, 2.88675134594813, -5.00000000000000 ) );
#380 = CARTESIAN_POINT( '', ( 0.000000000000000, -2.88675134594813, -5.00000000000000 ) );
#381 = VECTOR( '', #429, 1000.00000000000 );
#382 = CARTESIAN_POINT( '', ( 0.000000000000000, 5.77350269189626, 0.000000000000000 ) );
#383 = CARTESIAN_POINT( '', ( 0.000000000000000, 2.88675134594813, -5.00000000000000 ) );
#384 = VECTOR( '', #430, 1000.00000000000 );
#385 = CARTESIAN_POINT( '', ( 0.000000000000000, 5.77350269189626, 0.000000000000000 ) );
#386 = VECTOR( '', #431, 1000.00000000000 );
#387 = COLOUR_RGB( '', 0.689999997600000, 0.689999997600000, 0.689999997600000 );
#388 = COLOUR_RGB( '', 0.689999997600000, 0.689999997600000, 0.689999997600000 );
#389 = CARTESIAN_POINT( '', ( 5.00000000000000, -2.88675134594813, 5.00000000000000 ) );
#390 = VECTOR( '', #432, 1000.00000000000 );
#391 = COLOUR_RGB( '', 0.689999997600000, 0.689999997600000, 0.689999997600000 );
#392 = COLOUR_RGB( '', 0.689999997600000, 0.689999997600000, 0.689999997600000 );
#393 = CARTESIAN_POINT( '', ( 5.00000000000000, 2.88675134594813, -5.00000000000000 ) );
#394 = CARTESIAN_POINT( '', ( 5.00000000000000, -2.88675134594813, -5.00000000000000 ) );
#395 = VECTOR( '', #433, 1000.00000000000 );
#396 = CARTESIAN_POINT( '', ( 5.00000000000000, 2.88675134594813, -5.00000000000000 ) );
#397 = VECTOR( '', #434, 1000.00000000000 );
#398 = COLOUR_RGB( '', 0.689999997600000, 0.689999997600000, 0.689999997600000 );
#399 = CARTESIAN_POINT( '', ( 5.00000000000000, 5.77350269189626, 0.000000000000000 ) );
#400 = CARTESIAN_POINT( '', ( 5.00000000000000, 2.88675134594813, -5.00000000000000 ) );
#401 = VECTOR( '', #435, 1000.00000000000 );
#402 = CARTESIAN_POINT( '', ( 5.00000000000000, 5.77350269189626, 0.000000000000000 ) );
#403 = VECTOR( '', #436, 1000.00000000000 );
#404 = COLOUR_RGB( '', 0.689999997600000, 0.689999997600000, 0.689999997600000 );
#405 = CARTESIAN_POINT( '', ( 5.00000000000000, 5.77350269189626, 0.000000000000000 ) );
#406 = VECTOR( '', #437, 1000.00000000000 );
#407 = COLOUR_RGB( '', 0.689999997600000, 0.689999997600000, 0.689999997600000 );
#408 = CARTESIAN_POINT( '', ( 9.50024671981713, 0.000000000000000, 0.000000000000000 ) );
#409 = DIRECTION( '', ( 1.00000000000000, 0.000000000000000, -0.000000000000000 ) );
#410 = DIRECTION( '', ( -0.000000000000000, 0.000000000000000, -1.00000000000000 ) );
#411 = CARTESIAN_POINT( '', ( 0.499753280182865, 0.000000000000000, 0.000000000000000 ) );
#412 = DIRECTION( '', ( 1.00000000000000, 0.000000000000000, -0.000000000000000 ) );
#413 = DIRECTION( '', ( -0.000000000000000, 0.000000000000000, -1.00000000000000 ) );
#414 = DIRECTION( '', ( 0.000000000000000, 0.500000000000000, -0.866025403784439 ) );
#415 = DIRECTION( '', ( -1.00000000000000, -0.000000000000000, -0.000000000000000 ) );
#416 = DIRECTION( '', ( 0.000000000000000, 0.500000000000000, -0.866025403784439 ) );
#417 = DIRECTION( '', ( -1.00000000000000, -0.000000000000000, -0.000000000000000 ) );
#418 = CARTESIAN_POINT( '', ( 10.0000000000000, 0.000000000000000, 0.000000000000000 ) );
#419 = DIRECTION( '', ( 1.00000000000000, 0.000000000000000, -0.000000000000000 ) );
#420 = DIRECTION( '', ( -0.000000000000000, 0.000000000000000, -1.00000000000000 ) );
#421 = DIRECTION( '', ( 0.000000000000000, -1.00000000000000, 0.000000000000000 ) );
#422 = DIRECTION( '', ( -1.00000000000000, -0.000000000000000, -0.000000000000000 ) );
#423 = DIRECTION( '', ( 0.000000000000000, -1.00000000000000, 0.000000000000000 ) );
#424 = DIRECTION( '', ( -1.00000000000000, -0.000000000000000, -0.000000000000000 ) );
#425 = CARTESIAN_POINT( '', ( 0.000000000000000, 0.000000000000000, 0.000000000000000 ) );
#426 = DIRECTION( '', ( 1.00000000000000, 0.000000000000000, -0.000000000000000 ) );
#427 = DIRECTION( '', ( -0.000000000000000, 0.000000000000000, -1.00000000000000 ) );
#428 = DIRECTION( '', ( 0.000000000000000, -0.500000000000000, -0.866025403784439 ) );
#429 = DIRECTION( '', ( 0.000000000000000, 1.00000000000000, 0.000000000000000 ) );
#430 = DIRECTION( '', ( 0.000000000000000, 0.500000000000000, 0.866025403784439 ) );
#431 = DIRECTION( '', ( 0.000000000000000, -0.500000000000000, 0.866025403784439 ) );
#432 = DIRECTION( '', ( 0.000000000000000, -0.500000000000000, -0.866025403784439 ) );
#433 = DIRECTION( '', ( 0.000000000000000, 1.00000000000000, 0.000000000000000 ) );
#434 = DIRECTION( '', ( -1.00000000000000, -0.000000000000000, -0.000000000000000 ) );
#435 = DIRECTION( '', ( 0.000000000000000, 0.500000000000000, 0.866025403784439 ) );
#436 = DIRECTION( '', ( -1.00000000000000, -0.000000000000000, -0.000000000000000 ) );
#437 = DIRECTION( '', ( 0.000000000000000, -0.500000000000000, 0.866025403784439 ) );
ENDSEC;
END-ISO-10303-21;
