ISO-10303-21;
HEADER;
FILE_DESCRIPTION( ( 'STEP AP214' ), '1' );
FILE_NAME( '//goodhand-server/Shared Folders/GoodHand Data/Kipp CAD/K1153/K1153.241153.stp', '2020-12-10T10:26:21', ( '' ), ( '' ), ' ', 'PARTsolutions', ' ' );
FILE_SCHEMA( ( 'AUTOMOTIVE_DESIGN { 1 0 10303 214 1 1 1 1 }' ) );
ENDSEC;
DATA;
#1 = MECHANICAL_DESIGN_GEOMETRIC_PRESENTATION_REPRESENTATION( ' ', ( #10, #11, #12, #13, #14, #15, #16, #17, #18, #19, #20 ), #6 );
#2 = PRODUCT_DEFINITION_CONTEXT( '', #21, 'design' );
#3 = APPLICATION_PROTOCOL_DEFINITION( 'international standard', 'automotive_design', 2001, #21 );
#4 = PRODUCT_CATEGORY_RELATIONSHIP( 'NONE', 'NONE', #22, #23 );
#5 = SHAPE_DEFINITION_REPRESENTATION( #24, #25 );
#6 =  ( GEOMETRIC_REPRESENTATION_CONTEXT( 3 )GLOBAL_UNCERTAINTY_ASSIGNED_CONTEXT( ( #28 ) )GLOBAL_UNIT_ASSIGNED_CONTEXT( ( #30, #31, #32 ) )REPRESENTATION_CONTEXT( 'NONE', 'WORKSPACE' ) );
#10 = STYLED_ITEM( '', ( #34 ), #35 );
#11 = STYLED_ITEM( '', ( #36 ), #37 );
#12 = STYLED_ITEM( '', ( #38 ), #39 );
#13 = STYLED_ITEM( '', ( #40 ), #41 );
#14 = STYLED_ITEM( '', ( #42 ), #43 );
#15 = STYLED_ITEM( '', ( #44 ), #45 );
#16 = STYLED_ITEM( '', ( #46 ), #47 );
#17 = STYLED_ITEM( '', ( #48 ), #49 );
#18 = STYLED_ITEM( '', ( #50 ), #51 );
#19 = STYLED_ITEM( '', ( #52 ), #53 );
#20 = STYLED_ITEM( '', ( #54 ), #55 );
#21 = APPLICATION_CONTEXT( 'core data for automotive mechanical design processes' );
#22 = PRODUCT_CATEGORY( 'part', 'NONE' );
#23 = PRODUCT_RELATED_PRODUCT_CATEGORY( 'detail', ' ', ( #56 ) );
#24 = PRODUCT_DEFINITION_SHAPE( 'NONE', 'NONE', #57 );
#25 = ADVANCED_BREP_SHAPE_REPRESENTATION( '_K1153.241153', ( #58, #59 ), #6 );
#28 = UNCERTAINTY_MEASURE_WITH_UNIT( LENGTH_MEASURE( 0.00100000000000000 ), #30, '', '' );
#30 =  ( CONVERSION_BASED_UNIT( 'MILLIMETRE', #62 )LENGTH_UNIT(  )NAMED_UNIT( #65 ) );
#31 =  ( NAMED_UNIT( #67 )PLANE_ANGLE_UNIT(  )SI_UNIT( $, .RADIAN. ) );
#32 =  ( NAMED_UNIT( #67 )SI_UNIT( $, .STERADIAN. )SOLID_ANGLE_UNIT(  ) );
#34 = PRESENTATION_STYLE_ASSIGNMENT( ( #73 ) );
#35 = ADVANCED_FACE( '', ( #74, #75 ), #76, .F. );
#36 = PRESENTATION_STYLE_ASSIGNMENT( ( #77 ) );
#37 = ADVANCED_FACE( '', ( #78, #79, #80, #81, #82 ), #83, .F. );
#38 = PRESENTATION_STYLE_ASSIGNMENT( ( #84 ) );
#39 = ADVANCED_FACE( '', ( #85 ), #86, .T. );
#40 = PRESENTATION_STYLE_ASSIGNMENT( ( #87 ) );
#41 = ADVANCED_FACE( '', ( #88, #89 ), #90, .F. );
#42 = PRESENTATION_STYLE_ASSIGNMENT( ( #91 ) );
#43 = ADVANCED_FACE( '', ( #92, #93 ), #94, .T. );
#44 = PRESENTATION_STYLE_ASSIGNMENT( ( #95 ) );
#45 = ADVANCED_FACE( '', ( #96, #97 ), #98, .F. );
#46 = PRESENTATION_STYLE_ASSIGNMENT( ( #99 ) );
#47 = ADVANCED_FACE( '', ( #100, #101 ), #102, .T. );
#48 = PRESENTATION_STYLE_ASSIGNMENT( ( #103 ) );
#49 = ADVANCED_FACE( '', ( #104, #105, #106, #107 ), #108, .F. );
#50 = PRESENTATION_STYLE_ASSIGNMENT( ( #109 ) );
#51 = ADVANCED_FACE( '', ( #110, #111 ), #112, .F. );
#52 = PRESENTATION_STYLE_ASSIGNMENT( ( #113 ) );
#53 = ADVANCED_FACE( '', ( #114, #115 ), #116, .T. );
#54 = PRESENTATION_STYLE_ASSIGNMENT( ( #117 ) );
#55 = ADVANCED_FACE( '', ( #118, #119 ), #120, .T. );
#56 = PRODUCT( '_K1153.241153', '_K1153.241153', 'PART-_K1153.241153-DESC', ( #121 ) );
#57 = PRODUCT_DEFINITION( 'NONE', 'NONE', #122, #2 );
#58 = MANIFOLD_SOLID_BREP( '_K1153.241153', #123 );
#59 = AXIS2_PLACEMENT_3D( '', #124, #125, #126 );
#62 = LENGTH_MEASURE_WITH_UNIT( LENGTH_MEASURE( 1.00000000000000 ), #127 );
#65 = DIMENSIONAL_EXPONENTS( 1.00000000000000, 0.000000000000000, 0.000000000000000, 0.000000000000000, 0.000000000000000, 0.000000000000000, 0.000000000000000 );
#67 = DIMENSIONAL_EXPONENTS( 0.000000000000000, 0.000000000000000, 0.000000000000000, 0.000000000000000, 0.000000000000000, 0.000000000000000, 0.000000000000000 );
#73 = SURFACE_STYLE_USAGE( .BOTH., #128 );
#74 = FACE_OUTER_BOUND( '', #129, .T. );
#75 = FACE_OUTER_BOUND( '', #130, .T. );
#76 = CYLINDRICAL_SURFACE( '', #131, 1.60000000000000 );
#77 = SURFACE_STYLE_USAGE( .BOTH., #132 );
#78 = FACE_OUTER_BOUND( '', #133, .T. );
#79 = FACE_BOUND( '', #134, .T. );
#80 = FACE_BOUND( '', #135, .T. );
#81 = FACE_BOUND( '', #136, .T. );
#82 = FACE_BOUND( '', #137, .T. );
#83 = PLANE( '', #138 );
#84 = SURFACE_STYLE_USAGE( .BOTH., #139 );
#85 = FACE_OUTER_BOUND( '', #140, .T. );
#86 = PLANE( '', #141 );
#87 = SURFACE_STYLE_USAGE( .BOTH., #142 );
#88 = FACE_OUTER_BOUND( '', #143, .T. );
#89 = FACE_OUTER_BOUND( '', #144, .T. );
#90 = CYLINDRICAL_SURFACE( '', #145, 1.60000000000000 );
#91 = SURFACE_STYLE_USAGE( .BOTH., #146 );
#92 = FACE_OUTER_BOUND( '', #147, .T. );
#93 = FACE_OUTER_BOUND( '', #148, .T. );
#94 = CYLINDRICAL_SURFACE( '', #149, 18.0000000000000 );
#95 = SURFACE_STYLE_USAGE( .BOTH., #150 );
#96 = FACE_BOUND( '', #151, .T. );
#97 = FACE_OUTER_BOUND( '', #152, .T. );
#98 = CONICAL_SURFACE( '', #153, 9.39590909090000, 0.331809173800000 );
#99 = SURFACE_STYLE_USAGE( .BOTH., #154 );
#100 = FACE_OUTER_BOUND( '', #155, .T. );
#101 = FACE_OUTER_BOUND( '', #156, .T. );
#102 = TOROIDAL_SURFACE( '', #157, 10.6250000000000, 1.30000000000000 );
#103 = SURFACE_STYLE_USAGE( .BOTH., #158 );
#104 = FACE_BOUND( '', #159, .T. );
#105 = FACE_BOUND( '', #160, .T. );
#106 = FACE_BOUND( '', #161, .T. );
#107 = FACE_OUTER_BOUND( '', #162, .T. );
#108 = PLANE( '', #163 );
#109 = SURFACE_STYLE_USAGE( .BOTH., #164 );
#110 = FACE_OUTER_BOUND( '', #165, .T. );
#111 = FACE_OUTER_BOUND( '', #166, .T. );
#112 = CYLINDRICAL_SURFACE( '', #167, 1.60000000000000 );
#113 = SURFACE_STYLE_USAGE( .BOTH., #168 );
#114 = FACE_OUTER_BOUND( '', #169, .T. );
#115 = FACE_OUTER_BOUND( '', #170, .T. );
#116 = CYLINDRICAL_SURFACE( '', #171, 12.0000000000000 );
#117 = SURFACE_STYLE_USAGE( .BOTH., #172 );
#118 = FACE_BOUND( '', #173, .T. );
#119 = FACE_OUTER_BOUND( '', #174, .T. );
#120 = CONICAL_SURFACE( '', #175, 12.0000000000000, 0.331809173800000 );
#121 = PRODUCT_CONTEXT( '', #21, 'mechanical' );
#122 = PRODUCT_DEFINITION_FORMATION_WITH_SPECIFIED_SOURCE( ' ', 'NONE', #56, .NOT_KNOWN. );
#123 = CLOSED_SHELL( '', ( #37, #35, #49, #43, #53, #55, #45, #47, #39, #51, #41 ) );
#124 = CARTESIAN_POINT( '', ( 0.000000000000000, 0.000000000000000, 0.000000000000000 ) );
#125 = DIRECTION( '', ( 0.000000000000000, 0.000000000000000, 1.00000000000000 ) );
#126 = DIRECTION( '', ( 1.00000000000000, 0.000000000000000, 0.000000000000000 ) );
#127 =  ( LENGTH_UNIT(  )NAMED_UNIT( #65 )SI_UNIT( .MILLI., .METRE. ) );
#128 = SURFACE_SIDE_STYLE( '', ( #177 ) );
#129 = EDGE_LOOP( '', ( #178 ) );
#130 = EDGE_LOOP( '', ( #179 ) );
#131 = AXIS2_PLACEMENT_3D( '', #180, #181, #182 );
#132 = SURFACE_SIDE_STYLE( '', ( #183 ) );
#133 = EDGE_LOOP( '', ( #184 ) );
#134 = EDGE_LOOP( '', ( #185 ) );
#135 = EDGE_LOOP( '', ( #186 ) );
#136 = EDGE_LOOP( '', ( #187 ) );
#137 = EDGE_LOOP( '', ( #188 ) );
#138 = AXIS2_PLACEMENT_3D( '', #189, #190, #191 );
#139 = SURFACE_SIDE_STYLE( '', ( #192 ) );
#140 = EDGE_LOOP( '', ( #193 ) );
#141 = AXIS2_PLACEMENT_3D( '', #194, #195, #196 );
#142 = SURFACE_SIDE_STYLE( '', ( #197 ) );
#143 = EDGE_LOOP( '', ( #198 ) );
#144 = EDGE_LOOP( '', ( #199 ) );
#145 = AXIS2_PLACEMENT_3D( '', #200, #201, #202 );
#146 = SURFACE_SIDE_STYLE( '', ( #203 ) );
#147 = EDGE_LOOP( '', ( #204 ) );
#148 = EDGE_LOOP( '', ( #205 ) );
#149 = AXIS2_PLACEMENT_3D( '', #206, #207, #208 );
#150 = SURFACE_SIDE_STYLE( '', ( #209 ) );
#151 = EDGE_LOOP( '', ( #210 ) );
#152 = EDGE_LOOP( '', ( #211 ) );
#153 = AXIS2_PLACEMENT_3D( '', #212, #213, #214 );
#154 = SURFACE_SIDE_STYLE( '', ( #215 ) );
#155 = EDGE_LOOP( '', ( #216 ) );
#156 = EDGE_LOOP( '', ( #217 ) );
#157 = AXIS2_PLACEMENT_3D( '', #218, #219, #220 );
#158 = SURFACE_SIDE_STYLE( '', ( #221 ) );
#159 = EDGE_LOOP( '', ( #222 ) );
#160 = EDGE_LOOP( '', ( #223 ) );
#161 = EDGE_LOOP( '', ( #224 ) );
#162 = EDGE_LOOP( '', ( #225 ) );
#163 = AXIS2_PLACEMENT_3D( '', #226, #227, #228 );
#164 = SURFACE_SIDE_STYLE( '', ( #229 ) );
#165 = EDGE_LOOP( '', ( #230 ) );
#166 = EDGE_LOOP( '', ( #231 ) );
#167 = AXIS2_PLACEMENT_3D( '', #232, #233, #234 );
#168 = SURFACE_SIDE_STYLE( '', ( #235 ) );
#169 = EDGE_LOOP( '', ( #236 ) );
#170 = EDGE_LOOP( '', ( #237 ) );
#171 = AXIS2_PLACEMENT_3D( '', #238, #239, #240 );
#172 = SURFACE_SIDE_STYLE( '', ( #241 ) );
#173 = EDGE_LOOP( '', ( #242 ) );
#174 = EDGE_LOOP( '', ( #243 ) );
#175 = AXIS2_PLACEMENT_3D( '', #244, #245, #246 );
#177 = SURFACE_STYLE_FILL_AREA( #247 );
#178 = ORIENTED_EDGE( '', *, *, #248, .T. );
#179 = ORIENTED_EDGE( '', *, *, #249, .F. );
#180 = CARTESIAN_POINT( '', ( -14.5000000000000, 3.00000000000000, 0.000000000000000 ) );
#181 = DIRECTION( '', ( -0.000000000000000, 1.00000000000000, 0.000000000000000 ) );
#182 = DIRECTION( '', ( 0.000000000000000, 0.000000000000000, -1.00000000000000 ) );
#183 = SURFACE_STYLE_FILL_AREA( #250 );
#184 = ORIENTED_EDGE( '', *, *, #251, .F. );
#185 = ORIENTED_EDGE( '', *, *, #252, .F. );
#186 = ORIENTED_EDGE( '', *, *, #253, .F. );
#187 = ORIENTED_EDGE( '', *, *, #248, .F. );
#188 = ORIENTED_EDGE( '', *, *, #254, .T. );
#189 = CARTESIAN_POINT( '', ( 12.0000000000000, 3.00000000000000, 0.000000000000000 ) );
#190 = DIRECTION( '', ( 0.000000000000000, -1.00000000000000, -0.000000000000000 ) );
#191 = DIRECTION( '', ( 0.000000000000000, 0.000000000000000, -1.00000000000000 ) );
#192 = SURFACE_STYLE_FILL_AREA( #255 );
#193 = ORIENTED_EDGE( '', *, *, #256, .F. );
#194 = CARTESIAN_POINT( '', ( 9.25000000000000, 9.70000000000000, 0.000000000000000 ) );
#195 = DIRECTION( '', ( 0.000000000000000, 1.00000000000000, 0.000000000000000 ) );
#196 = DIRECTION( '', ( 0.000000000000000, -0.000000000000000, 1.00000000000000 ) );
#197 = SURFACE_STYLE_FILL_AREA( #257 );
#198 = ORIENTED_EDGE( '', *, *, #252, .T. );
#199 = ORIENTED_EDGE( '', *, *, #258, .F. );
#200 = CARTESIAN_POINT( '', ( 7.25000000000000, 3.00000000000000, -12.5573683548744 ) );
#201 = DIRECTION( '', ( -0.000000000000000, 1.00000000000000, -0.000000000000000 ) );
#202 = DIRECTION( '', ( 0.866025403784439, 0.000000000000000, 0.500000000000000 ) );
#203 = SURFACE_STYLE_FILL_AREA( #259 );
#204 = ORIENTED_EDGE( '', *, *, #260, .F. );
#205 = ORIENTED_EDGE( '', *, *, #251, .T. );
#206 = CARTESIAN_POINT( '', ( 0.000000000000000, 0.000000000000000, 0.000000000000000 ) );
#207 = DIRECTION( '', ( -0.000000000000000, 1.00000000000000, 0.000000000000000 ) );
#208 = DIRECTION( '', ( 0.000000000000000, 0.000000000000000, -1.00000000000000 ) );
#209 = SURFACE_STYLE_FILL_AREA( #261 );
#210 = ORIENTED_EDGE( '', *, *, #256, .T. );
#211 = ORIENTED_EDGE( '', *, *, #262, .F. );
#212 = CARTESIAN_POINT( '', ( 0.000000000000000, 10.1234802677694, 0.000000000000000 ) );
#213 = DIRECTION( '', ( -0.000000000000000, 1.00000000000000, 0.000000000000000 ) );
#214 = DIRECTION( '', ( 0.000000000000000, -0.000000000000000, 1.00000000000000 ) );
#215 = SURFACE_STYLE_FILL_AREA( #263 );
#216 = ORIENTED_EDGE( '', *, *, #262, .T. );
#217 = ORIENTED_EDGE( '', *, *, #264, .F. );
#218 = CARTESIAN_POINT( '', ( 0.000000000000000, 9.70000000000000, 0.000000000000000 ) );
#219 = DIRECTION( '', ( 0.000000000000000, -1.00000000000000, -0.000000000000000 ) );
#220 = DIRECTION( '', ( 0.000000000000000, 0.000000000000000, -1.00000000000000 ) );
#221 = SURFACE_STYLE_FILL_AREA( #265 );
#222 = ORIENTED_EDGE( '', *, *, #258, .T. );
#223 = ORIENTED_EDGE( '', *, *, #266, .T. );
#224 = ORIENTED_EDGE( '', *, *, #249, .T. );
#225 = ORIENTED_EDGE( '', *, *, #260, .T. );
#226 = CARTESIAN_POINT( '', ( 18.0000000000000, 0.000000000000000, 0.000000000000000 ) );
#227 = DIRECTION( '', ( 0.000000000000000, 1.00000000000000, 0.000000000000000 ) );
#228 = DIRECTION( '', ( 0.000000000000000, -0.000000000000000, 1.00000000000000 ) );
#229 = SURFACE_STYLE_FILL_AREA( #267 );
#230 = ORIENTED_EDGE( '', *, *, #253, .T. );
#231 = ORIENTED_EDGE( '', *, *, #266, .F. );
#232 = CARTESIAN_POINT( '', ( 7.25000000000000, 3.00000000000000, 12.5573683548744 ) );
#233 = DIRECTION( '', ( -0.000000000000000, 1.00000000000000, -0.000000000000000 ) );
#234 = DIRECTION( '', ( -0.866025403784439, 0.000000000000000, 0.500000000000000 ) );
#235 = SURFACE_STYLE_FILL_AREA( #268 );
#236 = ORIENTED_EDGE( '', *, *, #254, .F. );
#237 = ORIENTED_EDGE( '', *, *, #269, .T. );
#238 = CARTESIAN_POINT( '', ( 0.000000000000000, 0.000000000000000, 0.000000000000000 ) );
#239 = DIRECTION( '', ( -0.000000000000000, 1.00000000000000, 0.000000000000000 ) );
#240 = DIRECTION( '', ( 0.000000000000000, 0.000000000000000, -1.00000000000000 ) );
#241 = SURFACE_STYLE_FILL_AREA( #270 );
#242 = ORIENTED_EDGE( '', *, *, #264, .T. );
#243 = ORIENTED_EDGE( '', *, *, #269, .F. );
#244 = CARTESIAN_POINT( '', ( 0.000000000000000, 9.70000000000000, 0.000000000000000 ) );
#245 = DIRECTION( '', ( -0.000000000000000, -1.00000000000000, -0.000000000000000 ) );
#246 = DIRECTION( '', ( 0.000000000000000, 0.000000000000000, -1.00000000000000 ) );
#247 = FILL_AREA_STYLE( '', ( #271 ) );
#248 = EDGE_CURVE( '', #272, #272, #273, .T. );
#249 = EDGE_CURVE( '', #274, #274, #275, .T. );
#250 = FILL_AREA_STYLE( '', ( #276 ) );
#251 = EDGE_CURVE( '', #277, #277, #278, .T. );
#252 = EDGE_CURVE( '', #279, #279, #280, .T. );
#253 = EDGE_CURVE( '', #281, #281, #282, .T. );
#254 = EDGE_CURVE( '', #283, #283, #284, .T. );
#255 = FILL_AREA_STYLE( '', ( #285 ) );
#256 = EDGE_CURVE( '', #286, #286, #287, .T. );
#257 = FILL_AREA_STYLE( '', ( #288 ) );
#258 = EDGE_CURVE( '', #289, #289, #290, .T. );
#259 = FILL_AREA_STYLE( '', ( #291 ) );
#260 = EDGE_CURVE( '', #292, #292, #293, .T. );
#261 = FILL_AREA_STYLE( '', ( #294 ) );
#262 = EDGE_CURVE( '', #295, #295, #296, .T. );
#263 = FILL_AREA_STYLE( '', ( #297 ) );
#264 = EDGE_CURVE( '', #298, #298, #299, .T. );
#265 = FILL_AREA_STYLE( '', ( #300 ) );
#266 = EDGE_CURVE( '', #301, #301, #302, .T. );
#267 = FILL_AREA_STYLE( '', ( #303 ) );
#268 = FILL_AREA_STYLE( '', ( #304 ) );
#269 = EDGE_CURVE( '', #305, #305, #306, .T. );
#270 = FILL_AREA_STYLE( '', ( #307 ) );
#271 = FILL_AREA_STYLE_COLOUR( '', #308 );
#272 = VERTEX_POINT( '', #309 );
#273 = CIRCLE( '', #310, 1.60000000000000 );
#274 = VERTEX_POINT( '', #311 );
#275 = CIRCLE( '', #312, 1.60000000000000 );
#276 = FILL_AREA_STYLE_COLOUR( '', #313 );
#277 = VERTEX_POINT( '', #314 );
#278 = CIRCLE( '', #315, 18.0000000000000 );
#279 = VERTEX_POINT( '', #316 );
#280 = CIRCLE( '', #317, 1.60000000000000 );
#281 = VERTEX_POINT( '', #318 );
#282 = CIRCLE( '', #319, 1.60000000000000 );
#283 = VERTEX_POINT( '', #320 );
#284 = CIRCLE( '', #321, 12.0000000000000 );
#285 = FILL_AREA_STYLE_COLOUR( '', #322 );
#286 = VERTEX_POINT( '', #323 );
#287 = CIRCLE( '', #324, 9.25000000000000 );
#288 = FILL_AREA_STYLE_COLOUR( '', #325 );
#289 = VERTEX_POINT( '', #326 );
#290 = CIRCLE( '', #327, 1.60000000000000 );
#291 = FILL_AREA_STYLE_COLOUR( '', #328 );
#292 = VERTEX_POINT( '', #329 );
#293 = CIRCLE( '', #330, 18.0000000000000 );
#294 = FILL_AREA_STYLE_COLOUR( '', #331 );
#295 = VERTEX_POINT( '', #332 );
#296 = CIRCLE( '', #333, 9.39590909090000 );
#297 = FILL_AREA_STYLE_COLOUR( '', #334 );
#298 = VERTEX_POINT( '', #335 );
#299 = CIRCLE( '', #336, 11.8540909091000 );
#300 = FILL_AREA_STYLE_COLOUR( '', #337 );
#301 = VERTEX_POINT( '', #338 );
#302 = CIRCLE( '', #339, 1.60000000000000 );
#303 = FILL_AREA_STYLE_COLOUR( '', #340 );
#304 = FILL_AREA_STYLE_COLOUR( '', #341 );
#305 = VERTEX_POINT( '', #342 );
#306 = CIRCLE( '', #343, 12.0000000000000 );
#307 = FILL_AREA_STYLE_COLOUR( '', #344 );
#308 = COLOUR_RGB( '', 0.689999997600000, 0.689999997600000, 0.689999997600000 );
#309 = CARTESIAN_POINT( '', ( -12.9000000000000, 3.00000000000000, 0.000000000000000 ) );
#310 = AXIS2_PLACEMENT_3D( '', #345, #346, #347 );
#311 = CARTESIAN_POINT( '', ( -12.9000000000000, 0.000000000000000, 0.000000000000000 ) );
#312 = AXIS2_PLACEMENT_3D( '', #348, #349, #350 );
#313 = COLOUR_RGB( '', 0.689999997600000, 0.689999997600000, 0.689999997600000 );
#314 = CARTESIAN_POINT( '', ( 0.000000000000000, 3.00000000000000, -18.0000000000000 ) );
#315 = AXIS2_PLACEMENT_3D( '', #351, #352, #353 );
#316 = CARTESIAN_POINT( '', ( 6.45000000000000, 3.00000000000000, -11.1717277088193 ) );
#317 = AXIS2_PLACEMENT_3D( '', #354, #355, #356 );
#318 = CARTESIAN_POINT( '', ( 6.45000000000000, 3.00000000000000, 11.1717277088193 ) );
#319 = AXIS2_PLACEMENT_3D( '', #357, #358, #359 );
#320 = CARTESIAN_POINT( '', ( 0.000000000000000, 3.00000000000000, -12.0000000000000 ) );
#321 = AXIS2_PLACEMENT_3D( '', #360, #361, #362 );
#322 = COLOUR_RGB( '', 0.689999997600000, 0.689999997600000, 0.689999997600000 );
#323 = CARTESIAN_POINT( '', ( 0.000000000000000, 9.70000000000000, -9.25000000000000 ) );
#324 = AXIS2_PLACEMENT_3D( '', #363, #364, #365 );
#325 = COLOUR_RGB( '', 0.689999997600000, 0.689999997600000, 0.689999997600000 );
#326 = CARTESIAN_POINT( '', ( 6.45000000000000, 0.000000000000000, -11.1717277088193 ) );
#327 = AXIS2_PLACEMENT_3D( '', #366, #367, #368 );
#328 = COLOUR_RGB( '', 0.689999997600000, 0.689999997600000, 0.689999997600000 );
#329 = CARTESIAN_POINT( '', ( 0.000000000000000, 0.000000000000000, -18.0000000000000 ) );
#330 = AXIS2_PLACEMENT_3D( '', #369, #370, #371 );
#331 = COLOUR_RGB( '', 0.689999997600000, 0.689999997600000, 0.689999997600000 );
#332 = CARTESIAN_POINT( '', ( 0.000000000000000, 10.1234802677694, -9.39590909090909 ) );
#333 = AXIS2_PLACEMENT_3D( '', #372, #373, #374 );
#334 = COLOUR_RGB( '', 0.689999997600000, 0.689999997600000, 0.689999997600000 );
#335 = CARTESIAN_POINT( '', ( 0.000000000000000, 10.1234802677694, -11.8540909090909 ) );
#336 = AXIS2_PLACEMENT_3D( '', #375, #376, #377 );
#337 = COLOUR_RGB( '', 0.689999997600000, 0.689999997600000, 0.689999997600000 );
#338 = CARTESIAN_POINT( '', ( 6.45000000000000, 0.000000000000000, 11.1717277088193 ) );
#339 = AXIS2_PLACEMENT_3D( '', #378, #379, #380 );
#340 = COLOUR_RGB( '', 0.689999997600000, 0.689999997600000, 0.689999997600000 );
#341 = COLOUR_RGB( '', 0.689999997600000, 0.689999997600000, 0.689999997600000 );
#342 = CARTESIAN_POINT( '', ( 0.000000000000000, 9.70000000000000, -12.0000000000000 ) );
#343 = AXIS2_PLACEMENT_3D( '', #381, #382, #383 );
#344 = COLOUR_RGB( '', 0.689999997600000, 0.689999997600000, 0.689999997600000 );
#345 = CARTESIAN_POINT( '', ( -14.5000000000000, 3.00000000000000, 0.000000000000000 ) );
#346 = DIRECTION( '', ( -0.000000000000000, 1.00000000000000, 0.000000000000000 ) );
#347 = DIRECTION( '', ( 1.00000000000000, 0.000000000000000, 0.000000000000000 ) );
#348 = CARTESIAN_POINT( '', ( -14.5000000000000, 0.000000000000000, 0.000000000000000 ) );
#349 = DIRECTION( '', ( -0.000000000000000, 1.00000000000000, 0.000000000000000 ) );
#350 = DIRECTION( '', ( 1.00000000000000, 0.000000000000000, 0.000000000000000 ) );
#351 = CARTESIAN_POINT( '', ( 0.000000000000000, 3.00000000000000, 0.000000000000000 ) );
#352 = DIRECTION( '', ( 0.000000000000000, -1.00000000000000, -0.000000000000000 ) );
#353 = DIRECTION( '', ( 0.000000000000000, 0.000000000000000, -1.00000000000000 ) );
#354 = CARTESIAN_POINT( '', ( 7.25000000000000, 3.00000000000000, -12.5573683548744 ) );
#355 = DIRECTION( '', ( 0.000000000000000, 1.00000000000000, 0.000000000000000 ) );
#356 = DIRECTION( '', ( -0.500000000000000, 0.000000000000000, 0.866025403784439 ) );
#357 = CARTESIAN_POINT( '', ( 7.25000000000000, 3.00000000000000, 12.5573683548744 ) );
#358 = DIRECTION( '', ( 0.000000000000000, 1.00000000000000, 0.000000000000000 ) );
#359 = DIRECTION( '', ( -0.500000000000000, 0.000000000000000, -0.866025403784439 ) );
#360 = CARTESIAN_POINT( '', ( 0.000000000000000, 3.00000000000000, 0.000000000000000 ) );
#361 = DIRECTION( '', ( 0.000000000000000, -1.00000000000000, -0.000000000000000 ) );
#362 = DIRECTION( '', ( 0.000000000000000, 0.000000000000000, -1.00000000000000 ) );
#363 = CARTESIAN_POINT( '', ( 0.000000000000000, 9.70000000000000, 0.000000000000000 ) );
#364 = DIRECTION( '', ( 0.000000000000000, -1.00000000000000, -0.000000000000000 ) );
#365 = DIRECTION( '', ( 0.000000000000000, 0.000000000000000, -1.00000000000000 ) );
#366 = CARTESIAN_POINT( '', ( 7.25000000000000, 0.000000000000000, -12.5573683548744 ) );
#367 = DIRECTION( '', ( 0.000000000000000, 1.00000000000000, 0.000000000000000 ) );
#368 = DIRECTION( '', ( -0.500000000000000, 0.000000000000000, 0.866025403784439 ) );
#369 = CARTESIAN_POINT( '', ( 0.000000000000000, 0.000000000000000, 0.000000000000000 ) );
#370 = DIRECTION( '', ( 0.000000000000000, -1.00000000000000, -0.000000000000000 ) );
#371 = DIRECTION( '', ( 0.000000000000000, 0.000000000000000, -1.00000000000000 ) );
#372 = CARTESIAN_POINT( '', ( 0.000000000000000, 10.1234802677694, 0.000000000000000 ) );
#373 = DIRECTION( '', ( 0.000000000000000, -1.00000000000000, -0.000000000000000 ) );
#374 = DIRECTION( '', ( 0.000000000000000, 0.000000000000000, -1.00000000000000 ) );
#375 = CARTESIAN_POINT( '', ( 0.000000000000000, 10.1234802677694, 0.000000000000000 ) );
#376 = DIRECTION( '', ( 0.000000000000000, -1.00000000000000, -0.000000000000000 ) );
#377 = DIRECTION( '', ( 0.000000000000000, 0.000000000000000, -1.00000000000000 ) );
#378 = CARTESIAN_POINT( '', ( 7.25000000000000, 0.000000000000000, 12.5573683548744 ) );
#379 = DIRECTION( '', ( 0.000000000000000, 1.00000000000000, 0.000000000000000 ) );
#380 = DIRECTION( '', ( -0.500000000000000, 0.000000000000000, -0.866025403784439 ) );
#381 = CARTESIAN_POINT( '', ( 0.000000000000000, 9.70000000000000, 0.000000000000000 ) );
#382 = DIRECTION( '', ( 0.000000000000000, -1.00000000000000, -0.000000000000000 ) );
#383 = DIRECTION( '', ( 0.000000000000000, 0.000000000000000, -1.00000000000000 ) );
ENDSEC;
END-ISO-10303-21;
