ISO-10303-21;
HEADER;
FILE_DESCRIPTION( ( 'STEP AP214' ), '1' );
FILE_NAME( '//goodhand-server/Shared Folders/GoodHand Data/Kipp CAD/K0762/K0762.145.stp', '2020-12-10T08:54:32', ( '' ), ( '' ), ' ', 'PARTsolutions', ' ' );
FILE_SCHEMA( ( 'AUTOMOTIVE_DESIGN { 1 0 10303 214 1 1 1 1 }' ) );
ENDSEC;
DATA;
#1 = MECHANICAL_DESIGN_GEOMETRIC_PRESENTATION_REPRESENTATION( ' ', ( #10, #11, #12, #13, #14, #15, #16, #17, #18, #19, #20, #21, #22, #23, #24 ), #6 );
#2 = PRODUCT_DEFINITION_CONTEXT( '', #25, 'design' );
#3 = APPLICATION_PROTOCOL_DEFINITION( 'international standard', 'automotive_design', 2001, #25 );
#4 = PRODUCT_CATEGORY_RELATIONSHIP( 'NONE', 'NONE', #26, #27 );
#5 = SHAPE_DEFINITION_REPRESENTATION( #28, #29 );
#6 =  ( GEOMETRIC_REPRESENTATION_CONTEXT( 3 )GLOBAL_UNCERTAINTY_ASSIGNED_CONTEXT( ( #32 ) )GLOBAL_UNIT_ASSIGNED_CONTEXT( ( #34, #35, #36 ) )REPRESENTATION_CONTEXT( 'NONE', 'WORKSPACE' ) );
#10 = STYLED_ITEM( '', ( #38 ), #39 );
#11 = STYLED_ITEM( '', ( #40 ), #41 );
#12 = STYLED_ITEM( '', ( #42 ), #43 );
#13 = STYLED_ITEM( '', ( #44 ), #45 );
#14 = STYLED_ITEM( '', ( #46 ), #47 );
#15 = STYLED_ITEM( '', ( #48 ), #49 );
#16 = STYLED_ITEM( '', ( #50 ), #51 );
#17 = STYLED_ITEM( '', ( #52 ), #53 );
#18 = STYLED_ITEM( '', ( #54 ), #55 );
#19 = STYLED_ITEM( '', ( #56 ), #57 );
#20 = STYLED_ITEM( '', ( #58 ), #59 );
#21 = STYLED_ITEM( '', ( #60 ), #61 );
#22 = STYLED_ITEM( '', ( #62 ), #63 );
#23 = STYLED_ITEM( '', ( #64 ), #65 );
#24 = STYLED_ITEM( '', ( #66 ), #67 );
#25 = APPLICATION_CONTEXT( 'core data for automotive mechanical design processes' );
#26 = PRODUCT_CATEGORY( 'part', 'NONE' );
#27 = PRODUCT_RELATED_PRODUCT_CATEGORY( 'detail', ' ', ( #68 ) );
#28 = PRODUCT_DEFINITION_SHAPE( 'NONE', 'NONE', #69 );
#29 = ADVANCED_BREP_SHAPE_REPRESENTATION( '_K0762.145', ( #70, #71 ), #6 );
#32 = UNCERTAINTY_MEASURE_WITH_UNIT( LENGTH_MEASURE( 0.00100000000000000 ), #34, '', '' );
#34 =  ( CONVERSION_BASED_UNIT( 'MILLIMETRE', #74 )LENGTH_UNIT(  )NAMED_UNIT( #77 ) );
#35 =  ( NAMED_UNIT( #79 )PLANE_ANGLE_UNIT(  )SI_UNIT( $, .RADIAN. ) );
#36 =  ( NAMED_UNIT( #79 )SI_UNIT( $, .STERADIAN. )SOLID_ANGLE_UNIT(  ) );
#38 = PRESENTATION_STYLE_ASSIGNMENT( ( #85 ) );
#39 = ADVANCED_FACE( '', ( #86, #87 ), #88, .T. );
#40 = PRESENTATION_STYLE_ASSIGNMENT( ( #89 ) );
#41 = ADVANCED_FACE( '', ( #90, #91 ), #92, .T. );
#42 = PRESENTATION_STYLE_ASSIGNMENT( ( #93 ) );
#43 = ADVANCED_FACE( '', ( #94 ), #95, .F. );
#44 = PRESENTATION_STYLE_ASSIGNMENT( ( #96 ) );
#45 = ADVANCED_FACE( '', ( #97, #98 ), #99, .T. );
#46 = PRESENTATION_STYLE_ASSIGNMENT( ( #100 ) );
#47 = ADVANCED_FACE( '', ( #101, #102, #103 ), #104, .F. );
#48 = PRESENTATION_STYLE_ASSIGNMENT( ( #105 ) );
#49 = ADVANCED_FACE( '', ( #106, #107 ), #108, .T. );
#50 = PRESENTATION_STYLE_ASSIGNMENT( ( #109 ) );
#51 = ADVANCED_FACE( '', ( #110, #111 ), #112, .F. );
#52 = PRESENTATION_STYLE_ASSIGNMENT( ( #113 ) );
#53 = ADVANCED_FACE( '', ( #114, #115 ), #116, .T. );
#54 = PRESENTATION_STYLE_ASSIGNMENT( ( #117 ) );
#55 = ADVANCED_FACE( '', ( #118, #119 ), #120, .F. );
#56 = PRESENTATION_STYLE_ASSIGNMENT( ( #121 ) );
#57 = ADVANCED_FACE( '', ( #122, #123 ), #124, .T. );
#58 = PRESENTATION_STYLE_ASSIGNMENT( ( #125 ) );
#59 = ADVANCED_FACE( '', ( #126, #127 ), #128, .F. );
#60 = PRESENTATION_STYLE_ASSIGNMENT( ( #129 ) );
#61 = ADVANCED_FACE( '', ( #130, #131 ), #132, .F. );
#62 = PRESENTATION_STYLE_ASSIGNMENT( ( #133 ) );
#63 = ADVANCED_FACE( '', ( #134, #135 ), #136, .F. );
#64 = PRESENTATION_STYLE_ASSIGNMENT( ( #137 ) );
#65 = ADVANCED_FACE( '', ( #138, #139 ), #140, .T. );
#66 = PRESENTATION_STYLE_ASSIGNMENT( ( #141 ) );
#67 = ADVANCED_FACE( '', ( #142, #143 ), #144, .F. );
#68 = PRODUCT( '_K0762.145', '_K0762.145', 'PART-_K0762.145-DESC', ( #145 ) );
#69 = PRODUCT_DEFINITION( 'NONE', 'NONE', #146, #2 );
#70 = MANIFOLD_SOLID_BREP( '_K0762.145', #147 );
#71 = AXIS2_PLACEMENT_3D( '', #148, #149, #150 );
#74 = LENGTH_MEASURE_WITH_UNIT( LENGTH_MEASURE( 1.00000000000000 ), #151 );
#77 = DIMENSIONAL_EXPONENTS( 1.00000000000000, 0.000000000000000, 0.000000000000000, 0.000000000000000, 0.000000000000000, 0.000000000000000, 0.000000000000000 );
#79 = DIMENSIONAL_EXPONENTS( 0.000000000000000, 0.000000000000000, 0.000000000000000, 0.000000000000000, 0.000000000000000, 0.000000000000000, 0.000000000000000 );
#85 = SURFACE_STYLE_USAGE( .BOTH., #152 );
#86 = FACE_OUTER_BOUND( '', #153, .T. );
#87 = FACE_OUTER_BOUND( '', #154, .T. );
#88 = TOROIDAL_SURFACE( '', #155, 32.7000000000000, 0.500000000000000 );
#89 = SURFACE_STYLE_USAGE( .BOTH., #156 );
#90 = FACE_OUTER_BOUND( '', #157, .T. );
#91 = FACE_OUTER_BOUND( '', #158, .T. );
#92 = ( BOUNDED_SURFACE(  )B_SPLINE_SURFACE( 3, 3, ( ( #161, #162, #163, #164, #165, #166, #167 ), ( #168, #169, #170, #171, #172, #173, #174 ), ( #175, #176, #177, #178, #179, #180, #181 ), ( #182, #183, #184, #185, #186, #187, #188 ) ), .UNSPECIFIED., .F., .T., .F. )B_SPLINE_SURFACE_WITH_KNOTS( ( 4, 4 ), ( 4, 3, 4 ), ( 0.000000000000000, 6.28318530717959 ), ( -0.918467825841969, -0.612820202165243, -0.307172578488517 ), .UNSPECIFIED. )GEOMETRIC_REPRESENTATION_ITEM(  )RATIONAL_B_SPLINE_SURFACE( ( ( 1.00000000000000, 0.333333333333333, 0.333333333333333, 1.00000000000000, 0.333333333333333, 0.333333333333333, 1.00000000000000 ), ( 0.969101517054376, 0.323033839018125, 0.323033839018125, 0.969101517054376, 0.323033839018125, 0.323033839018125, 0.969101517054376 ), ( 0.969101517054376, 0.323033839018125, 0.323033839018125, 0.969101517054376, 0.323033839018125, 0.323033839018125, 0.969101517054376 ), ( 1.00000000000000, 0.333333333333333, 0.333333333333333, 1.00000000000000, 0.333333333333333, 0.333333333333333, 1.00000000000000 ) ) )REPRESENTATION_ITEM( '' )SURFACE(  ) );
#93 = SURFACE_STYLE_USAGE( .BOTH., #194 );
#94 = FACE_OUTER_BOUND( '', #195, .T. );
#95 = PLANE( '', #196 );
#96 = SURFACE_STYLE_USAGE( .BOTH., #197 );
#97 = FACE_OUTER_BOUND( '', #198, .T. );
#98 = FACE_OUTER_BOUND( '', #199, .T. );
#99 = CYLINDRICAL_SURFACE( '', #200, 33.2000000000000 );
#100 = SURFACE_STYLE_USAGE( .BOTH., #201 );
#101 = FACE_BOUND( '', #202, .T. );
#102 = FACE_OUTER_BOUND( '', #203, .T. );
#103 = FACE_OUTER_BOUND( '', #204, .T. );
#104 = TOROIDAL_SURFACE( '', #205, 17.2105997839000, 2.97466855790000 );
#105 = SURFACE_STYLE_USAGE( .BOTH., #206 );
#106 = FACE_OUTER_BOUND( '', #207, .T. );
#107 = FACE_OUTER_BOUND( '', #208, .T. );
#108 = CYLINDRICAL_SURFACE( '', #209, 42.5000000000000 );
#109 = SURFACE_STYLE_USAGE( .BOTH., #210 );
#110 = FACE_BOUND( '', #211, .T. );
#111 = FACE_OUTER_BOUND( '', #212, .T. );
#112 = PLANE( '', #213 );
#113 = SURFACE_STYLE_USAGE( .BOTH., #214 );
#114 = FACE_OUTER_BOUND( '', #215, .T. );
#115 = FACE_OUTER_BOUND( '', #216, .T. );
#116 = TOROIDAL_SURFACE( '', #217, 42.0000000000000, 0.500000000000000 );
#117 = SURFACE_STYLE_USAGE( .BOTH., #218 );
#118 = FACE_OUTER_BOUND( '', #219, .T. );
#119 = FACE_BOUND( '', #220, .T. );
#120 = PLANE( '', #221 );
#121 = SURFACE_STYLE_USAGE( .BOTH., #222 );
#122 = FACE_BOUND( '', #223, .T. );
#123 = FACE_OUTER_BOUND( '', #224, .T. );
#124 = SPHERICAL_SURFACE( '', #225, 22.5000000000000 );
#125 = SURFACE_STYLE_USAGE( .BOTH., #226 );
#126 = FACE_OUTER_BOUND( '', #227, .T. );
#127 = FACE_OUTER_BOUND( '', #228, .T. );
#128 = TOROIDAL_SURFACE( '', #229, 33.7000000000000, 0.500000000000000 );
#129 = SURFACE_STYLE_USAGE( .BOTH., #230 );
#130 = FACE_OUTER_BOUND( '', #231, .T. );
#131 = FACE_BOUND( '', #232, .T. );
#132 = PLANE( '', #233 );
#133 = SURFACE_STYLE_USAGE( .BOTH., #234 );
#134 = FACE_OUTER_BOUND( '', #235, .T. );
#135 = FACE_OUTER_BOUND( '', #236, .T. );
#136 = CYLINDRICAL_SURFACE( '', #237, 39.0000000000000 );
#137 = SURFACE_STYLE_USAGE( .BOTH., #238 );
#138 = FACE_OUTER_BOUND( '', #239, .T. );
#139 = FACE_OUTER_BOUND( '', #240, .T. );
#140 = TOROIDAL_SURFACE( '', #241, 42.0000000000000, 0.500000000000000 );
#141 = SURFACE_STYLE_USAGE( .BOTH., #242 );
#142 = FACE_OUTER_BOUND( '', #243, .T. );
#143 = FACE_BOUND( '', #244, .T. );
#144 = PLANE( '', #245 );
#145 = PRODUCT_CONTEXT( '', #25, 'mechanical' );
#146 = PRODUCT_DEFINITION_FORMATION_WITH_SPECIFIED_SOURCE( ' ', 'NONE', #68, .NOT_KNOWN. );
#147 = CLOSED_SHELL( '', ( #39, #43, #45, #47, #61, #41, #67, #63, #55, #65, #49, #53, #51, #59, #57 ) );
#148 = CARTESIAN_POINT( '', ( 0.000000000000000, 0.000000000000000, 0.000000000000000 ) );
#149 = DIRECTION( '', ( 0.000000000000000, 0.000000000000000, 1.00000000000000 ) );
#150 = DIRECTION( '', ( 1.00000000000000, 0.000000000000000, 0.000000000000000 ) );
#151 =  ( LENGTH_UNIT(  )NAMED_UNIT( #77 )SI_UNIT( .MILLI., .METRE. ) );
#152 = SURFACE_SIDE_STYLE( '', ( #247 ) );
#153 = EDGE_LOOP( '', ( #248 ) );
#154 = EDGE_LOOP( '', ( #249 ) );
#155 = AXIS2_PLACEMENT_3D( '', #250, #251, #252 );
#156 = SURFACE_SIDE_STYLE( '', ( #253 ) );
#157 = EDGE_LOOP( '', ( #254 ) );
#158 = EDGE_LOOP( '', ( #255 ) );
#161 = CARTESIAN_POINT( '', ( 0.000000000000000, 85.6000000000000, -24.5000000000000 ) );
#162 = CARTESIAN_POINT( '', ( 49.0000000000000, 85.6000000000000, -24.5000000000000 ) );
#163 = CARTESIAN_POINT( '', ( 49.0000000000000, 85.6000000000000, 24.5000000000000 ) );
#164 = CARTESIAN_POINT( '', ( 0.000000000000000, 85.6000000000000, 24.5000000000000 ) );
#165 = CARTESIAN_POINT( '', ( -49.0000000000000, 85.6000000000000, 24.5000000000000 ) );
#166 = CARTESIAN_POINT( '', ( -49.0000000000000, 85.6000000000000, -24.5000000000000 ) );
#167 = CARTESIAN_POINT( '', ( 0.000000000000000, 85.6000000000000, -24.5000000000000 ) );
#168 = CARTESIAN_POINT( '', ( 0.000000000000000, 88.1650815866608, -23.6863233508268 ) );
#169 = CARTESIAN_POINT( '', ( 47.3726467016536, 88.1650815866608, -23.6863233508268 ) );
#170 = CARTESIAN_POINT( '', ( 47.3726467016536, 88.1650815866608, 23.6863233508268 ) );
#171 = CARTESIAN_POINT( '', ( 0.000000000000000, 88.1650815866608, 23.6863233508268 ) );
#172 = CARTESIAN_POINT( '', ( -47.3726467016536, 88.1650815866608, 23.6863233508268 ) );
#173 = CARTESIAN_POINT( '', ( -47.3726467016536, 88.1650815866608, -23.6863233508268 ) );
#174 = CARTESIAN_POINT( '', ( 0.000000000000000, 88.1650815866608, -23.6863233508268 ) );
#175 = CARTESIAN_POINT( '', ( 0.000000000000000, 90.3664333499082, -22.1384978922935 ) );
#176 = CARTESIAN_POINT( '', ( 44.2769957845870, 90.3664333499081, -22.1384978922935 ) );
#177 = CARTESIAN_POINT( '', ( 44.2769957845870, 90.3664333499081, 22.1384978922935 ) );
#178 = CARTESIAN_POINT( '', ( 0.000000000000000, 90.3664333499082, 22.1384978922935 ) );
#179 = CARTESIAN_POINT( '', ( -44.2769957845870, 90.3664333499081, 22.1384978922935 ) );
#180 = CARTESIAN_POINT( '', ( -44.2769957845870, 90.3664333499081, -22.1384978922935 ) );
#181 = CARTESIAN_POINT( '', ( 0.000000000000000, 90.3664333499082, -22.1384978922935 ) );
#182 = CARTESIAN_POINT( '', ( 0.000000000000000, 92.0000000000000, -20.0000000000000 ) );
#183 = CARTESIAN_POINT( '', ( 40.0000000000000, 92.0000000000000, -20.0000000000000 ) );
#184 = CARTESIAN_POINT( '', ( 40.0000000000000, 92.0000000000000, 20.0000000000000 ) );
#185 = CARTESIAN_POINT( '', ( 0.000000000000000, 92.0000000000000, 20.0000000000000 ) );
#186 = CARTESIAN_POINT( '', ( -40.0000000000000, 92.0000000000000, 20.0000000000000 ) );
#187 = CARTESIAN_POINT( '', ( -40.0000000000000, 92.0000000000000, -20.0000000000000 ) );
#188 = CARTESIAN_POINT( '', ( 0.000000000000000, 92.0000000000000, -20.0000000000000 ) );
#194 = SURFACE_SIDE_STYLE( '', ( #256 ) );
#195 = EDGE_LOOP( '', ( #257 ) );
#196 = AXIS2_PLACEMENT_3D( '', #258, #259, #260 );
#197 = SURFACE_SIDE_STYLE( '', ( #261 ) );
#198 = EDGE_LOOP( '', ( #262 ) );
#199 = EDGE_LOOP( '', ( #263 ) );
#200 = AXIS2_PLACEMENT_3D( '', #264, #265, #266 );
#201 = SURFACE_SIDE_STYLE( '', ( #267 ) );
#202 = VERTEX_LOOP( '', #268 );
#203 = EDGE_LOOP( '', ( #269 ) );
#204 = EDGE_LOOP( '', ( #270 ) );
#205 = AXIS2_PLACEMENT_3D( '', #271, #272, #273 );
#206 = SURFACE_SIDE_STYLE( '', ( #274 ) );
#207 = EDGE_LOOP( '', ( #275 ) );
#208 = EDGE_LOOP( '', ( #276 ) );
#209 = AXIS2_PLACEMENT_3D( '', #277, #278, #279 );
#210 = SURFACE_SIDE_STYLE( '', ( #280 ) );
#211 = EDGE_LOOP( '', ( #281 ) );
#212 = EDGE_LOOP( '', ( #282 ) );
#213 = AXIS2_PLACEMENT_3D( '', #283, #284, #285 );
#214 = SURFACE_SIDE_STYLE( '', ( #286 ) );
#215 = EDGE_LOOP( '', ( #287 ) );
#216 = EDGE_LOOP( '', ( #288 ) );
#217 = AXIS2_PLACEMENT_3D( '', #289, #290, #291 );
#218 = SURFACE_SIDE_STYLE( '', ( #292 ) );
#219 = EDGE_LOOP( '', ( #293 ) );
#220 = EDGE_LOOP( '', ( #294 ) );
#221 = AXIS2_PLACEMENT_3D( '', #295, #296, #297 );
#222 = SURFACE_SIDE_STYLE( '', ( #298 ) );
#223 = VERTEX_LOOP( '', #299 );
#224 = EDGE_LOOP( '', ( #300 ) );
#225 = AXIS2_PLACEMENT_3D( '', #301, #302, #303 );
#226 = SURFACE_SIDE_STYLE( '', ( #304 ) );
#227 = EDGE_LOOP( '', ( #305 ) );
#228 = EDGE_LOOP( '', ( #306 ) );
#229 = AXIS2_PLACEMENT_3D( '', #307, #308, #309 );
#230 = SURFACE_SIDE_STYLE( '', ( #310 ) );
#231 = EDGE_LOOP( '', ( #311 ) );
#232 = EDGE_LOOP( '', ( #312 ) );
#233 = AXIS2_PLACEMENT_3D( '', #313, #314, #315 );
#234 = SURFACE_SIDE_STYLE( '', ( #316 ) );
#235 = EDGE_LOOP( '', ( #317 ) );
#236 = EDGE_LOOP( '', ( #318 ) );
#237 = AXIS2_PLACEMENT_3D( '', #319, #320, #321 );
#238 = SURFACE_SIDE_STYLE( '', ( #322 ) );
#239 = EDGE_LOOP( '', ( #323 ) );
#240 = EDGE_LOOP( '', ( #324 ) );
#241 = AXIS2_PLACEMENT_3D( '', #325, #326, #327 );
#242 = SURFACE_SIDE_STYLE( '', ( #328 ) );
#243 = EDGE_LOOP( '', ( #329 ) );
#244 = EDGE_LOOP( '', ( #330 ) );
#245 = AXIS2_PLACEMENT_3D( '', #331, #332, #333 );
#247 = SURFACE_STYLE_FILL_AREA( #334 );
#248 = ORIENTED_EDGE( '', *, *, #335, .T. );
#249 = ORIENTED_EDGE( '', *, *, #336, .F. );
#250 = CARTESIAN_POINT( '', ( 0.000000000000000, 0.499999999999997, 0.000000000000000 ) );
#251 = DIRECTION( '', ( 0.000000000000000, -1.00000000000000, -0.000000000000000 ) );
#252 = DIRECTION( '', ( 0.000000000000000, 0.000000000000000, -1.00000000000000 ) );
#253 = SURFACE_STYLE_FILL_AREA( #337 );
#254 = ORIENTED_EDGE( '', *, *, #338, .T. );
#255 = ORIENTED_EDGE( '', *, *, #339, .F. );
#256 = SURFACE_STYLE_FILL_AREA( #340 );
#257 = ORIENTED_EDGE( '', *, *, #336, .T. );
#258 = CARTESIAN_POINT( '', ( 32.7000000000000, -1.84314369322536E-15, 0.000000000000000 ) );
#259 = DIRECTION( '', ( 0.000000000000000, 1.00000000000000, 0.000000000000000 ) );
#260 = DIRECTION( '', ( 0.000000000000000, -0.000000000000000, 1.00000000000000 ) );
#261 = SURFACE_STYLE_FILL_AREA( #341 );
#262 = ORIENTED_EDGE( '', *, *, #335, .F. );
#263 = ORIENTED_EDGE( '', *, *, #342, .T. );
#264 = CARTESIAN_POINT( '', ( 0.000000000000000, 0.000000000000000, 0.000000000000000 ) );
#265 = DIRECTION( '', ( -0.000000000000000, 1.00000000000000, 0.000000000000000 ) );
#266 = DIRECTION( '', ( 0.000000000000000, 0.000000000000000, -1.00000000000000 ) );
#267 = SURFACE_STYLE_FILL_AREA( #343 );
#268 = VERTEX_POINT( '', #344 );
#269 = ORIENTED_EDGE( '', *, *, #345, .F. );
#270 = ORIENTED_EDGE( '', *, *, #346, .T. );
#271 = CARTESIAN_POINT( '', ( 0.000000000000000, 89.3193097694583, 0.000000000000000 ) );
#272 = DIRECTION( '', ( 0.000000000000000, -1.00000000000000, -0.000000000000000 ) );
#273 = DIRECTION( '', ( 0.000000000000000, 0.000000000000000, -1.00000000000000 ) );
#274 = SURFACE_STYLE_FILL_AREA( #347 );
#275 = ORIENTED_EDGE( '', *, *, #348, .F. );
#276 = ORIENTED_EDGE( '', *, *, #349, .T. );
#277 = CARTESIAN_POINT( '', ( 0.000000000000000, 0.000000000000000, 0.000000000000000 ) );
#278 = DIRECTION( '', ( -0.000000000000000, 1.00000000000000, 0.000000000000000 ) );
#279 = DIRECTION( '', ( 0.000000000000000, 0.000000000000000, -1.00000000000000 ) );
#280 = SURFACE_STYLE_FILL_AREA( #350 );
#281 = ORIENTED_EDGE( '', *, *, #351, .F. );
#282 = ORIENTED_EDGE( '', *, *, #352, .T. );
#283 = CARTESIAN_POINT( '', ( 42.0000000000000, 64.9000000000000, 0.000000000000000 ) );
#284 = DIRECTION( '', ( 0.000000000000000, 1.00000000000000, 0.000000000000000 ) );
#285 = DIRECTION( '', ( 0.000000000000000, -0.000000000000000, 1.00000000000000 ) );
#286 = SURFACE_STYLE_FILL_AREA( #353 );
#287 = ORIENTED_EDGE( '', *, *, #348, .T. );
#288 = ORIENTED_EDGE( '', *, *, #352, .F. );
#289 = CARTESIAN_POINT( '', ( 0.000000000000000, 65.4000000000000, 0.000000000000000 ) );
#290 = DIRECTION( '', ( 0.000000000000000, -1.00000000000000, -0.000000000000000 ) );
#291 = DIRECTION( '', ( 0.000000000000000, 0.000000000000000, -1.00000000000000 ) );
#292 = SURFACE_STYLE_FILL_AREA( #354 );
#293 = ORIENTED_EDGE( '', *, *, #355, .F. );
#294 = ORIENTED_EDGE( '', *, *, #356, .T. );
#295 = CARTESIAN_POINT( '', ( 39.0000000000000, 89.1000000000000, 0.000000000000000 ) );
#296 = DIRECTION( '', ( 0.000000000000000, -1.00000000000000, -0.000000000000000 ) );
#297 = DIRECTION( '', ( 0.000000000000000, 0.000000000000000, -1.00000000000000 ) );
#298 = SURFACE_STYLE_FILL_AREA( #357 );
#299 = VERTEX_POINT( '', #358 );
#300 = ORIENTED_EDGE( '', *, *, #346, .F. );
#301 = CARTESIAN_POINT( '', ( -1.73472347597681E-15, 78.0000000000000, 0.000000000000000 ) );
#302 = DIRECTION( '', ( 0.000000000000000, -1.00000000000000, 0.000000000000000 ) );
#303 = DIRECTION( '', ( -1.00000000000000, 0.000000000000000, 0.000000000000000 ) );
#304 = SURFACE_STYLE_FILL_AREA( #359 );
#305 = ORIENTED_EDGE( '', *, *, #342, .F. );
#306 = ORIENTED_EDGE( '', *, *, #351, .T. );
#307 = CARTESIAN_POINT( '', ( 0.000000000000000, 64.4000000000000, 0.000000000000000 ) );
#308 = DIRECTION( '', ( 0.000000000000000, -1.00000000000000, -0.000000000000000 ) );
#309 = DIRECTION( '', ( 0.000000000000000, 0.000000000000000, -1.00000000000000 ) );
#310 = SURFACE_STYLE_FILL_AREA( #360 );
#311 = ORIENTED_EDGE( '', *, *, #338, .F. );
#312 = ORIENTED_EDGE( '', *, *, #345, .T. );
#313 = CARTESIAN_POINT( '', ( 18.5000000000000, 92.0000000000000, 0.000000000000000 ) );
#314 = DIRECTION( '', ( 0.000000000000000, -1.00000000000000, -0.000000000000000 ) );
#315 = DIRECTION( '', ( 0.000000000000000, 0.000000000000000, -1.00000000000000 ) );
#316 = SURFACE_STYLE_FILL_AREA( #361 );
#317 = ORIENTED_EDGE( '', *, *, #356, .F. );
#318 = ORIENTED_EDGE( '', *, *, #362, .T. );
#319 = CARTESIAN_POINT( '', ( 0.000000000000000, 0.000000000000000, 0.000000000000000 ) );
#320 = DIRECTION( '', ( -0.000000000000000, 1.00000000000000, 0.000000000000000 ) );
#321 = DIRECTION( '', ( 0.000000000000000, 0.000000000000000, -1.00000000000000 ) );
#322 = SURFACE_STYLE_FILL_AREA( #363 );
#323 = ORIENTED_EDGE( '', *, *, #355, .T. );
#324 = ORIENTED_EDGE( '', *, *, #349, .F. );
#325 = CARTESIAN_POINT( '', ( 0.000000000000000, 88.6000000000000, 0.000000000000000 ) );
#326 = DIRECTION( '', ( 0.000000000000000, -1.00000000000000, -0.000000000000000 ) );
#327 = DIRECTION( '', ( 0.000000000000000, 0.000000000000000, -1.00000000000000 ) );
#328 = SURFACE_STYLE_FILL_AREA( #364 );
#329 = ORIENTED_EDGE( '', *, *, #362, .F. );
#330 = ORIENTED_EDGE( '', *, *, #339, .T. );
#331 = CARTESIAN_POINT( '', ( 24.5000000000000, 85.6000000000000, 0.000000000000000 ) );
#332 = DIRECTION( '', ( 0.000000000000000, -1.00000000000000, -0.000000000000000 ) );
#333 = DIRECTION( '', ( 0.000000000000000, 0.000000000000000, -1.00000000000000 ) );
#334 = FILL_AREA_STYLE( '', ( #365 ) );
#335 = EDGE_CURVE( '', #366, #366, #367, .T. );
#336 = EDGE_CURVE( '', #368, #368, #369, .T. );
#337 = FILL_AREA_STYLE( '', ( #370 ) );
#338 = EDGE_CURVE( '', #371, #371, #372, .T. );
#339 = EDGE_CURVE( '', #373, #373, #374, .T. );
#340 = FILL_AREA_STYLE( '', ( #375 ) );
#341 = FILL_AREA_STYLE( '', ( #376 ) );
#342 = EDGE_CURVE( '', #377, #377, #378, .T. );
#343 = FILL_AREA_STYLE( '', ( #379 ) );
#344 = CARTESIAN_POINT( '', ( 0.000000000000000, 89.3193097694583, -20.1852683417849 ) );
#345 = EDGE_CURVE( '', #380, #380, #381, .T. );
#346 = EDGE_CURVE( '', #382, #382, #383, .T. );
#347 = FILL_AREA_STYLE( '', ( #384 ) );
#348 = EDGE_CURVE( '', #385, #385, #386, .T. );
#349 = EDGE_CURVE( '', #387, #387, #388, .T. );
#350 = FILL_AREA_STYLE( '', ( #389 ) );
#351 = EDGE_CURVE( '', #390, #390, #391, .T. );
#352 = EDGE_CURVE( '', #392, #392, #393, .T. );
#353 = FILL_AREA_STYLE( '', ( #394 ) );
#354 = FILL_AREA_STYLE( '', ( #395 ) );
#355 = EDGE_CURVE( '', #396, #396, #397, .T. );
#356 = EDGE_CURVE( '', #398, #398, #399, .T. );
#357 = FILL_AREA_STYLE( '', ( #400 ) );
#358 = CARTESIAN_POINT( '', ( -3.11245112501758E-15, 100.500000000000, 0.000000000000000 ) );
#359 = FILL_AREA_STYLE( '', ( #401 ) );
#360 = FILL_AREA_STYLE( '', ( #402 ) );
#361 = FILL_AREA_STYLE( '', ( #403 ) );
#362 = EDGE_CURVE( '', #404, #404, #405, .T. );
#363 = FILL_AREA_STYLE( '', ( #406 ) );
#364 = FILL_AREA_STYLE( '', ( #407 ) );
#365 = FILL_AREA_STYLE_COLOUR( '', #408 );
#366 = VERTEX_POINT( '', #409 );
#367 = CIRCLE( '', #410, 33.2000000000000 );
#368 = VERTEX_POINT( '', #411 );
#369 = CIRCLE( '', #412, 32.7000000000000 );
#370 = FILL_AREA_STYLE_COLOUR( '', #413 );
#371 = VERTEX_POINT( '', #414 );
#372 = CIRCLE( '', #415, 20.0000000000000 );
#373 = VERTEX_POINT( '', #416 );
#374 = CIRCLE( '', #417, 24.5000000000000 );
#375 = FILL_AREA_STYLE_COLOUR( '', #418 );
#376 = FILL_AREA_STYLE_COLOUR( '', #419 );
#377 = VERTEX_POINT( '', #420 );
#378 = CIRCLE( '', #421, 33.2000000000000 );
#379 = FILL_AREA_STYLE_COLOUR( '', #422 );
#380 = VERTEX_POINT( '', #423 );
#381 = CIRCLE( '', #424, 18.5000000000000 );
#382 = VERTEX_POINT( '', #425 );
#383 = CIRCLE( '', #426, 20.0046884278000 );
#384 = FILL_AREA_STYLE_COLOUR( '', #427 );
#385 = VERTEX_POINT( '', #428 );
#386 = CIRCLE( '', #429, 42.5000000000000 );
#387 = VERTEX_POINT( '', #430 );
#388 = CIRCLE( '', #431, 42.5000000000000 );
#389 = FILL_AREA_STYLE_COLOUR( '', #432 );
#390 = VERTEX_POINT( '', #433 );
#391 = CIRCLE( '', #434, 33.7000000000000 );
#392 = VERTEX_POINT( '', #435 );
#393 = CIRCLE( '', #436, 42.0000000000000 );
#394 = FILL_AREA_STYLE_COLOUR( '', #437 );
#395 = FILL_AREA_STYLE_COLOUR( '', #438 );
#396 = VERTEX_POINT( '', #439 );
#397 = CIRCLE( '', #440, 42.0000000000000 );
#398 = VERTEX_POINT( '', #441 );
#399 = CIRCLE( '', #442, 39.0000000000000 );
#400 = FILL_AREA_STYLE_COLOUR( '', #443 );
#401 = FILL_AREA_STYLE_COLOUR( '', #444 );
#402 = FILL_AREA_STYLE_COLOUR( '', #445 );
#403 = FILL_AREA_STYLE_COLOUR( '', #446 );
#404 = VERTEX_POINT( '', #447 );
#405 = CIRCLE( '', #448, 39.0000000000000 );
#406 = FILL_AREA_STYLE_COLOUR( '', #449 );
#407 = FILL_AREA_STYLE_COLOUR( '', #450 );
#408 = COLOUR_RGB( '', 0.689999997600000, 0.689999997600000, 0.689999997600000 );
#409 = CARTESIAN_POINT( '', ( 0.000000000000000, 0.500000000000000, -33.2000000000000 ) );
#410 = AXIS2_PLACEMENT_3D( '', #451, #452, #453 );
#411 = CARTESIAN_POINT( '', ( 0.000000000000000, -3.68628738645072E-15, -32.7000000000000 ) );
#412 = AXIS2_PLACEMENT_3D( '', #454, #455, #456 );
#413 = COLOUR_RGB( '', 0.689999997600000, 0.689999997600000, 0.689999997600000 );
#414 = CARTESIAN_POINT( '', ( 0.000000000000000, 92.0000000000000, -20.0000000000000 ) );
#415 = AXIS2_PLACEMENT_3D( '', #457, #458, #459 );
#416 = CARTESIAN_POINT( '', ( 0.000000000000000, 85.6000000000000, -24.5000000000000 ) );
#417 = AXIS2_PLACEMENT_3D( '', #460, #461, #462 );
#418 = COLOUR_RGB( '', 0.689999997600000, 0.689999997600000, 0.689999997600000 );
#419 = COLOUR_RGB( '', 0.689999997600000, 0.689999997600000, 0.689999997600000 );
#420 = CARTESIAN_POINT( '', ( 0.000000000000000, 64.4000000000000, -33.2000000000000 ) );
#421 = AXIS2_PLACEMENT_3D( '', #463, #464, #465 );
#422 = COLOUR_RGB( '', 0.689999997600000, 0.689999997600000, 0.689999997600000 );
#423 = CARTESIAN_POINT( '', ( 0.000000000000000, 92.0000000000000, -18.5000000000000 ) );
#424 = AXIS2_PLACEMENT_3D( '', #466, #467, #468 );
#425 = CARTESIAN_POINT( '', ( 20.0046884277934, 88.2986620930542, 0.000000000000000 ) );
#426 = AXIS2_PLACEMENT_3D( '', #469, #470, #471 );
#427 = COLOUR_RGB( '', 0.689999997600000, 0.689999997600000, 0.689999997600000 );
#428 = CARTESIAN_POINT( '', ( 0.000000000000000, 65.4000000000000, -42.5000000000000 ) );
#429 = AXIS2_PLACEMENT_3D( '', #472, #473, #474 );
#430 = CARTESIAN_POINT( '', ( 0.000000000000000, 88.6000000000000, -42.5000000000000 ) );
#431 = AXIS2_PLACEMENT_3D( '', #475, #476, #477 );
#432 = COLOUR_RGB( '', 0.689999997600000, 0.689999997600000, 0.689999997600000 );
#433 = CARTESIAN_POINT( '', ( 0.000000000000000, 64.9000000000000, -33.7000000000000 ) );
#434 = AXIS2_PLACEMENT_3D( '', #478, #479, #480 );
#435 = CARTESIAN_POINT( '', ( 0.000000000000000, 64.9000000000000, -42.0000000000000 ) );
#436 = AXIS2_PLACEMENT_3D( '', #481, #482, #483 );
#437 = COLOUR_RGB( '', 0.689999997600000, 0.689999997600000, 0.689999997600000 );
#438 = COLOUR_RGB( '', 0.689999997600000, 0.689999997600000, 0.689999997600000 );
#439 = CARTESIAN_POINT( '', ( 0.000000000000000, 89.1000000000000, -42.0000000000000 ) );
#440 = AXIS2_PLACEMENT_3D( '', #484, #485, #486 );
#441 = CARTESIAN_POINT( '', ( 0.000000000000000, 89.1000000000000, -39.0000000000000 ) );
#442 = AXIS2_PLACEMENT_3D( '', #487, #488, #489 );
#443 = COLOUR_RGB( '', 0.689999997600000, 0.689999997600000, 0.689999997600000 );
#444 = COLOUR_RGB( '', 0.689999997600000, 0.689999997600000, 0.689999997600000 );
#445 = COLOUR_RGB( '', 0.689999997600000, 0.689999997600000, 0.689999997600000 );
#446 = COLOUR_RGB( '', 0.689999997600000, 0.689999997600000, 0.689999997600000 );
#447 = CARTESIAN_POINT( '', ( 0.000000000000000, 85.6000000000000, -39.0000000000000 ) );
#448 = AXIS2_PLACEMENT_3D( '', #490, #491, #492 );
#449 = COLOUR_RGB( '', 0.689999997600000, 0.689999997600000, 0.689999997600000 );
#450 = COLOUR_RGB( '', 0.689999997600000, 0.689999997600000, 0.689999997600000 );
#451 = CARTESIAN_POINT( '', ( 0.000000000000000, 0.500000000000000, 0.000000000000000 ) );
#452 = DIRECTION( '', ( 0.000000000000000, -1.00000000000000, -0.000000000000000 ) );
#453 = DIRECTION( '', ( 0.000000000000000, 0.000000000000000, -1.00000000000000 ) );
#454 = CARTESIAN_POINT( '', ( 0.000000000000000, -3.68628738645072E-15, 0.000000000000000 ) );
#455 = DIRECTION( '', ( 0.000000000000000, -1.00000000000000, -0.000000000000000 ) );
#456 = DIRECTION( '', ( 0.000000000000000, 0.000000000000000, -1.00000000000000 ) );
#457 = CARTESIAN_POINT( '', ( 0.000000000000000, 92.0000000000000, 0.000000000000000 ) );
#458 = DIRECTION( '', ( 0.000000000000000, -1.00000000000000, -0.000000000000000 ) );
#459 = DIRECTION( '', ( 0.000000000000000, 0.000000000000000, -1.00000000000000 ) );
#460 = CARTESIAN_POINT( '', ( 0.000000000000000, 85.6000000000000, 0.000000000000000 ) );
#461 = DIRECTION( '', ( 0.000000000000000, -1.00000000000000, -0.000000000000000 ) );
#462 = DIRECTION( '', ( 0.000000000000000, 0.000000000000000, -1.00000000000000 ) );
#463 = CARTESIAN_POINT( '', ( 0.000000000000000, 64.4000000000000, 0.000000000000000 ) );
#464 = DIRECTION( '', ( 0.000000000000000, -1.00000000000000, -0.000000000000000 ) );
#465 = DIRECTION( '', ( 0.000000000000000, 0.000000000000000, -1.00000000000000 ) );
#466 = CARTESIAN_POINT( '', ( 0.000000000000000, 92.0000000000000, 0.000000000000000 ) );
#467 = DIRECTION( '', ( 0.000000000000000, -1.00000000000000, -0.000000000000000 ) );
#468 = DIRECTION( '', ( 0.000000000000000, 0.000000000000000, -1.00000000000000 ) );
#469 = CARTESIAN_POINT( '', ( -7.82088979372520E-17, 88.2986620930542, 0.000000000000000 ) );
#470 = DIRECTION( '', ( -7.66267339311376E-17, -1.00000000000000, 0.000000000000000 ) );
#471 = DIRECTION( '', ( 1.00000000000000, -7.66267339311376E-17, 0.000000000000000 ) );
#472 = CARTESIAN_POINT( '', ( 0.000000000000000, 65.4000000000000, 0.000000000000000 ) );
#473 = DIRECTION( '', ( 0.000000000000000, -1.00000000000000, -0.000000000000000 ) );
#474 = DIRECTION( '', ( 0.000000000000000, 0.000000000000000, -1.00000000000000 ) );
#475 = CARTESIAN_POINT( '', ( 0.000000000000000, 88.6000000000000, 0.000000000000000 ) );
#476 = DIRECTION( '', ( 0.000000000000000, -1.00000000000000, -0.000000000000000 ) );
#477 = DIRECTION( '', ( 0.000000000000000, 0.000000000000000, -1.00000000000000 ) );
#478 = CARTESIAN_POINT( '', ( 0.000000000000000, 64.9000000000000, 0.000000000000000 ) );
#479 = DIRECTION( '', ( 0.000000000000000, -1.00000000000000, -0.000000000000000 ) );
#480 = DIRECTION( '', ( 0.000000000000000, 0.000000000000000, -1.00000000000000 ) );
#481 = CARTESIAN_POINT( '', ( 0.000000000000000, 64.9000000000000, 0.000000000000000 ) );
#482 = DIRECTION( '', ( 0.000000000000000, -1.00000000000000, -0.000000000000000 ) );
#483 = DIRECTION( '', ( 0.000000000000000, 0.000000000000000, -1.00000000000000 ) );
#484 = CARTESIAN_POINT( '', ( 0.000000000000000, 89.1000000000000, 0.000000000000000 ) );
#485 = DIRECTION( '', ( 0.000000000000000, -1.00000000000000, -0.000000000000000 ) );
#486 = DIRECTION( '', ( 0.000000000000000, 0.000000000000000, -1.00000000000000 ) );
#487 = CARTESIAN_POINT( '', ( 0.000000000000000, 89.1000000000000, 0.000000000000000 ) );
#488 = DIRECTION( '', ( 0.000000000000000, -1.00000000000000, -0.000000000000000 ) );
#489 = DIRECTION( '', ( 0.000000000000000, 0.000000000000000, -1.00000000000000 ) );
#490 = CARTESIAN_POINT( '', ( 0.000000000000000, 85.6000000000000, 0.000000000000000 ) );
#491 = DIRECTION( '', ( 0.000000000000000, -1.00000000000000, -0.000000000000000 ) );
#492 = DIRECTION( '', ( 0.000000000000000, 0.000000000000000, -1.00000000000000 ) );
ENDSEC;
END-ISO-10303-21;
