ISO-10303-21;
HEADER;
FILE_DESCRIPTION( ( 'STEP AP214' ), '1' );
FILE_NAME( '//goodhand-server/Shared Folders/GoodHand Data/Kipp CAD/K1129/K1129.2001415.stp', '2020-12-10T10:17:27', ( '' ), ( '' ), ' ', 'PARTsolutions', ' ' );
FILE_SCHEMA( ( 'AUTOMOTIVE_DESIGN { 1 0 10303 214 1 1 1 1 }' ) );
ENDSEC;
DATA;
#1 = MECHANICAL_DESIGN_GEOMETRIC_PRESENTATION_REPRESENTATION( ' ', ( #10, #11, #12, #13, #14, #15, #16, #17, #18, #19, #20, #21 ), #6 );
#2 = PRODUCT_DEFINITION_CONTEXT( '', #22, 'design' );
#3 = APPLICATION_PROTOCOL_DEFINITION( 'international standard', 'automotive_design', 2001, #22 );
#4 = PRODUCT_CATEGORY_RELATIONSHIP( 'NONE', 'NONE', #23, #24 );
#5 = SHAPE_DEFINITION_REPRESENTATION( #25, #26 );
#6 =  ( GEOMETRIC_REPRESENTATION_CONTEXT( 3 )GLOBAL_UNCERTAINTY_ASSIGNED_CONTEXT( ( #29 ) )GLOBAL_UNIT_ASSIGNED_CONTEXT( ( #31, #32, #33 ) )REPRESENTATION_CONTEXT( 'NONE', 'WORKSPACE' ) );
#10 = STYLED_ITEM( '', ( #35 ), #36 );
#11 = STYLED_ITEM( '', ( #37 ), #38 );
#12 = STYLED_ITEM( '', ( #39 ), #40 );
#13 = STYLED_ITEM( '', ( #41 ), #42 );
#14 = STYLED_ITEM( '', ( #43 ), #44 );
#15 = STYLED_ITEM( '', ( #45 ), #46 );
#16 = STYLED_ITEM( '', ( #47 ), #48 );
#17 = STYLED_ITEM( '', ( #49 ), #50 );
#18 = STYLED_ITEM( '', ( #51 ), #52 );
#19 = STYLED_ITEM( '', ( #53 ), #54 );
#20 = STYLED_ITEM( '', ( #55 ), #56 );
#21 = STYLED_ITEM( '', ( #57 ), #58 );
#22 = APPLICATION_CONTEXT( 'core data for automotive mechanical design processes' );
#23 = PRODUCT_CATEGORY( 'part', 'NONE' );
#24 = PRODUCT_RELATED_PRODUCT_CATEGORY( 'detail', ' ', ( #59 ) );
#25 = PRODUCT_DEFINITION_SHAPE( 'NONE', 'NONE', #60 );
#26 = ADVANCED_BREP_SHAPE_REPRESENTATION( '_K1129.2001415', ( #61, #62 ), #6 );
#29 = UNCERTAINTY_MEASURE_WITH_UNIT( LENGTH_MEASURE( 0.00100000000000000 ), #31, '', '' );
#31 =  ( CONVERSION_BASED_UNIT( 'MILLIMETRE', #65 )LENGTH_UNIT(  )NAMED_UNIT( #68 ) );
#32 =  ( NAMED_UNIT( #70 )PLANE_ANGLE_UNIT(  )SI_UNIT( $, .RADIAN. ) );
#33 =  ( NAMED_UNIT( #70 )SI_UNIT( $, .STERADIAN. )SOLID_ANGLE_UNIT(  ) );
#35 = PRESENTATION_STYLE_ASSIGNMENT( ( #76 ) );
#36 = ADVANCED_FACE( '', ( #77 ), #78, .T. );
#37 = PRESENTATION_STYLE_ASSIGNMENT( ( #79 ) );
#38 = ADVANCED_FACE( '', ( #80, #81 ), #82, .T. );
#39 = PRESENTATION_STYLE_ASSIGNMENT( ( #83 ) );
#40 = ADVANCED_FACE( '', ( #84 ), #85, .F. );
#41 = PRESENTATION_STYLE_ASSIGNMENT( ( #86 ) );
#42 = ADVANCED_FACE( '', ( #87 ), #88, .T. );
#43 = PRESENTATION_STYLE_ASSIGNMENT( ( #89 ) );
#44 = ADVANCED_FACE( '', ( #90, #91 ), #92, .F. );
#45 = PRESENTATION_STYLE_ASSIGNMENT( ( #93 ) );
#46 = ADVANCED_FACE( '', ( #94, #95 ), #96, .T. );
#47 = PRESENTATION_STYLE_ASSIGNMENT( ( #97 ) );
#48 = ADVANCED_FACE( '', ( #98 ), #99, .F. );
#49 = PRESENTATION_STYLE_ASSIGNMENT( ( #100 ) );
#50 = ADVANCED_FACE( '', ( #101 ), #102, .T. );
#51 = PRESENTATION_STYLE_ASSIGNMENT( ( #103 ) );
#52 = ADVANCED_FACE( '', ( #104 ), #105, .T. );
#53 = PRESENTATION_STYLE_ASSIGNMENT( ( #106 ) );
#54 = ADVANCED_FACE( '', ( #107 ), #108, .T. );
#55 = PRESENTATION_STYLE_ASSIGNMENT( ( #109 ) );
#56 = ADVANCED_FACE( '', ( #110 ), #111, .T. );
#57 = PRESENTATION_STYLE_ASSIGNMENT( ( #112 ) );
#58 = ADVANCED_FACE( '', ( #113, #114 ), #115, .T. );
#59 = PRODUCT( '_K1129.2001415', '_K1129.2001415', 'PART-_K1129.2001415-DESC', ( #116 ) );
#60 = PRODUCT_DEFINITION( 'NONE', 'NONE', #117, #2 );
#61 = MANIFOLD_SOLID_BREP( '_K1129.2001415', #118 );
#62 = AXIS2_PLACEMENT_3D( '', #119, #120, #121 );
#65 = LENGTH_MEASURE_WITH_UNIT( LENGTH_MEASURE( 1.00000000000000 ), #122 );
#68 = DIMENSIONAL_EXPONENTS( 1.00000000000000, 0.000000000000000, 0.000000000000000, 0.000000000000000, 0.000000000000000, 0.000000000000000, 0.000000000000000 );
#70 = DIMENSIONAL_EXPONENTS( 0.000000000000000, 0.000000000000000, 0.000000000000000, 0.000000000000000, 0.000000000000000, 0.000000000000000, 0.000000000000000 );
#76 = SURFACE_STYLE_USAGE( .BOTH., #123 );
#77 = FACE_OUTER_BOUND( '', #124, .T. );
#78 = PLANE( '', #125 );
#79 = SURFACE_STYLE_USAGE( .BOTH., #126 );
#80 = FACE_BOUND( '', #127, .T. );
#81 = FACE_OUTER_BOUND( '', #128, .T. );
#82 = CONICAL_SURFACE( '', #129, 6.71992595070000, 0.0314159265000000 );
#83 = SURFACE_STYLE_USAGE( .BOTH., #130 );
#84 = FACE_OUTER_BOUND( '', #131, .T. );
#85 = PLANE( '', #132 );
#86 = SURFACE_STYLE_USAGE( .BOTH., #133 );
#87 = FACE_OUTER_BOUND( '', #134, .T. );
#88 = PLANE( '', #135 );
#89 = SURFACE_STYLE_USAGE( .BOTH., #136 );
#90 = FACE_OUTER_BOUND( '', #137, .T. );
#91 = FACE_BOUND( '', #138, .T. );
#92 = PLANE( '', #139 );
#93 = SURFACE_STYLE_USAGE( .BOTH., #140 );
#94 = FACE_BOUND( '', #141, .T. );
#95 = FACE_OUTER_BOUND( '', #142, .T. );
#96 = CONICAL_SURFACE( '', #143, 6.43707404930000, 0.801106126700000 );
#97 = SURFACE_STYLE_USAGE( .BOTH., #144 );
#98 = FACE_OUTER_BOUND( '', #145, .T. );
#99 = PLANE( '', #146 );
#100 = SURFACE_STYLE_USAGE( .BOTH., #147 );
#101 = FACE_OUTER_BOUND( '', #148, .T. );
#102 = PLANE( '', #149 );
#103 = SURFACE_STYLE_USAGE( .BOTH., #150 );
#104 = FACE_OUTER_BOUND( '', #151, .T. );
#105 = PLANE( '', #152 );
#106 = SURFACE_STYLE_USAGE( .BOTH., #153 );
#107 = FACE_OUTER_BOUND( '', #154, .T. );
#108 = PLANE( '', #155 );
#109 = SURFACE_STYLE_USAGE( .BOTH., #156 );
#110 = FACE_OUTER_BOUND( '', #157, .T. );
#111 = PLANE( '', #158 );
#112 = SURFACE_STYLE_USAGE( .BOTH., #159 );
#113 = FACE_OUTER_BOUND( '', #160, .T. );
#114 = FACE_BOUND( '', #161, .T. );
#115 = CONICAL_SURFACE( '', #162, 6.23563133020000, 0.769690200100000 );
#116 = PRODUCT_CONTEXT( '', #22, 'mechanical' );
#117 = PRODUCT_DEFINITION_FORMATION_WITH_SPECIFIED_SOURCE( ' ', 'NONE', #59, .NOT_KNOWN. );
#118 = CLOSED_SHELL( '', ( #58, #44, #54, #36, #52, #40, #46, #38, #42, #56, #50, #48 ) );
#119 = CARTESIAN_POINT( '', ( 0.000000000000000, 0.000000000000000, 0.000000000000000 ) );
#120 = DIRECTION( '', ( 0.000000000000000, 0.000000000000000, 1.00000000000000 ) );
#121 = DIRECTION( '', ( 1.00000000000000, 0.000000000000000, 0.000000000000000 ) );
#122 =  ( LENGTH_UNIT(  )NAMED_UNIT( #68 )SI_UNIT( .MILLI., .METRE. ) );
#123 = SURFACE_SIDE_STYLE( '', ( #164 ) );
#124 = EDGE_LOOP( '', ( #165, #166, #167, #168 ) );
#125 = AXIS2_PLACEMENT_3D( '', #169, #170, #171 );
#126 = SURFACE_SIDE_STYLE( '', ( #172 ) );
#127 = EDGE_LOOP( '', ( #173 ) );
#128 = EDGE_LOOP( '', ( #174 ) );
#129 = AXIS2_PLACEMENT_3D( '', #175, #176, #177 );
#130 = SURFACE_SIDE_STYLE( '', ( #178 ) );
#131 = EDGE_LOOP( '', ( #179 ) );
#132 = AXIS2_PLACEMENT_3D( '', #180, #181, #182 );
#133 = SURFACE_SIDE_STYLE( '', ( #183 ) );
#134 = EDGE_LOOP( '', ( #184, #185, #186, #187 ) );
#135 = AXIS2_PLACEMENT_3D( '', #188, #189, #190 );
#136 = SURFACE_SIDE_STYLE( '', ( #191 ) );
#137 = EDGE_LOOP( '', ( #192 ) );
#138 = EDGE_LOOP( '', ( #193, #194, #195, #196, #197, #198 ) );
#139 = AXIS2_PLACEMENT_3D( '', #199, #200, #201 );
#140 = SURFACE_SIDE_STYLE( '', ( #202 ) );
#141 = EDGE_LOOP( '', ( #203 ) );
#142 = EDGE_LOOP( '', ( #204 ) );
#143 = AXIS2_PLACEMENT_3D( '', #205, #206, #207 );
#144 = SURFACE_SIDE_STYLE( '', ( #208 ) );
#145 = EDGE_LOOP( '', ( #209, #210, #211, #212, #213, #214 ) );
#146 = AXIS2_PLACEMENT_3D( '', #215, #216, #217 );
#147 = SURFACE_SIDE_STYLE( '', ( #218 ) );
#148 = EDGE_LOOP( '', ( #219, #220, #221, #222 ) );
#149 = AXIS2_PLACEMENT_3D( '', #223, #224, #225 );
#150 = SURFACE_SIDE_STYLE( '', ( #226 ) );
#151 = EDGE_LOOP( '', ( #227, #228, #229, #230 ) );
#152 = AXIS2_PLACEMENT_3D( '', #231, #232, #233 );
#153 = SURFACE_SIDE_STYLE( '', ( #234 ) );
#154 = EDGE_LOOP( '', ( #235, #236, #237, #238 ) );
#155 = AXIS2_PLACEMENT_3D( '', #239, #240, #241 );
#156 = SURFACE_SIDE_STYLE( '', ( #242 ) );
#157 = EDGE_LOOP( '', ( #243, #244, #245, #246 ) );
#158 = AXIS2_PLACEMENT_3D( '', #247, #248, #249 );
#159 = SURFACE_SIDE_STYLE( '', ( #250 ) );
#160 = EDGE_LOOP( '', ( #251 ) );
#161 = EDGE_LOOP( '', ( #252 ) );
#162 = AXIS2_PLACEMENT_3D( '', #253, #254, #255 );
#164 = SURFACE_STYLE_FILL_AREA( #256 );
#165 = ORIENTED_EDGE( '', *, *, #257, .F. );
#166 = ORIENTED_EDGE( '', *, *, #258, .F. );
#167 = ORIENTED_EDGE( '', *, *, #259, .T. );
#168 = ORIENTED_EDGE( '', *, *, #260, .T. );
#169 = CARTESIAN_POINT( '', ( 5.00000000000000, -4.04145188432738, 0.000000000000000 ) );
#170 = DIRECTION( '', ( -0.000000000000000, 0.866025403784439, 0.500000000000000 ) );
#171 = DIRECTION( '', ( 0.000000000000000, -0.500000000000000, 0.866025403784439 ) );
#172 = SURFACE_STYLE_FILL_AREA( #261 );
#173 = ORIENTED_EDGE( '', *, *, #262, .F. );
#174 = ORIENTED_EDGE( '', *, *, #263, .T. );
#175 = CARTESIAN_POINT( '', ( 0.499753280182867, 0.000000000000000, 0.000000000000000 ) );
#176 = DIRECTION( '', ( -1.00000000000000, 0.000000000000000, -0.000000000000000 ) );
#177 = DIRECTION( '', ( 0.000000000000000, 0.000000000000000, 1.00000000000000 ) );
#178 = SURFACE_STYLE_FILL_AREA( #264 );
#179 = ORIENTED_EDGE( '', *, *, #265, .T. );
#180 = CARTESIAN_POINT( '', ( 10.0000000000000, 5.92136866978324, 0.000000000000000 ) );
#181 = DIRECTION( '', ( -1.00000000000000, 0.000000000000000, 0.000000000000000 ) );
#182 = DIRECTION( '', ( 0.000000000000000, 0.000000000000000, 1.00000000000000 ) );
#183 = SURFACE_STYLE_FILL_AREA( #266 );
#184 = ORIENTED_EDGE( '', *, *, #267, .F. );
#185 = ORIENTED_EDGE( '', *, *, #260, .F. );
#186 = ORIENTED_EDGE( '', *, *, #268, .T. );
#187 = ORIENTED_EDGE( '', *, *, #269, .T. );
#188 = CARTESIAN_POINT( '', ( 5.00000000000000, -2.02072594216369, -3.50000000000000 ) );
#189 = DIRECTION( '', ( 0.000000000000000, 0.000000000000000, 1.00000000000000 ) );
#190 = DIRECTION( '', ( 1.00000000000000, 0.000000000000000, -0.000000000000000 ) );
#191 = SURFACE_STYLE_FILL_AREA( #270 );
#192 = ORIENTED_EDGE( '', *, *, #271, .F. );
#193 = ORIENTED_EDGE( '', *, *, #272, .T. );
#194 = ORIENTED_EDGE( '', *, *, #273, .T. );
#195 = ORIENTED_EDGE( '', *, *, #257, .T. );
#196 = ORIENTED_EDGE( '', *, *, #267, .T. );
#197 = ORIENTED_EDGE( '', *, *, #274, .T. );
#198 = ORIENTED_EDGE( '', *, *, #275, .T. );
#199 = CARTESIAN_POINT( '', ( 8.22247078140822E-16, 0.000000000000000, 0.000000000000000 ) );
#200 = DIRECTION( '', ( 1.00000000000000, 0.000000000000000, -0.000000000000000 ) );
#201 = DIRECTION( '', ( -0.000000000000000, 0.000000000000000, -1.00000000000000 ) );
#202 = SURFACE_STYLE_FILL_AREA( #276 );
#203 = ORIENTED_EDGE( '', *, *, #265, .F. );
#204 = ORIENTED_EDGE( '', *, *, #262, .T. );
#205 = CARTESIAN_POINT( '', ( 9.50024671981713, 0.000000000000000, 0.000000000000000 ) );
#206 = DIRECTION( '', ( -1.00000000000000, 0.000000000000000, -0.000000000000000 ) );
#207 = DIRECTION( '', ( 0.000000000000000, 0.000000000000000, 1.00000000000000 ) );
#208 = SURFACE_STYLE_FILL_AREA( #277 );
#209 = ORIENTED_EDGE( '', *, *, #278, .F. );
#210 = ORIENTED_EDGE( '', *, *, #279, .F. );
#211 = ORIENTED_EDGE( '', *, *, #280, .F. );
#212 = ORIENTED_EDGE( '', *, *, #268, .F. );
#213 = ORIENTED_EDGE( '', *, *, #259, .F. );
#214 = ORIENTED_EDGE( '', *, *, #281, .F. );
#215 = CARTESIAN_POINT( '', ( 5.00000000000000, 0.000000000000000, 0.000000000000000 ) );
#216 = DIRECTION( '', ( 1.00000000000000, 0.000000000000000, 0.000000000000000 ) );
#217 = DIRECTION( '', ( 0.000000000000000, 0.000000000000000, -1.00000000000000 ) );
#218 = SURFACE_STYLE_FILL_AREA( #282 );
#219 = ORIENTED_EDGE( '', *, *, #275, .F. );
#220 = ORIENTED_EDGE( '', *, *, #283, .F. );
#221 = ORIENTED_EDGE( '', *, *, #279, .T. );
#222 = ORIENTED_EDGE( '', *, *, #284, .T. );
#223 = CARTESIAN_POINT( '', ( 5.00000000000000, 4.04145188432738, 0.000000000000000 ) );
#224 = DIRECTION( '', ( 0.000000000000000, -0.866025403784439, -0.500000000000000 ) );
#225 = DIRECTION( '', ( 0.000000000000000, 0.500000000000000, -0.866025403784439 ) );
#226 = SURFACE_STYLE_FILL_AREA( #285 );
#227 = ORIENTED_EDGE( '', *, *, #272, .F. );
#228 = ORIENTED_EDGE( '', *, *, #284, .F. );
#229 = ORIENTED_EDGE( '', *, *, #278, .T. );
#230 = ORIENTED_EDGE( '', *, *, #286, .T. );
#231 = CARTESIAN_POINT( '', ( 5.00000000000000, 2.02072594216369, 3.50000000000000 ) );
#232 = DIRECTION( '', ( 0.000000000000000, 0.000000000000000, -1.00000000000000 ) );
#233 = DIRECTION( '', ( -1.00000000000000, 0.000000000000000, 0.000000000000000 ) );
#234 = SURFACE_STYLE_FILL_AREA( #287 );
#235 = ORIENTED_EDGE( '', *, *, #273, .F. );
#236 = ORIENTED_EDGE( '', *, *, #286, .F. );
#237 = ORIENTED_EDGE( '', *, *, #281, .T. );
#238 = ORIENTED_EDGE( '', *, *, #258, .T. );
#239 = CARTESIAN_POINT( '', ( 5.00000000000000, -2.02072594216369, 3.50000000000000 ) );
#240 = DIRECTION( '', ( 0.000000000000000, 0.866025403784439, -0.500000000000000 ) );
#241 = DIRECTION( '', ( 0.000000000000000, 0.500000000000000, 0.866025403784439 ) );
#242 = SURFACE_STYLE_FILL_AREA( #288 );
#243 = ORIENTED_EDGE( '', *, *, #274, .F. );
#244 = ORIENTED_EDGE( '', *, *, #269, .F. );
#245 = ORIENTED_EDGE( '', *, *, #280, .T. );
#246 = ORIENTED_EDGE( '', *, *, #283, .T. );
#247 = CARTESIAN_POINT( '', ( 5.00000000000000, 2.02072594216369, -3.50000000000000 ) );
#248 = DIRECTION( '', ( 0.000000000000000, -0.866025403784439, 0.500000000000000 ) );
#249 = DIRECTION( '', ( 0.000000000000000, -0.500000000000000, -0.866025403784439 ) );
#250 = SURFACE_STYLE_FILL_AREA( #289 );
#251 = ORIENTED_EDGE( '', *, *, #263, .F. );
#252 = ORIENTED_EDGE( '', *, *, #271, .T. );
#253 = CARTESIAN_POINT( '', ( 1.73472347597681E-15, 0.000000000000000, 0.000000000000000 ) );
#254 = DIRECTION( '', ( 1.00000000000000, -0.000000000000000, -0.000000000000000 ) );
#255 = DIRECTION( '', ( -0.000000000000000, 0.000000000000000, -1.00000000000000 ) );
#256 = FILL_AREA_STYLE( '', ( #290 ) );
#257 = EDGE_CURVE( '', #291, #292, #293, .T. );
#258 = EDGE_CURVE( '', #294, #291, #295, .T. );
#259 = EDGE_CURVE( '', #294, #296, #297, .T. );
#260 = EDGE_CURVE( '', #296, #292, #298, .T. );
#261 = FILL_AREA_STYLE( '', ( #299 ) );
#262 = EDGE_CURVE( '', #300, #300, #301, .T. );
#263 = EDGE_CURVE( '', #302, #302, #303, .T. );
#264 = FILL_AREA_STYLE( '', ( #304 ) );
#265 = EDGE_CURVE( '', #305, #305, #306, .T. );
#266 = FILL_AREA_STYLE( '', ( #307 ) );
#267 = EDGE_CURVE( '', #292, #308, #309, .T. );
#268 = EDGE_CURVE( '', #296, #310, #311, .T. );
#269 = EDGE_CURVE( '', #310, #308, #312, .T. );
#270 = FILL_AREA_STYLE( '', ( #313 ) );
#271 = EDGE_CURVE( '', #314, #314, #315, .T. );
#272 = EDGE_CURVE( '', #316, #317, #318, .T. );
#273 = EDGE_CURVE( '', #317, #291, #319, .T. );
#274 = EDGE_CURVE( '', #308, #320, #321, .T. );
#275 = EDGE_CURVE( '', #320, #316, #322, .T. );
#276 = FILL_AREA_STYLE( '', ( #323 ) );
#277 = FILL_AREA_STYLE( '', ( #324 ) );
#278 = EDGE_CURVE( '', #325, #326, #327, .T. );
#279 = EDGE_CURVE( '', #328, #325, #329, .T. );
#280 = EDGE_CURVE( '', #310, #328, #330, .T. );
#281 = EDGE_CURVE( '', #326, #294, #331, .T. );
#282 = FILL_AREA_STYLE( '', ( #332 ) );
#283 = EDGE_CURVE( '', #328, #320, #333, .T. );
#284 = EDGE_CURVE( '', #325, #316, #334, .T. );
#285 = FILL_AREA_STYLE( '', ( #335 ) );
#286 = EDGE_CURVE( '', #326, #317, #336, .T. );
#287 = FILL_AREA_STYLE( '', ( #337 ) );
#288 = FILL_AREA_STYLE( '', ( #338 ) );
#289 = FILL_AREA_STYLE( '', ( #339 ) );
#290 = FILL_AREA_STYLE_COLOUR( '', #340 );
#291 = VERTEX_POINT( '', #341 );
#292 = VERTEX_POINT( '', #342 );
#293 = LINE( '', #343, #344 );
#294 = VERTEX_POINT( '', #345 );
#295 = LINE( '', #346, #347 );
#296 = VERTEX_POINT( '', #348 );
#297 = LINE( '', #349, #350 );
#298 = LINE( '', #351, #352 );
#299 = FILL_AREA_STYLE_COLOUR( '', #353 );
#300 = VERTEX_POINT( '', #354 );
#301 = CIRCLE( '', #355, 6.43707404930000 );
#302 = VERTEX_POINT( '', #356 );
#303 = CIRCLE( '', #357, 6.71992595070000 );
#304 = FILL_AREA_STYLE_COLOUR( '', #358 );
#305 = VERTEX_POINT( '', #359 );
#306 = CIRCLE( '', #360, 5.92136866980000 );
#307 = FILL_AREA_STYLE_COLOUR( '', #361 );
#308 = VERTEX_POINT( '', #362 );
#309 = LINE( '', #363, #364 );
#310 = VERTEX_POINT( '', #365 );
#311 = LINE( '', #366, #367 );
#312 = LINE( '', #368, #369 );
#313 = FILL_AREA_STYLE_COLOUR( '', #370 );
#314 = VERTEX_POINT( '', #371 );
#315 = CIRCLE( '', #372, 6.23563133020000 );
#316 = VERTEX_POINT( '', #373 );
#317 = VERTEX_POINT( '', #374 );
#318 = LINE( '', #375, #376 );
#319 = LINE( '', #377, #378 );
#320 = VERTEX_POINT( '', #379 );
#321 = LINE( '', #380, #381 );
#322 = LINE( '', #382, #383 );
#323 = FILL_AREA_STYLE_COLOUR( '', #384 );
#324 = FILL_AREA_STYLE_COLOUR( '', #385 );
#325 = VERTEX_POINT( '', #386 );
#326 = VERTEX_POINT( '', #387 );
#327 = LINE( '', #388, #389 );
#328 = VERTEX_POINT( '', #390 );
#329 = LINE( '', #391, #392 );
#330 = LINE( '', #393, #394 );
#331 = LINE( '', #395, #396 );
#332 = FILL_AREA_STYLE_COLOUR( '', #397 );
#333 = LINE( '', #398, #399 );
#334 = LINE( '', #400, #401 );
#335 = FILL_AREA_STYLE_COLOUR( '', #402 );
#336 = LINE( '', #403, #404 );
#337 = FILL_AREA_STYLE_COLOUR( '', #405 );
#338 = FILL_AREA_STYLE_COLOUR( '', #406 );
#339 = FILL_AREA_STYLE_COLOUR( '', #407 );
#340 = COLOUR_RGB( '', 0.689999997600000, 0.689999997600000, 0.689999997600000 );
#341 = CARTESIAN_POINT( '', ( 0.000000000000000, -4.04145188432738, 0.000000000000000 ) );
#342 = CARTESIAN_POINT( '', ( 0.000000000000000, -2.02072594216369, -3.50000000000000 ) );
#343 = CARTESIAN_POINT( '', ( 0.000000000000000, -4.04145188432738, 0.000000000000000 ) );
#344 = VECTOR( '', #408, 1000.00000000000 );
#345 = CARTESIAN_POINT( '', ( 5.00000000000000, -4.04145188432738, 0.000000000000000 ) );
#346 = CARTESIAN_POINT( '', ( 5.00000000000000, -4.04145188432738, 0.000000000000000 ) );
#347 = VECTOR( '', #409, 1000.00000000000 );
#348 = CARTESIAN_POINT( '', ( 5.00000000000000, -2.02072594216369, -3.50000000000000 ) );
#349 = CARTESIAN_POINT( '', ( 5.00000000000000, -4.04145188432738, 0.000000000000000 ) );
#350 = VECTOR( '', #410, 1000.00000000000 );
#351 = CARTESIAN_POINT( '', ( 5.00000000000000, -2.02072594216369, -3.50000000000000 ) );
#352 = VECTOR( '', #411, 1000.00000000000 );
#353 = COLOUR_RGB( '', 0.689999997600000, 0.689999997600000, 0.689999997600000 );
#354 = CARTESIAN_POINT( '', ( 9.50024671981713, 0.000000000000000, -6.43707404932231 ) );
#355 = AXIS2_PLACEMENT_3D( '', #412, #413, #414 );
#356 = CARTESIAN_POINT( '', ( 0.499753280182867, 0.000000000000000, -6.71992595067769 ) );
#357 = AXIS2_PLACEMENT_3D( '', #415, #416, #417 );
#358 = COLOUR_RGB( '', 0.689999997600000, 0.689999997600000, 0.689999997600000 );
#359 = CARTESIAN_POINT( '', ( 10.0000000000000, 0.000000000000000, -5.92136866978324 ) );
#360 = AXIS2_PLACEMENT_3D( '', #418, #419, #420 );
#361 = COLOUR_RGB( '', 0.689999997600000, 0.689999997600000, 0.689999997600000 );
#362 = CARTESIAN_POINT( '', ( 0.000000000000000, 2.02072594216369, -3.50000000000000 ) );
#363 = CARTESIAN_POINT( '', ( 0.000000000000000, -2.02072594216369, -3.50000000000000 ) );
#364 = VECTOR( '', #421, 1000.00000000000 );
#365 = CARTESIAN_POINT( '', ( 5.00000000000000, 2.02072594216369, -3.50000000000000 ) );
#366 = CARTESIAN_POINT( '', ( 5.00000000000000, -2.02072594216369, -3.50000000000000 ) );
#367 = VECTOR( '', #422, 1000.00000000000 );
#368 = CARTESIAN_POINT( '', ( 5.00000000000000, 2.02072594216369, -3.50000000000000 ) );
#369 = VECTOR( '', #423, 1000.00000000000 );
#370 = COLOUR_RGB( '', 0.689999997600000, 0.689999997600000, 0.689999997600000 );
#371 = CARTESIAN_POINT( '', ( 1.73472347597681E-15, 0.000000000000000, -6.23563133021676 ) );
#372 = AXIS2_PLACEMENT_3D( '', #424, #425, #426 );
#373 = CARTESIAN_POINT( '', ( 8.22247078140822E-16, 2.02072594216369, 3.50000000000000 ) );
#374 = CARTESIAN_POINT( '', ( 0.000000000000000, -2.02072594216369, 3.50000000000000 ) );
#375 = CARTESIAN_POINT( '', ( 0.000000000000000, 2.02072594216369, 3.50000000000000 ) );
#376 = VECTOR( '', #427, 1000.00000000000 );
#377 = CARTESIAN_POINT( '', ( 0.000000000000000, -2.02072594216369, 3.50000000000000 ) );
#378 = VECTOR( '', #428, 1000.00000000000 );
#379 = CARTESIAN_POINT( '', ( 0.000000000000000, 4.04145188432738, 0.000000000000000 ) );
#380 = CARTESIAN_POINT( '', ( 0.000000000000000, 2.02072594216369, -3.50000000000000 ) );
#381 = VECTOR( '', #429, 1000.00000000000 );
#382 = CARTESIAN_POINT( '', ( 0.000000000000000, 4.04145188432738, 0.000000000000000 ) );
#383 = VECTOR( '', #430, 1000.00000000000 );
#384 = COLOUR_RGB( '', 0.689999997600000, 0.689999997600000, 0.689999997600000 );
#385 = COLOUR_RGB( '', 0.689999997600000, 0.689999997600000, 0.689999997600000 );
#386 = CARTESIAN_POINT( '', ( 5.00000000000000, 2.02072594216369, 3.50000000000000 ) );
#387 = CARTESIAN_POINT( '', ( 5.00000000000000, -2.02072594216369, 3.50000000000000 ) );
#388 = CARTESIAN_POINT( '', ( 5.00000000000000, 2.02072594216369, 3.50000000000000 ) );
#389 = VECTOR( '', #431, 1000.00000000000 );
#390 = CARTESIAN_POINT( '', ( 5.00000000000000, 4.04145188432738, 0.000000000000000 ) );
#391 = CARTESIAN_POINT( '', ( 5.00000000000000, 4.04145188432738, 0.000000000000000 ) );
#392 = VECTOR( '', #432, 1000.00000000000 );
#393 = CARTESIAN_POINT( '', ( 5.00000000000000, 2.02072594216369, -3.50000000000000 ) );
#394 = VECTOR( '', #433, 1000.00000000000 );
#395 = CARTESIAN_POINT( '', ( 5.00000000000000, -2.02072594216369, 3.50000000000000 ) );
#396 = VECTOR( '', #434, 1000.00000000000 );
#397 = COLOUR_RGB( '', 0.689999997600000, 0.689999997600000, 0.689999997600000 );
#398 = CARTESIAN_POINT( '', ( 5.00000000000000, 4.04145188432738, 0.000000000000000 ) );
#399 = VECTOR( '', #435, 1000.00000000000 );
#400 = CARTESIAN_POINT( '', ( 5.00000000000000, 2.02072594216369, 3.50000000000000 ) );
#401 = VECTOR( '', #436, 1000.00000000000 );
#402 = COLOUR_RGB( '', 0.689999997600000, 0.689999997600000, 0.689999997600000 );
#403 = CARTESIAN_POINT( '', ( 5.00000000000000, -2.02072594216369, 3.50000000000000 ) );
#404 = VECTOR( '', #437, 1000.00000000000 );
#405 = COLOUR_RGB( '', 0.689999997600000, 0.689999997600000, 0.689999997600000 );
#406 = COLOUR_RGB( '', 0.689999997600000, 0.689999997600000, 0.689999997600000 );
#407 = COLOUR_RGB( '', 0.689999997600000, 0.689999997600000, 0.689999997600000 );
#408 = DIRECTION( '', ( 0.000000000000000, 0.500000000000000, -0.866025403784439 ) );
#409 = DIRECTION( '', ( -1.00000000000000, -0.000000000000000, -0.000000000000000 ) );
#410 = DIRECTION( '', ( 0.000000000000000, 0.500000000000000, -0.866025403784439 ) );
#411 = DIRECTION( '', ( -1.00000000000000, -0.000000000000000, -0.000000000000000 ) );
#412 = CARTESIAN_POINT( '', ( 9.50024671981713, 0.000000000000000, 0.000000000000000 ) );
#413 = DIRECTION( '', ( 1.00000000000000, 0.000000000000000, -0.000000000000000 ) );
#414 = DIRECTION( '', ( -0.000000000000000, 0.000000000000000, -1.00000000000000 ) );
#415 = CARTESIAN_POINT( '', ( 0.499753280182867, 0.000000000000000, 0.000000000000000 ) );
#416 = DIRECTION( '', ( 1.00000000000000, 0.000000000000000, -0.000000000000000 ) );
#417 = DIRECTION( '', ( -0.000000000000000, 0.000000000000000, -1.00000000000000 ) );
#418 = CARTESIAN_POINT( '', ( 10.0000000000000, 0.000000000000000, 0.000000000000000 ) );
#419 = DIRECTION( '', ( 1.00000000000000, 0.000000000000000, -0.000000000000000 ) );
#420 = DIRECTION( '', ( -0.000000000000000, 0.000000000000000, -1.00000000000000 ) );
#421 = DIRECTION( '', ( 0.000000000000000, 1.00000000000000, 0.000000000000000 ) );
#422 = DIRECTION( '', ( 0.000000000000000, 1.00000000000000, 0.000000000000000 ) );
#423 = DIRECTION( '', ( -1.00000000000000, -0.000000000000000, -0.000000000000000 ) );
#424 = CARTESIAN_POINT( '', ( 1.73472347597681E-15, 0.000000000000000, 0.000000000000000 ) );
#425 = DIRECTION( '', ( 1.00000000000000, 0.000000000000000, -0.000000000000000 ) );
#426 = DIRECTION( '', ( -0.000000000000000, 0.000000000000000, -1.00000000000000 ) );
#427 = DIRECTION( '', ( 0.000000000000000, -1.00000000000000, 0.000000000000000 ) );
#428 = DIRECTION( '', ( 0.000000000000000, -0.500000000000000, -0.866025403784439 ) );
#429 = DIRECTION( '', ( 0.000000000000000, 0.500000000000000, 0.866025403784439 ) );
#430 = DIRECTION( '', ( 0.000000000000000, -0.500000000000000, 0.866025403784439 ) );
#431 = DIRECTION( '', ( 0.000000000000000, -1.00000000000000, 0.000000000000000 ) );
#432 = DIRECTION( '', ( 0.000000000000000, -0.500000000000000, 0.866025403784439 ) );
#433 = DIRECTION( '', ( 0.000000000000000, 0.500000000000000, 0.866025403784439 ) );
#434 = DIRECTION( '', ( 0.000000000000000, -0.500000000000000, -0.866025403784439 ) );
#435 = DIRECTION( '', ( -1.00000000000000, -0.000000000000000, -0.000000000000000 ) );
#436 = DIRECTION( '', ( -1.00000000000000, -0.000000000000000, -0.000000000000000 ) );
#437 = DIRECTION( '', ( -1.00000000000000, -0.000000000000000, -0.000000000000000 ) );
ENDSEC;
END-ISO-10303-21;
