ISO-10303-21;
HEADER;
FILE_DESCRIPTION( ( 'STEP AP214' ), '1' );
FILE_NAME( '//goodhand-server/Shared Folders/GoodHand Data/Kipp CAD/K0170/K0170.310011.stp', '2020-11-26T10:50:34', ( '' ), ( '' ), ' ', 'PARTsolutions', ' ' );
FILE_SCHEMA( ( 'AUTOMOTIVE_DESIGN { 1 0 10303 214 1 1 1 1 }' ) );
ENDSEC;
DATA;
#1 = MECHANICAL_DESIGN_GEOMETRIC_PRESENTATION_REPRESENTATION( ' ', ( #10, #11, #12, #13, #14, #15, #16, #17, #18, #19, #20, #21, #22 ), #6 );
#2 = PRODUCT_DEFINITION_CONTEXT( '', #23, 'design' );
#3 = APPLICATION_PROTOCOL_DEFINITION( 'international standard', 'automotive_design', 2001, #23 );
#4 = PRODUCT_CATEGORY_RELATIONSHIP( 'NONE', 'NONE', #24, #25 );
#5 = SHAPE_DEFINITION_REPRESENTATION( #26, #27 );
#6 =  ( GEOMETRIC_REPRESENTATION_CONTEXT( 3 )GLOBAL_UNCERTAINTY_ASSIGNED_CONTEXT( ( #30 ) )GLOBAL_UNIT_ASSIGNED_CONTEXT( ( #32, #33, #34 ) )REPRESENTATION_CONTEXT( 'NONE', 'WORKSPACE' ) );
#10 = STYLED_ITEM( '', ( #36 ), #37 );
#11 = STYLED_ITEM( '', ( #38 ), #39 );
#12 = STYLED_ITEM( '', ( #40 ), #41 );
#13 = STYLED_ITEM( '', ( #42 ), #43 );
#14 = STYLED_ITEM( '', ( #44 ), #45 );
#15 = STYLED_ITEM( '', ( #46 ), #47 );
#16 = STYLED_ITEM( '', ( #48 ), #49 );
#17 = STYLED_ITEM( '', ( #50 ), #51 );
#18 = STYLED_ITEM( '', ( #52 ), #53 );
#19 = STYLED_ITEM( '', ( #54 ), #55 );
#20 = STYLED_ITEM( '', ( #56 ), #57 );
#21 = STYLED_ITEM( '', ( #58 ), #59 );
#22 = STYLED_ITEM( '', ( #60 ), #61 );
#23 = APPLICATION_CONTEXT( 'core data for automotive mechanical design processes' );
#24 = PRODUCT_CATEGORY( 'part', 'NONE' );
#25 = PRODUCT_RELATED_PRODUCT_CATEGORY( 'detail', ' ', ( #62 ) );
#26 = PRODUCT_DEFINITION_SHAPE( 'NONE', 'NONE', #63 );
#27 = ADVANCED_BREP_SHAPE_REPRESENTATION( '_K0170.310011', ( #64, #65 ), #6 );
#30 = UNCERTAINTY_MEASURE_WITH_UNIT( LENGTH_MEASURE( 0.00100000000000000 ), #32, '', '' );
#32 =  ( CONVERSION_BASED_UNIT( 'MILLIMETRE', #68 )LENGTH_UNIT(  )NAMED_UNIT( #71 ) );
#33 =  ( NAMED_UNIT( #73 )PLANE_ANGLE_UNIT(  )SI_UNIT( $, .RADIAN. ) );
#34 =  ( NAMED_UNIT( #73 )SI_UNIT( $, .STERADIAN. )SOLID_ANGLE_UNIT(  ) );
#36 = PRESENTATION_STYLE_ASSIGNMENT( ( #79 ) );
#37 = ADVANCED_FACE( '', ( #80, #81 ), #82, .F. );
#38 = PRESENTATION_STYLE_ASSIGNMENT( ( #83 ) );
#39 = ADVANCED_FACE( '', ( #84 ), #85, .F. );
#40 = PRESENTATION_STYLE_ASSIGNMENT( ( #86 ) );
#41 = ADVANCED_FACE( '', ( #87, #88 ), #89, .T. );
#42 = PRESENTATION_STYLE_ASSIGNMENT( ( #90 ) );
#43 = ADVANCED_FACE( '', ( #91 ), #92, .F. );
#44 = PRESENTATION_STYLE_ASSIGNMENT( ( #93 ) );
#45 = ADVANCED_FACE( '', ( #94, #95 ), #96, .T. );
#46 = PRESENTATION_STYLE_ASSIGNMENT( ( #97 ) );
#47 = ADVANCED_FACE( '', ( #98 ), #99, .T. );
#48 = PRESENTATION_STYLE_ASSIGNMENT( ( #100 ) );
#49 = ADVANCED_FACE( '', ( #101, #102 ), #103, .T. );
#50 = PRESENTATION_STYLE_ASSIGNMENT( ( #104 ) );
#51 = ADVANCED_FACE( '', ( #105 ), #106, .F. );
#52 = PRESENTATION_STYLE_ASSIGNMENT( ( #107 ) );
#53 = ADVANCED_FACE( '', ( #108, #109 ), #110, .T. );
#54 = PRESENTATION_STYLE_ASSIGNMENT( ( #111 ) );
#55 = ADVANCED_FACE( '', ( #112, #113 ), #114, .T. );
#56 = PRESENTATION_STYLE_ASSIGNMENT( ( #115 ) );
#57 = ADVANCED_FACE( '', ( #116, #117 ), #118, .T. );
#58 = PRESENTATION_STYLE_ASSIGNMENT( ( #119 ) );
#59 = ADVANCED_FACE( '', ( #120, #121 ), #122, .T. );
#60 = PRESENTATION_STYLE_ASSIGNMENT( ( #123 ) );
#61 = ADVANCED_FACE( '', ( #124 ), #125, .T. );
#62 = PRODUCT( '_K0170.310011', '_K0170.310011', 'PART-_K0170.310011-DESC', ( #126 ) );
#63 = PRODUCT_DEFINITION( 'NONE', 'NONE', #127, #2 );
#64 = MANIFOLD_SOLID_BREP( '_K0170.310011', #128 );
#65 = AXIS2_PLACEMENT_3D( '', #129, #130, #131 );
#68 = LENGTH_MEASURE_WITH_UNIT( LENGTH_MEASURE( 1.00000000000000 ), #132 );
#71 = DIMENSIONAL_EXPONENTS( 1.00000000000000, 0.000000000000000, 0.000000000000000, 0.000000000000000, 0.000000000000000, 0.000000000000000, 0.000000000000000 );
#73 = DIMENSIONAL_EXPONENTS( 0.000000000000000, 0.000000000000000, 0.000000000000000, 0.000000000000000, 0.000000000000000, 0.000000000000000, 0.000000000000000 );
#79 = SURFACE_STYLE_USAGE( .BOTH., #133 );
#80 = FACE_OUTER_BOUND( '', #134, .T. );
#81 = FACE_BOUND( '', #135, .T. );
#82 = PLANE( '', #136 );
#83 = SURFACE_STYLE_USAGE( .BOTH., #137 );
#84 = FACE_OUTER_BOUND( '', #138, .T. );
#85 = PLANE( '', #139 );
#86 = SURFACE_STYLE_USAGE( .BOTH., #140 );
#87 = FACE_OUTER_BOUND( '', #141, .T. );
#88 = FACE_OUTER_BOUND( '', #142, .T. );
#89 = CYLINDRICAL_SURFACE( '', #143, 10.5000000000000 );
#90 = SURFACE_STYLE_USAGE( .BOTH., #144 );
#91 = FACE_OUTER_BOUND( '', #145, .T. );
#92 = PLANE( '', #146 );
#93 = SURFACE_STYLE_USAGE( .BOTH., #147 );
#94 = FACE_OUTER_BOUND( '', #148, .T. );
#95 = FACE_OUTER_BOUND( '', #149, .T. );
#96 = CYLINDRICAL_SURFACE( '', #150, 5.00000000000000 );
#97 = SURFACE_STYLE_USAGE( .BOTH., #151 );
#98 = FACE_OUTER_BOUND( '', #152, .T. );
#99 = PLANE( '', #153 );
#100 = SURFACE_STYLE_USAGE( .BOTH., #154 );
#101 = FACE_OUTER_BOUND( '', #155, .T. );
#102 = FACE_BOUND( '', #156, .T. );
#103 = CONICAL_SURFACE( '', #157, 4.08000000000000, 0.785398163400000 );
#104 = SURFACE_STYLE_USAGE( .BOTH., #158 );
#105 = FACE_OUTER_BOUND( '', #159, .T. );
#106 = PLANE( '', #160 );
#107 = SURFACE_STYLE_USAGE( .BOTH., #161 );
#108 = FACE_OUTER_BOUND( '', #162, .T. );
#109 = FACE_BOUND( '', #163, .T. );
#110 = ( BOUNDED_SURFACE(  )B_SPLINE_SURFACE( 3, 3, ( ( #166, #167, #168, #169, #170, #171, #172 ), ( #173, #174, #175, #176, #177, #178, #179 ), ( #180, #181, #182, #183, #184, #185, #186 ), ( #187, #188, #189, #190, #191, #192, #193 ) ), .UNSPECIFIED., .F., .T., .F. )B_SPLINE_SURFACE_WITH_KNOTS( ( 4, 4 ), ( 4, 3, 4 ), ( 0.000000000000000, 6.28318530717959 ), ( 1.31447715652061, 1.46666161024563, 1.61884606397066 ), .UNSPECIFIED. )GEOMETRIC_REPRESENTATION_ITEM(  )RATIONAL_B_SPLINE_SURFACE( ( ( 1.00000000000000, 0.333333333333333, 0.333333333333333, 1.00000000000000, 0.333333333333333, 0.333333333333333, 1.00000000000000 ), ( 0.992294852255812, 0.330764950751937, 0.330764950751937, 0.992294852255812, 0.330764950751937, 0.330764950751937, 0.992294852255812 ), ( 0.992294852255812, 0.330764950751937, 0.330764950751937, 0.992294852255812, 0.330764950751937, 0.330764950751937, 0.992294852255812 ), ( 1.00000000000000, 0.333333333333333, 0.333333333333333, 1.00000000000000, 0.333333333333333, 0.333333333333333, 1.00000000000000 ) ) )REPRESENTATION_ITEM( '' )SURFACE(  ) );
#111 = SURFACE_STYLE_USAGE( .BOTH., #199 );
#112 = FACE_OUTER_BOUND( '', #200, .T. );
#113 = FACE_OUTER_BOUND( '', #201, .T. );
#114 = CYLINDRICAL_SURFACE( '', #202, 14.0000000000000 );
#115 = SURFACE_STYLE_USAGE( .BOTH., #203 );
#116 = FACE_OUTER_BOUND( '', #204, .T. );
#117 = FACE_BOUND( '', #205, .T. );
#118 = CONICAL_SURFACE( '', #206, 10.5000000000000, 0.0971858990000000 );
#119 = SURFACE_STYLE_USAGE( .BOTH., #207 );
#120 = FACE_OUTER_BOUND( '', #208, .T. );
#121 = FACE_OUTER_BOUND( '', #209, .T. );
#122 = TOROIDAL_SURFACE( '', #210, 11.0000000000000, 3.00000000000000 );
#123 = SURFACE_STYLE_USAGE( .BOTH., #211 );
#124 = FACE_OUTER_BOUND( '', #212, .T. );
#125 = PLANE( '', #213 );
#126 = PRODUCT_CONTEXT( '', #23, 'mechanical' );
#127 = PRODUCT_DEFINITION_FORMATION_WITH_SPECIFIED_SOURCE( ' ', 'NONE', #62, .NOT_KNOWN. );
#128 = CLOSED_SHELL( '', ( #51, #61, #47, #37, #41, #45, #49, #43, #57, #55, #59, #53, #39 ) );
#129 = CARTESIAN_POINT( '', ( 0.000000000000000, 0.000000000000000, 0.000000000000000 ) );
#130 = DIRECTION( '', ( 0.000000000000000, 0.000000000000000, 1.00000000000000 ) );
#131 = DIRECTION( '', ( 1.00000000000000, 0.000000000000000, 0.000000000000000 ) );
#132 =  ( LENGTH_UNIT(  )NAMED_UNIT( #71 )SI_UNIT( .MILLI., .METRE. ) );
#133 = SURFACE_SIDE_STYLE( '', ( #215 ) );
#134 = EDGE_LOOP( '', ( #216, #217, #218, #219 ) );
#135 = EDGE_LOOP( '', ( #220 ) );
#136 = AXIS2_PLACEMENT_3D( '', #221, #222, #223 );
#137 = SURFACE_SIDE_STYLE( '', ( #224 ) );
#138 = EDGE_LOOP( '', ( #225, #226 ) );
#139 = AXIS2_PLACEMENT_3D( '', #227, #228, #229 );
#140 = SURFACE_SIDE_STYLE( '', ( #230 ) );
#141 = EDGE_LOOP( '', ( #231 ) );
#142 = EDGE_LOOP( '', ( #232, #233, #234, #235, #236, #237, #238, #239 ) );
#143 = AXIS2_PLACEMENT_3D( '', #240, #241, #242 );
#144 = SURFACE_SIDE_STYLE( '', ( #243 ) );
#145 = EDGE_LOOP( '', ( #244 ) );
#146 = AXIS2_PLACEMENT_3D( '', #245, #246, #247 );
#147 = SURFACE_SIDE_STYLE( '', ( #248 ) );
#148 = EDGE_LOOP( '', ( #249 ) );
#149 = EDGE_LOOP( '', ( #250 ) );
#150 = AXIS2_PLACEMENT_3D( '', #251, #252, #253 );
#151 = SURFACE_SIDE_STYLE( '', ( #254 ) );
#152 = EDGE_LOOP( '', ( #255, #256, #257, #258 ) );
#153 = AXIS2_PLACEMENT_3D( '', #259, #260, #261 );
#154 = SURFACE_SIDE_STYLE( '', ( #262 ) );
#155 = EDGE_LOOP( '', ( #263 ) );
#156 = EDGE_LOOP( '', ( #264 ) );
#157 = AXIS2_PLACEMENT_3D( '', #265, #266, #267 );
#158 = SURFACE_SIDE_STYLE( '', ( #268 ) );
#159 = EDGE_LOOP( '', ( #269, #270 ) );
#160 = AXIS2_PLACEMENT_3D( '', #271, #272, #273 );
#161 = SURFACE_SIDE_STYLE( '', ( #274 ) );
#162 = EDGE_LOOP( '', ( #275 ) );
#163 = VERTEX_LOOP( '', #276 );
#166 = CARTESIAN_POINT( '', ( 78.0000000000000, 0.000000000000000, -2.16840434497101E-16 ) );
#167 = CARTESIAN_POINT( '', ( 78.0000000000000, 4.33680868994202E-16, -2.16840434497101E-16 ) );
#168 = CARTESIAN_POINT( '', ( 78.0000000000000, 4.33680868994202E-16, 2.16840434497101E-16 ) );
#169 = CARTESIAN_POINT( '', ( 78.0000000000000, 0.000000000000000, 2.16840434497101E-16 ) );
#170 = CARTESIAN_POINT( '', ( 78.0000000000000, -4.33680868994202E-16, 2.16840434497101E-16 ) );
#171 = CARTESIAN_POINT( '', ( 78.0000000000000, -4.33680868994202E-16, -2.16840434497101E-16 ) );
#172 = CARTESIAN_POINT( '', ( 78.0000000000000, 0.000000000000000, -2.16840434497101E-16 ) );
#173 = CARTESIAN_POINT( '', ( 78.1907871442746, 0.000000000000000, -3.96756162544123 ) );
#174 = CARTESIAN_POINT( '', ( 78.1907871442746, 7.93512325088247, -3.96756162544123 ) );
#175 = CARTESIAN_POINT( '', ( 78.1907871442746, 7.93512325088247, 3.96756162544123 ) );
#176 = CARTESIAN_POINT( '', ( 78.1907871442746, 0.000000000000000, 3.96756162544123 ) );
#177 = CARTESIAN_POINT( '', ( 78.1907871442746, -7.93512325088247, 3.96756162544123 ) );
#178 = CARTESIAN_POINT( '', ( 78.1907871442746, -7.93512325088247, -3.96756162544123 ) );
#179 = CARTESIAN_POINT( '', ( 78.1907871442746, 0.000000000000000, -3.96756162544123 ) );
#180 = CARTESIAN_POINT( '', ( 77.7778960112939, 0.000000000000000, -7.91819017016677 ) );
#181 = CARTESIAN_POINT( '', ( 77.7778960112939, 15.8363803403335, -7.91819017016677 ) );
#182 = CARTESIAN_POINT( '', ( 77.7778960112939, 15.8363803403335, 7.91819017016677 ) );
#183 = CARTESIAN_POINT( '', ( 77.7778960112939, 0.000000000000000, 7.91819017016677 ) );
#184 = CARTESIAN_POINT( '', ( 77.7778960112939, -15.8363803403335, 7.91819017016677 ) );
#185 = CARTESIAN_POINT( '', ( 77.7778960112939, -15.8363803403335, -7.91819017016677 ) );
#186 = CARTESIAN_POINT( '', ( 77.7778960112939, 0.000000000000000, -7.91819017016677 ) );
#187 = CARTESIAN_POINT( '', ( 76.7708707626033, 0.000000000000000, -11.7605651043181 ) );
#188 = CARTESIAN_POINT( '', ( 76.7708707626033, 23.5211302086361, -11.7605651043181 ) );
#189 = CARTESIAN_POINT( '', ( 76.7708707626033, 23.5211302086361, 11.7605651043181 ) );
#190 = CARTESIAN_POINT( '', ( 76.7708707626033, 0.000000000000000, 11.7605651043181 ) );
#191 = CARTESIAN_POINT( '', ( 76.7708707626033, -23.5211302086361, 11.7605651043181 ) );
#192 = CARTESIAN_POINT( '', ( 76.7708707626033, -23.5211302086361, -11.7605651043181 ) );
#193 = CARTESIAN_POINT( '', ( 76.7708707626033, 0.000000000000000, -11.7605651043181 ) );
#199 = SURFACE_SIDE_STYLE( '', ( #277 ) );
#200 = EDGE_LOOP( '', ( #278 ) );
#201 = EDGE_LOOP( '', ( #279 ) );
#202 = AXIS2_PLACEMENT_3D( '', #280, #281, #282 );
#203 = SURFACE_SIDE_STYLE( '', ( #283 ) );
#204 = EDGE_LOOP( '', ( #284 ) );
#205 = EDGE_LOOP( '', ( #285 ) );
#206 = AXIS2_PLACEMENT_3D( '', #286, #287, #288 );
#207 = SURFACE_SIDE_STYLE( '', ( #289 ) );
#208 = EDGE_LOOP( '', ( #290 ) );
#209 = EDGE_LOOP( '', ( #291 ) );
#210 = AXIS2_PLACEMENT_3D( '', #292, #293, #294 );
#211 = SURFACE_SIDE_STYLE( '', ( #295 ) );
#212 = EDGE_LOOP( '', ( #296, #297, #298, #299 ) );
#213 = AXIS2_PLACEMENT_3D( '', #300, #301, #302 );
#215 = SURFACE_STYLE_FILL_AREA( #303 );
#216 = ORIENTED_EDGE( '', *, *, #304, .F. );
#217 = ORIENTED_EDGE( '', *, *, #305, .F. );
#218 = ORIENTED_EDGE( '', *, *, #306, .F. );
#219 = ORIENTED_EDGE( '', *, *, #307, .F. );
#220 = ORIENTED_EDGE( '', *, *, #308, .T. );
#221 = CARTESIAN_POINT( '', ( 0.000000000000000, 5.00000000000000, 0.000000000000000 ) );
#222 = DIRECTION( '', ( 1.00000000000000, 0.000000000000000, -0.000000000000000 ) );
#223 = DIRECTION( '', ( -0.000000000000000, 0.000000000000000, -1.00000000000000 ) );
#224 = SURFACE_STYLE_FILL_AREA( #309 );
#225 = ORIENTED_EDGE( '', *, *, #310, .F. );
#226 = ORIENTED_EDGE( '', *, *, #311, .F. );
#227 = CARTESIAN_POINT( '', ( 6.99000000000000, 0.000000000000000, 0.000000000000000 ) );
#228 = DIRECTION( '', ( 1.00000000000000, 0.000000000000000, -0.000000000000000 ) );
#229 = DIRECTION( '', ( -0.000000000000000, 0.000000000000000, -1.00000000000000 ) );
#230 = SURFACE_STYLE_FILL_AREA( #312 );
#231 = ORIENTED_EDGE( '', *, *, #313, .F. );
#232 = ORIENTED_EDGE( '', *, *, #314, .F. );
#233 = ORIENTED_EDGE( '', *, *, #305, .T. );
#234 = ORIENTED_EDGE( '', *, *, #315, .F. );
#235 = ORIENTED_EDGE( '', *, *, #316, .T. );
#236 = ORIENTED_EDGE( '', *, *, #317, .F. );
#237 = ORIENTED_EDGE( '', *, *, #307, .T. );
#238 = ORIENTED_EDGE( '', *, *, #318, .F. );
#239 = ORIENTED_EDGE( '', *, *, #311, .T. );
#240 = CARTESIAN_POINT( '', ( 78.0000000000000, 0.000000000000000, 0.000000000000000 ) );
#241 = DIRECTION( '', ( -1.00000000000000, -0.000000000000000, 0.000000000000000 ) );
#242 = DIRECTION( '', ( -0.000000000000000, 0.000000000000000, -1.00000000000000 ) );
#243 = SURFACE_STYLE_FILL_AREA( #319 );
#244 = ORIENTED_EDGE( '', *, *, #320, .F. );
#245 = CARTESIAN_POINT( '', ( -11.0000000000000, 0.000000000000000, 0.000000000000000 ) );
#246 = DIRECTION( '', ( 1.00000000000000, 0.000000000000000, -0.000000000000000 ) );
#247 = DIRECTION( '', ( -0.000000000000000, 0.000000000000000, -1.00000000000000 ) );
#248 = SURFACE_STYLE_FILL_AREA( #321 );
#249 = ORIENTED_EDGE( '', *, *, #308, .F. );
#250 = ORIENTED_EDGE( '', *, *, #322, .T. );
#251 = CARTESIAN_POINT( '', ( 78.0000000000000, 0.000000000000000, 0.000000000000000 ) );
#252 = DIRECTION( '', ( -1.00000000000000, -0.000000000000000, 0.000000000000000 ) );
#253 = DIRECTION( '', ( -0.000000000000000, 0.000000000000000, -1.00000000000000 ) );
#254 = SURFACE_STYLE_FILL_AREA( #323 );
#255 = ORIENTED_EDGE( '', *, *, #317, .T. );
#256 = ORIENTED_EDGE( '', *, *, #324, .T. );
#257 = ORIENTED_EDGE( '', *, *, #315, .T. );
#258 = ORIENTED_EDGE( '', *, *, #304, .T. );
#259 = CARTESIAN_POINT( '', ( 6.99000000000000, 9.50000000000000, 28.0000000000000 ) );
#260 = DIRECTION( '', ( -0.000000000000000, 1.00000000000000, 0.000000000000000 ) );
#261 = DIRECTION( '', ( 0.000000000000000, -0.000000000000000, 1.00000000000000 ) );
#262 = SURFACE_STYLE_FILL_AREA( #325 );
#263 = ORIENTED_EDGE( '', *, *, #322, .F. );
#264 = ORIENTED_EDGE( '', *, *, #320, .T. );
#265 = CARTESIAN_POINT( '', ( -11.0000000000000, 0.000000000000000, 0.000000000000000 ) );
#266 = DIRECTION( '', ( 1.00000000000000, -0.000000000000000, -0.000000000000000 ) );
#267 = DIRECTION( '', ( -0.000000000000000, 0.000000000000000, -1.00000000000000 ) );
#268 = SURFACE_STYLE_FILL_AREA( #326 );
#269 = ORIENTED_EDGE( '', *, *, #324, .F. );
#270 = ORIENTED_EDGE( '', *, *, #316, .F. );
#271 = CARTESIAN_POINT( '', ( 6.99000000000000, 0.000000000000000, 0.000000000000000 ) );
#272 = DIRECTION( '', ( 1.00000000000000, 0.000000000000000, 0.000000000000000 ) );
#273 = DIRECTION( '', ( 0.000000000000000, 0.000000000000000, -1.00000000000000 ) );
#274 = SURFACE_STYLE_FILL_AREA( #327 );
#275 = ORIENTED_EDGE( '', *, *, #328, .T. );
#276 = VERTEX_POINT( '', #329 );
#277 = SURFACE_STYLE_FILL_AREA( #330 );
#278 = ORIENTED_EDGE( '', *, *, #331, .F. );
#279 = ORIENTED_EDGE( '', *, *, #332, .T. );
#280 = CARTESIAN_POINT( '', ( 78.0000000000000, 0.000000000000000, 0.000000000000000 ) );
#281 = DIRECTION( '', ( -1.00000000000000, -0.000000000000000, 0.000000000000000 ) );
#282 = DIRECTION( '', ( -0.000000000000000, 0.000000000000000, -1.00000000000000 ) );
#283 = SURFACE_STYLE_FILL_AREA( #333 );
#284 = ORIENTED_EDGE( '', *, *, #332, .F. );
#285 = ORIENTED_EDGE( '', *, *, #313, .T. );
#286 = CARTESIAN_POINT( '', ( 7.00000000000001, 0.000000000000000, 0.000000000000000 ) );
#287 = DIRECTION( '', ( 1.00000000000000, -0.000000000000000, -0.000000000000000 ) );
#288 = DIRECTION( '', ( -0.000000000000000, 0.000000000000000, -1.00000000000000 ) );
#289 = SURFACE_STYLE_FILL_AREA( #334 );
#290 = ORIENTED_EDGE( '', *, *, #331, .T. );
#291 = ORIENTED_EDGE( '', *, *, #328, .F. );
#292 = CARTESIAN_POINT( '', ( 73.8688816650887, 0.000000000000000, 0.000000000000000 ) );
#293 = DIRECTION( '', ( 1.00000000000000, 0.000000000000000, -0.000000000000000 ) );
#294 = DIRECTION( '', ( -0.000000000000000, 0.000000000000000, -1.00000000000000 ) );
#295 = SURFACE_STYLE_FILL_AREA( #335 );
#296 = ORIENTED_EDGE( '', *, *, #314, .T. );
#297 = ORIENTED_EDGE( '', *, *, #310, .T. );
#298 = ORIENTED_EDGE( '', *, *, #318, .T. );
#299 = ORIENTED_EDGE( '', *, *, #306, .T. );
#300 = CARTESIAN_POINT( '', ( 6.99000000000000, -9.50000000000000, -28.0000000000000 ) );
#301 = DIRECTION( '', ( 0.000000000000000, -1.00000000000000, 0.000000000000000 ) );
#302 = DIRECTION( '', ( 0.000000000000000, 0.000000000000000, -1.00000000000000 ) );
#303 = FILL_AREA_STYLE( '', ( #336 ) );
#304 = EDGE_CURVE( '', #337, #338, #339, .T. );
#305 = EDGE_CURVE( '', #340, #337, #341, .T. );
#306 = EDGE_CURVE( '', #342, #340, #343, .T. );
#307 = EDGE_CURVE( '', #338, #342, #344, .T. );
#308 = EDGE_CURVE( '', #345, #345, #346, .T. );
#309 = FILL_AREA_STYLE( '', ( #347 ) );
#310 = EDGE_CURVE( '', #348, #349, #350, .T. );
#311 = EDGE_CURVE( '', #349, #348, #351, .T. );
#312 = FILL_AREA_STYLE( '', ( #352 ) );
#313 = EDGE_CURVE( '', #353, #353, #354, .T. );
#314 = EDGE_CURVE( '', #340, #348, #355, .T. );
#315 = EDGE_CURVE( '', #356, #337, #357, .F. );
#316 = EDGE_CURVE( '', #356, #358, #359, .T. );
#317 = EDGE_CURVE( '', #338, #358, #360, .T. );
#318 = EDGE_CURVE( '', #349, #342, #361, .F. );
#319 = FILL_AREA_STYLE( '', ( #362 ) );
#320 = EDGE_CURVE( '', #363, #363, #364, .T. );
#321 = FILL_AREA_STYLE( '', ( #365 ) );
#322 = EDGE_CURVE( '', #366, #366, #367, .T. );
#323 = FILL_AREA_STYLE( '', ( #368 ) );
#324 = EDGE_CURVE( '', #358, #356, #369, .T. );
#325 = FILL_AREA_STYLE( '', ( #370 ) );
#326 = FILL_AREA_STYLE( '', ( #371 ) );
#327 = FILL_AREA_STYLE( '', ( #372 ) );
#328 = EDGE_CURVE( '', #373, #373, #374, .T. );
#329 = CARTESIAN_POINT( '', ( 78.0000000000000, -3.75133951679985E-14, 0.000000000000000 ) );
#330 = FILL_AREA_STYLE( '', ( #375 ) );
#331 = EDGE_CURVE( '', #376, #376, #377, .T. );
#332 = EDGE_CURVE( '', #378, #378, #379, .T. );
#333 = FILL_AREA_STYLE( '', ( #380 ) );
#334 = FILL_AREA_STYLE( '', ( #381 ) );
#335 = FILL_AREA_STYLE( '', ( #382 ) );
#336 = FILL_AREA_STYLE_COLOUR( '', #383 );
#337 = VERTEX_POINT( '', #384 );
#338 = VERTEX_POINT( '', #385 );
#339 = LINE( '', #386, #387 );
#340 = VERTEX_POINT( '', #388 );
#341 = CIRCLE( '', #389, 10.5000000000000 );
#342 = VERTEX_POINT( '', #390 );
#343 = LINE( '', #391, #392 );
#344 = CIRCLE( '', #393, 10.5000000000000 );
#345 = VERTEX_POINT( '', #394 );
#346 = CIRCLE( '', #395, 5.00000000000000 );
#347 = FILL_AREA_STYLE_COLOUR( '', #396 );
#348 = VERTEX_POINT( '', #397 );
#349 = VERTEX_POINT( '', #398 );
#350 = LINE( '', #399, #400 );
#351 = CIRCLE( '', #401, 10.5000000000000 );
#352 = FILL_AREA_STYLE_COLOUR( '', #402 );
#353 = VERTEX_POINT( '', #403 );
#354 = CIRCLE( '', #404, 10.5000000000000 );
#355 = LINE( '', #405, #406 );
#356 = VERTEX_POINT( '', #407 );
#357 = LINE( '', #408, #409 );
#358 = VERTEX_POINT( '', #410 );
#359 = CIRCLE( '', #411, 10.5000000000000 );
#360 = LINE( '', #412, #413 );
#361 = LINE( '', #414, #415 );
#362 = FILL_AREA_STYLE_COLOUR( '', #416 );
#363 = VERTEX_POINT( '', #417 );
#364 = CIRCLE( '', #418, 4.08000000000000 );
#365 = FILL_AREA_STYLE_COLOUR( '', #419 );
#366 = VERTEX_POINT( '', #420 );
#367 = CIRCLE( '', #421, 5.00000000000000 );
#368 = FILL_AREA_STYLE_COLOUR( '', #422 );
#369 = LINE( '', #423, #424 );
#370 = FILL_AREA_STYLE_COLOUR( '', #425 );
#371 = FILL_AREA_STYLE_COLOUR( '', #426 );
#372 = FILL_AREA_STYLE_COLOUR( '', #427 );
#373 = VERTEX_POINT( '', #428 );
#374 = CIRCLE( '', #429, 11.7605651043000 );
#375 = FILL_AREA_STYLE_COLOUR( '', #430 );
#376 = VERTEX_POINT( '', #431 );
#377 = CIRCLE( '', #432, 14.0000000000000 );
#378 = VERTEX_POINT( '', #433 );
#379 = CIRCLE( '', #434, 14.0000000000000 );
#380 = FILL_AREA_STYLE_COLOUR( '', #435 );
#381 = FILL_AREA_STYLE_COLOUR( '', #436 );
#382 = FILL_AREA_STYLE_COLOUR( '', #437 );
#383 = COLOUR_RGB( '', 0.689999997600000, 0.689999997600000, 0.689999997600000 );
#384 = CARTESIAN_POINT( '', ( 0.000000000000000, 9.50000000000000, -4.47213595499958 ) );
#385 = CARTESIAN_POINT( '', ( 0.000000000000000, 9.50000000000000, 4.47213595499958 ) );
#386 = CARTESIAN_POINT( '', ( 0.000000000000000, 9.50000000000000, 0.000000000000000 ) );
#387 = VECTOR( '', #438, 1000.00000000000 );
#388 = CARTESIAN_POINT( '', ( 0.000000000000000, -9.50000000000000, -4.47213595499958 ) );
#389 = AXIS2_PLACEMENT_3D( '', #439, #440, #441 );
#390 = CARTESIAN_POINT( '', ( 0.000000000000000, -9.50000000000000, 4.47213595499958 ) );
#391 = CARTESIAN_POINT( '', ( 0.000000000000000, -9.50000000000000, 0.000000000000000 ) );
#392 = VECTOR( '', #442, 1000.00000000000 );
#393 = AXIS2_PLACEMENT_3D( '', #443, #444, #445 );
#394 = CARTESIAN_POINT( '', ( 0.000000000000000, 0.000000000000000, -5.00000000000000 ) );
#395 = AXIS2_PLACEMENT_3D( '', #446, #447, #448 );
#396 = COLOUR_RGB( '', 0.689999997600000, 0.689999997600000, 0.689999997600000 );
#397 = CARTESIAN_POINT( '', ( 6.99000000000000, -9.50000000000000, -4.47213595499958 ) );
#398 = CARTESIAN_POINT( '', ( 6.99000000000000, -9.50000000000000, 4.47213595499958 ) );
#399 = CARTESIAN_POINT( '', ( 6.99000000000000, -9.50000000000000, -28.0000000000000 ) );
#400 = VECTOR( '', #449, 1000.00000000000 );
#401 = AXIS2_PLACEMENT_3D( '', #450, #451, #452 );
#402 = COLOUR_RGB( '', 0.689999997600000, 0.689999997600000, 0.689999997600000 );
#403 = CARTESIAN_POINT( '', ( 7.00000000000001, 0.000000000000000, -10.5000000000000 ) );
#404 = AXIS2_PLACEMENT_3D( '', #453, #454, #455 );
#405 = CARTESIAN_POINT( '', ( 78.0000000000000, -9.50000000000000, -4.47213595499958 ) );
#406 = VECTOR( '', #456, 1000.00000000000 );
#407 = CARTESIAN_POINT( '', ( 6.99000000000000, 9.50000000000000, -4.47213595499958 ) );
#408 = CARTESIAN_POINT( '', ( 78.0000000000000, 9.50000000000000, -4.47213595499958 ) );
#409 = VECTOR( '', #457, 1000.00000000000 );
#410 = CARTESIAN_POINT( '', ( 6.99000000000000, 9.50000000000000, 4.47213595499958 ) );
#411 = AXIS2_PLACEMENT_3D( '', #458, #459, #460 );
#412 = CARTESIAN_POINT( '', ( 78.0000000000000, 9.50000000000000, 4.47213595499958 ) );
#413 = VECTOR( '', #461, 1000.00000000000 );
#414 = CARTESIAN_POINT( '', ( 78.0000000000000, -9.50000000000000, 4.47213595499958 ) );
#415 = VECTOR( '', #462, 1000.00000000000 );
#416 = COLOUR_RGB( '', 0.689999997600000, 0.689999997600000, 0.689999997600000 );
#417 = CARTESIAN_POINT( '', ( -11.0000000000000, 0.000000000000000, -4.08000000000000 ) );
#418 = AXIS2_PLACEMENT_3D( '', #463, #464, #465 );
#419 = COLOUR_RGB( '', 0.689999997600000, 0.689999997600000, 0.689999997600000 );
#420 = CARTESIAN_POINT( '', ( -10.0800000000000, 0.000000000000000, -5.00000000000000 ) );
#421 = AXIS2_PLACEMENT_3D( '', #466, #467, #468 );
#422 = COLOUR_RGB( '', 0.689999997600000, 0.689999997600000, 0.689999997600000 );
#423 = CARTESIAN_POINT( '', ( 6.99000000000000, 9.50000000000000, 28.0000000000000 ) );
#424 = VECTOR( '', #469, 1000.00000000000 );
#425 = COLOUR_RGB( '', 0.689999997600000, 0.689999997600000, 0.689999997600000 );
#426 = COLOUR_RGB( '', 0.689999997600000, 0.689999997600000, 0.689999997600000 );
#427 = COLOUR_RGB( '', 0.689999997600000, 0.689999997600000, 0.689999997600000 );
#428 = CARTESIAN_POINT( '', ( 76.7708707626033, 0.000000000000000, -11.7605651043181 ) );
#429 = AXIS2_PLACEMENT_3D( '', #470, #471, #472 );
#430 = COLOUR_RGB( '', 0.689999997600000, 0.689999997600000, 0.689999997600000 );
#431 = CARTESIAN_POINT( '', ( 73.8688816650887, 0.000000000000000, -14.0000000000000 ) );
#432 = AXIS2_PLACEMENT_3D( '', #473, #474, #475 );
#433 = CARTESIAN_POINT( '', ( 42.9000000000000, 0.000000000000000, -14.0000000000000 ) );
#434 = AXIS2_PLACEMENT_3D( '', #476, #477, #478 );
#435 = COLOUR_RGB( '', 0.689999997600000, 0.689999997600000, 0.689999997600000 );
#436 = COLOUR_RGB( '', 0.689999997600000, 0.689999997600000, 0.689999997600000 );
#437 = COLOUR_RGB( '', 0.689999997600000, 0.689999997600000, 0.689999997600000 );
#438 = DIRECTION( '', ( 0.000000000000000, 0.000000000000000, 1.00000000000000 ) );
#439 = CARTESIAN_POINT( '', ( 0.000000000000000, 0.000000000000000, 0.000000000000000 ) );
#440 = DIRECTION( '', ( 1.00000000000000, 0.000000000000000, -0.000000000000000 ) );
#441 = DIRECTION( '', ( -0.000000000000000, 0.000000000000000, -1.00000000000000 ) );
#442 = DIRECTION( '', ( 0.000000000000000, 0.000000000000000, -1.00000000000000 ) );
#443 = CARTESIAN_POINT( '', ( 0.000000000000000, 0.000000000000000, 0.000000000000000 ) );
#444 = DIRECTION( '', ( 1.00000000000000, 0.000000000000000, -0.000000000000000 ) );
#445 = DIRECTION( '', ( -0.000000000000000, 0.000000000000000, -1.00000000000000 ) );
#446 = CARTESIAN_POINT( '', ( 0.000000000000000, 0.000000000000000, 0.000000000000000 ) );
#447 = DIRECTION( '', ( 1.00000000000000, 0.000000000000000, -0.000000000000000 ) );
#448 = DIRECTION( '', ( -0.000000000000000, 0.000000000000000, -1.00000000000000 ) );
#449 = DIRECTION( '', ( 0.000000000000000, 0.000000000000000, 1.00000000000000 ) );
#450 = CARTESIAN_POINT( '', ( 6.99000000000000, 0.000000000000000, 0.000000000000000 ) );
#451 = DIRECTION( '', ( 1.00000000000000, 0.000000000000000, -0.000000000000000 ) );
#452 = DIRECTION( '', ( -0.000000000000000, 0.000000000000000, -1.00000000000000 ) );
#453 = CARTESIAN_POINT( '', ( 7.00000000000001, 0.000000000000000, 0.000000000000000 ) );
#454 = DIRECTION( '', ( 1.00000000000000, 0.000000000000000, -0.000000000000000 ) );
#455 = DIRECTION( '', ( -0.000000000000000, 0.000000000000000, -1.00000000000000 ) );
#456 = DIRECTION( '', ( 1.00000000000000, -0.000000000000000, -0.000000000000000 ) );
#457 = DIRECTION( '', ( 1.00000000000000, -0.000000000000000, -0.000000000000000 ) );
#458 = CARTESIAN_POINT( '', ( 6.99000000000000, 0.000000000000000, 0.000000000000000 ) );
#459 = DIRECTION( '', ( 1.00000000000000, 0.000000000000000, 0.000000000000000 ) );
#460 = DIRECTION( '', ( 0.000000000000000, 0.000000000000000, -1.00000000000000 ) );
#461 = DIRECTION( '', ( 1.00000000000000, -0.000000000000000, -0.000000000000000 ) );
#462 = DIRECTION( '', ( 1.00000000000000, -0.000000000000000, -0.000000000000000 ) );
#463 = CARTESIAN_POINT( '', ( -11.0000000000000, 0.000000000000000, 0.000000000000000 ) );
#464 = DIRECTION( '', ( 1.00000000000000, 0.000000000000000, -0.000000000000000 ) );
#465 = DIRECTION( '', ( -0.000000000000000, 0.000000000000000, -1.00000000000000 ) );
#466 = CARTESIAN_POINT( '', ( -10.0800000000000, 0.000000000000000, 0.000000000000000 ) );
#467 = DIRECTION( '', ( 1.00000000000000, 0.000000000000000, -0.000000000000000 ) );
#468 = DIRECTION( '', ( -0.000000000000000, 0.000000000000000, -1.00000000000000 ) );
#469 = DIRECTION( '', ( 0.000000000000000, 0.000000000000000, -1.00000000000000 ) );
#470 = CARTESIAN_POINT( '', ( 76.7708707626033, 0.000000000000000, 0.000000000000000 ) );
#471 = DIRECTION( '', ( 1.00000000000000, 0.000000000000000, -0.000000000000000 ) );
#472 = DIRECTION( '', ( -0.000000000000000, 0.000000000000000, -1.00000000000000 ) );
#473 = CARTESIAN_POINT( '', ( 73.8688816650887, 0.000000000000000, 0.000000000000000 ) );
#474 = DIRECTION( '', ( 1.00000000000000, 0.000000000000000, -0.000000000000000 ) );
#475 = DIRECTION( '', ( -0.000000000000000, 0.000000000000000, -1.00000000000000 ) );
#476 = CARTESIAN_POINT( '', ( 42.9000000000000, 0.000000000000000, 0.000000000000000 ) );
#477 = DIRECTION( '', ( 1.00000000000000, 0.000000000000000, -0.000000000000000 ) );
#478 = DIRECTION( '', ( -0.000000000000000, 0.000000000000000, -1.00000000000000 ) );
ENDSEC;
END-ISO-10303-21;
