ISO-10303-21;
HEADER;
FILE_DESCRIPTION( ( 'STEP AP214' ), '1' );
FILE_NAME( '//goodhand-server/Shared Folders/GoodHand Data/Kipp CAD/K0574/K0574.03504055.stp', '2020-12-09T08:49:36', ( '' ), ( '' ), ' ', 'PARTsolutions', ' ' );
FILE_SCHEMA( ( 'AUTOMOTIVE_DESIGN { 1 0 10303 214 1 1 1 1 }' ) );
ENDSEC;
DATA;
#1 = MECHANICAL_DESIGN_GEOMETRIC_PRESENTATION_REPRESENTATION( ' ', ( #10, #11, #12, #13, #14, #15 ), #6 );
#2 = PRODUCT_DEFINITION_CONTEXT( '', #16, 'design' );
#3 = APPLICATION_PROTOCOL_DEFINITION( 'international standard', 'automotive_design', 2001, #16 );
#4 = PRODUCT_CATEGORY_RELATIONSHIP( 'NONE', 'NONE', #17, #18 );
#5 = SHAPE_DEFINITION_REPRESENTATION( #19, #20 );
#6 =  ( GEOMETRIC_REPRESENTATION_CONTEXT( 3 )GLOBAL_UNCERTAINTY_ASSIGNED_CONTEXT( ( #23 ) )GLOBAL_UNIT_ASSIGNED_CONTEXT( ( #25, #26, #27 ) )REPRESENTATION_CONTEXT( 'NONE', 'WORKSPACE' ) );
#10 = STYLED_ITEM( '', ( #29 ), #30 );
#11 = STYLED_ITEM( '', ( #31 ), #32 );
#12 = STYLED_ITEM( '', ( #33 ), #34 );
#13 = STYLED_ITEM( '', ( #35 ), #36 );
#14 = STYLED_ITEM( '', ( #37 ), #38 );
#15 = STYLED_ITEM( '', ( #39 ), #40 );
#16 = APPLICATION_CONTEXT( 'core data for automotive mechanical design processes' );
#17 = PRODUCT_CATEGORY( 'part', 'NONE' );
#18 = PRODUCT_RELATED_PRODUCT_CATEGORY( 'detail', ' ', ( #41 ) );
#19 = PRODUCT_DEFINITION_SHAPE( 'NONE', 'NONE', #42 );
#20 = ADVANCED_BREP_SHAPE_REPRESENTATION( '_K0574.03504055', ( #43, #44 ), #6 );
#23 = UNCERTAINTY_MEASURE_WITH_UNIT( LENGTH_MEASURE( 0.00100000000000000 ), #25, '', '' );
#25 =  ( CONVERSION_BASED_UNIT( 'MILLIMETRE', #47 )LENGTH_UNIT(  )NAMED_UNIT( #50 ) );
#26 =  ( NAMED_UNIT( #52 )PLANE_ANGLE_UNIT(  )SI_UNIT( $, .RADIAN. ) );
#27 =  ( NAMED_UNIT( #52 )SI_UNIT( $, .STERADIAN. )SOLID_ANGLE_UNIT(  ) );
#29 = PRESENTATION_STYLE_ASSIGNMENT( ( #58 ) );
#30 = ADVANCED_FACE( '', ( #59, #60 ), #61, .T. );
#31 = PRESENTATION_STYLE_ASSIGNMENT( ( #62 ) );
#32 = ADVANCED_FACE( '', ( #63 ), #64, .F. );
#33 = PRESENTATION_STYLE_ASSIGNMENT( ( #65 ) );
#34 = ADVANCED_FACE( '', ( #66, #67 ), #68, .T. );
#35 = PRESENTATION_STYLE_ASSIGNMENT( ( #69 ) );
#36 = ADVANCED_FACE( '', ( #70, #71 ), #72, .F. );
#37 = PRESENTATION_STYLE_ASSIGNMENT( ( #73 ) );
#38 = ADVANCED_FACE( '', ( #74, #75 ), #76, .T. );
#39 = PRESENTATION_STYLE_ASSIGNMENT( ( #77 ) );
#40 = ADVANCED_FACE( '', ( #78, #79 ), #80, .T. );
#41 = PRODUCT( '_K0574.03504055', '_K0574.03504055', 'PART-_K0574.03504055-DESC', ( #81 ) );
#42 = PRODUCT_DEFINITION( 'NONE', 'NONE', #82, #2 );
#43 = MANIFOLD_SOLID_BREP( '_K0574.03504055', #83 );
#44 = AXIS2_PLACEMENT_3D( '', #84, #85, #86 );
#47 = LENGTH_MEASURE_WITH_UNIT( LENGTH_MEASURE( 1.00000000000000 ), #87 );
#50 = DIMENSIONAL_EXPONENTS( 1.00000000000000, 0.000000000000000, 0.000000000000000, 0.000000000000000, 0.000000000000000, 0.000000000000000, 0.000000000000000 );
#52 = DIMENSIONAL_EXPONENTS( 0.000000000000000, 0.000000000000000, 0.000000000000000, 0.000000000000000, 0.000000000000000, 0.000000000000000, 0.000000000000000 );
#58 = SURFACE_STYLE_USAGE( .BOTH., #88 );
#59 = FACE_OUTER_BOUND( '', #89, .T. );
#60 = FACE_OUTER_BOUND( '', #90, .T. );
#61 = CYLINDRICAL_SURFACE( '', #91, 4.00000000000000 );
#62 = SURFACE_STYLE_USAGE( .BOTH., #92 );
#63 = FACE_OUTER_BOUND( '', #93, .T. );
#64 = PLANE( '', #94 );
#65 = SURFACE_STYLE_USAGE( .BOTH., #95 );
#66 = FACE_BOUND( '', #96, .T. );
#67 = FACE_OUTER_BOUND( '', #97, .T. );
#68 = SPHERICAL_SURFACE( '', #98, 5.00000000000000 );
#69 = SURFACE_STYLE_USAGE( .BOTH., #99 );
#70 = FACE_BOUND( '', #100, .T. );
#71 = FACE_OUTER_BOUND( '', #101, .T. );
#72 = PLANE( '', #102 );
#73 = SURFACE_STYLE_USAGE( .BOTH., #103 );
#74 = FACE_OUTER_BOUND( '', #104, .T. );
#75 = FACE_OUTER_BOUND( '', #105, .T. );
#76 = ( BOUNDED_SURFACE(  )B_SPLINE_SURFACE( 3, 3, ( ( #108, #109, #110, #111, #112, #113, #114 ), ( #115, #116, #117, #118, #119, #120, #121 ), ( #122, #123, #124, #125, #126, #127, #128 ), ( #129, #130, #131, #132, #133, #134, #135 ) ), .UNSPECIFIED., .F., .T., .F. )B_SPLINE_SURFACE_WITH_KNOTS( ( 4, 4 ), ( 4, 3, 4 ), ( 0.000000000000000, 6.28318530717959 ), ( -0.707425384393358, -0.337740446180364, 0.0319444920326302 ), .UNSPECIFIED. )GEOMETRIC_REPRESENTATION_ITEM(  )RATIONAL_B_SPLINE_SURFACE( ( ( 1.00000000000000, 0.333333333333333, 0.333333333333333, 1.00000000000000, 0.333333333333333, 0.333333333333333, 1.00000000000000 ), ( 0.954960820356744, 0.318320273452248, 0.318320273452248, 0.954960820356744, 0.318320273452248, 0.318320273452248, 0.954960820356744 ), ( 0.954960820356744, 0.318320273452248, 0.318320273452248, 0.954960820356744, 0.318320273452248, 0.318320273452248, 0.954960820356744 ), ( 1.00000000000000, 0.333333333333333, 0.333333333333333, 1.00000000000000, 0.333333333333333, 0.333333333333333, 1.00000000000000 ) ) )REPRESENTATION_ITEM( '' )SURFACE(  ) );
#77 = SURFACE_STYLE_USAGE( .BOTH., #141 );
#78 = FACE_BOUND( '', #142, .T. );
#79 = FACE_OUTER_BOUND( '', #143, .T. );
#80 = CONICAL_SURFACE( '', #144, 4.00000000000000, 0.785398163400000 );
#81 = PRODUCT_CONTEXT( '', #16, 'mechanical' );
#82 = PRODUCT_DEFINITION_FORMATION_WITH_SPECIFIED_SOURCE( ' ', 'NONE', #41, .NOT_KNOWN. );
#83 = CLOSED_SHELL( '', ( #40, #30, #36, #38, #34, #32 ) );
#84 = CARTESIAN_POINT( '', ( 0.000000000000000, 0.000000000000000, 0.000000000000000 ) );
#85 = DIRECTION( '', ( 0.000000000000000, 0.000000000000000, 1.00000000000000 ) );
#86 = DIRECTION( '', ( 1.00000000000000, 0.000000000000000, 0.000000000000000 ) );
#87 =  ( LENGTH_UNIT(  )NAMED_UNIT( #50 )SI_UNIT( .MILLI., .METRE. ) );
#88 = SURFACE_SIDE_STYLE( '', ( #146 ) );
#89 = EDGE_LOOP( '', ( #147 ) );
#90 = EDGE_LOOP( '', ( #148 ) );
#91 = AXIS2_PLACEMENT_3D( '', #149, #150, #151 );
#92 = SURFACE_SIDE_STYLE( '', ( #152 ) );
#93 = EDGE_LOOP( '', ( #153 ) );
#94 = AXIS2_PLACEMENT_3D( '', #154, #155, #156 );
#95 = SURFACE_SIDE_STYLE( '', ( #157 ) );
#96 = VERTEX_LOOP( '', #158 );
#97 = EDGE_LOOP( '', ( #159 ) );
#98 = AXIS2_PLACEMENT_3D( '', #160, #161, #162 );
#99 = SURFACE_SIDE_STYLE( '', ( #163 ) );
#100 = EDGE_LOOP( '', ( #164 ) );
#101 = EDGE_LOOP( '', ( #165 ) );
#102 = AXIS2_PLACEMENT_3D( '', #166, #167, #168 );
#103 = SURFACE_SIDE_STYLE( '', ( #169 ) );
#104 = EDGE_LOOP( '', ( #170 ) );
#105 = EDGE_LOOP( '', ( #171 ) );
#108 = CARTESIAN_POINT( '', ( 0.000000000000000, -1.71303943252710E-14, -17.5000000000000 ) );
#109 = CARTESIAN_POINT( '', ( 35.0000000000000, -1.71303943252710E-14, -17.5000000000000 ) );
#110 = CARTESIAN_POINT( '', ( 35.0000000000000, -1.71303943252710E-14, 17.5000000000000 ) );
#111 = CARTESIAN_POINT( '', ( 0.000000000000000, -1.71303943252710E-14, 17.5000000000000 ) );
#112 = CARTESIAN_POINT( '', ( -35.0000000000000, -1.71303943252710E-14, 17.5000000000000 ) );
#113 = CARTESIAN_POINT( '', ( -35.0000000000000, -1.71303943252710E-14, -17.5000000000000 ) );
#114 = CARTESIAN_POINT( '', ( 0.000000000000000, -1.71303943252710E-14, -17.5000000000000 ) );
#115 = CARTESIAN_POINT( '', ( 0.000000000000000, 13.8662256576250, -17.9431002659370 ) );
#116 = CARTESIAN_POINT( '', ( 35.8862005318740, 13.8662256576250, -17.9431002659370 ) );
#117 = CARTESIAN_POINT( '', ( 35.8862005318740, 13.8662256576250, 17.9431002659370 ) );
#118 = CARTESIAN_POINT( '', ( 0.000000000000000, 13.8662256576250, 17.9431002659370 ) );
#119 = CARTESIAN_POINT( '', ( -35.8862005318740, 13.8662256576250, 17.9431002659370 ) );
#120 = CARTESIAN_POINT( '', ( -35.8862005318740, 13.8662256576250, -17.9431002659370 ) );
#121 = CARTESIAN_POINT( '', ( 0.000000000000000, 13.8662256576250, -17.9431002659370 ) );
#122 = CARTESIAN_POINT( '', ( 0.000000000000000, 26.9557679022277, -13.3460973661538 ) );
#123 = CARTESIAN_POINT( '', ( 26.6921947323077, 26.9557679022277, -13.3460973661538 ) );
#124 = CARTESIAN_POINT( '', ( 26.6921947323077, 26.9557679022277, 13.3460973661538 ) );
#125 = CARTESIAN_POINT( '', ( 0.000000000000000, 26.9557679022277, 13.3460973661538 ) );
#126 = CARTESIAN_POINT( '', ( -26.6921947323077, 26.9557679022277, 13.3460973661538 ) );
#127 = CARTESIAN_POINT( '', ( -26.6921947323077, 26.9557679022277, -13.3460973661538 ) );
#128 = CARTESIAN_POINT( '', ( 0.000000000000000, 26.9557679022277, -13.3460973661538 ) );
#129 = CARTESIAN_POINT( '', ( 0.000000000000000, 37.5000000000000, -4.33012701892218 ) );
#130 = CARTESIAN_POINT( '', ( 8.66025403784436, 37.5000000000000, -4.33012701892218 ) );
#131 = CARTESIAN_POINT( '', ( 8.66025403784436, 37.5000000000000, 4.33012701892218 ) );
#132 = CARTESIAN_POINT( '', ( 0.000000000000000, 37.5000000000000, 4.33012701892218 ) );
#133 = CARTESIAN_POINT( '', ( -8.66025403784436, 37.5000000000000, 4.33012701892218 ) );
#134 = CARTESIAN_POINT( '', ( -8.66025403784436, 37.5000000000000, -4.33012701892218 ) );
#135 = CARTESIAN_POINT( '', ( 0.000000000000000, 37.5000000000000, -4.33012701892218 ) );
#141 = SURFACE_SIDE_STYLE( '', ( #172 ) );
#142 = EDGE_LOOP( '', ( #173 ) );
#143 = EDGE_LOOP( '', ( #174 ) );
#144 = AXIS2_PLACEMENT_3D( '', #175, #176, #177 );
#146 = SURFACE_STYLE_FILL_AREA( #178 );
#147 = ORIENTED_EDGE( '', *, *, #179, .F. );
#148 = ORIENTED_EDGE( '', *, *, #180, .T. );
#149 = CARTESIAN_POINT( '', ( 0.000000000000000, 0.000000000000000, 0.000000000000000 ) );
#150 = DIRECTION( '', ( -0.000000000000000, 1.00000000000000, 0.000000000000000 ) );
#151 = DIRECTION( '', ( 0.000000000000000, 0.000000000000000, -1.00000000000000 ) );
#152 = SURFACE_STYLE_FILL_AREA( #181 );
#153 = ORIENTED_EDGE( '', *, *, #182, .T. );
#154 = CARTESIAN_POINT( '', ( 3.23300000000000, -23.0000000000000, 0.000000000000000 ) );
#155 = DIRECTION( '', ( 0.000000000000000, 1.00000000000000, 0.000000000000000 ) );
#156 = DIRECTION( '', ( 0.000000000000000, -0.000000000000000, 1.00000000000000 ) );
#157 = SURFACE_STYLE_FILL_AREA( #183 );
#158 = VERTEX_POINT( '', #184 );
#159 = ORIENTED_EDGE( '', *, *, #185, .F. );
#160 = CARTESIAN_POINT( '', ( -1.49619899803000E-14, 35.0000000000000, 0.000000000000000 ) );
#161 = DIRECTION( '', ( 0.000000000000000, -1.00000000000000, 0.000000000000000 ) );
#162 = DIRECTION( '', ( 1.00000000000000, 0.000000000000000, 0.000000000000000 ) );
#163 = SURFACE_STYLE_FILL_AREA( #186 );
#164 = ORIENTED_EDGE( '', *, *, #180, .F. );
#165 = ORIENTED_EDGE( '', *, *, #187, .T. );
#166 = CARTESIAN_POINT( '', ( 17.5000000000000, -1.87566975839992E-14, 0.000000000000000 ) );
#167 = DIRECTION( '', ( 0.000000000000000, 1.00000000000000, 0.000000000000000 ) );
#168 = DIRECTION( '', ( 0.000000000000000, -0.000000000000000, 1.00000000000000 ) );
#169 = SURFACE_STYLE_FILL_AREA( #188 );
#170 = ORIENTED_EDGE( '', *, *, #185, .T. );
#171 = ORIENTED_EDGE( '', *, *, #187, .F. );
#172 = SURFACE_STYLE_FILL_AREA( #189 );
#173 = ORIENTED_EDGE( '', *, *, #182, .F. );
#174 = ORIENTED_EDGE( '', *, *, #179, .T. );
#175 = CARTESIAN_POINT( '', ( 0.000000000000000, -22.2330000000000, 0.000000000000000 ) );
#176 = DIRECTION( '', ( -0.000000000000000, 1.00000000000000, 0.000000000000000 ) );
#177 = DIRECTION( '', ( 0.000000000000000, -0.000000000000000, 1.00000000000000 ) );
#178 = FILL_AREA_STYLE( '', ( #190 ) );
#179 = EDGE_CURVE( '', #191, #191, #192, .T. );
#180 = EDGE_CURVE( '', #193, #193, #194, .T. );
#181 = FILL_AREA_STYLE( '', ( #195 ) );
#182 = EDGE_CURVE( '', #196, #196, #197, .T. );
#183 = FILL_AREA_STYLE( '', ( #198 ) );
#184 = CARTESIAN_POINT( '', ( -1.46558282805131E-14, 40.0000000000000, 0.000000000000000 ) );
#185 = EDGE_CURVE( '', #199, #199, #200, .T. );
#186 = FILL_AREA_STYLE( '', ( #201 ) );
#187 = EDGE_CURVE( '', #202, #202, #203, .T. );
#188 = FILL_AREA_STYLE( '', ( #204 ) );
#189 = FILL_AREA_STYLE( '', ( #205 ) );
#190 = FILL_AREA_STYLE_COLOUR( '', #206 );
#191 = VERTEX_POINT( '', #207 );
#192 = CIRCLE( '', #208, 4.00000000000000 );
#193 = VERTEX_POINT( '', #209 );
#194 = CIRCLE( '', #210, 4.00000000000000 );
#195 = FILL_AREA_STYLE_COLOUR( '', #211 );
#196 = VERTEX_POINT( '', #212 );
#197 = CIRCLE( '', #213, 3.23300000000000 );
#198 = FILL_AREA_STYLE_COLOUR( '', #214 );
#199 = VERTEX_POINT( '', #215 );
#200 = CIRCLE( '', #216, 4.33012701890000 );
#201 = FILL_AREA_STYLE_COLOUR( '', #217 );
#202 = VERTEX_POINT( '', #218 );
#203 = CIRCLE( '', #219, 17.5000000000000 );
#204 = FILL_AREA_STYLE_COLOUR( '', #220 );
#205 = FILL_AREA_STYLE_COLOUR( '', #221 );
#206 = COLOUR_RGB( '', 0.689999997600000, 0.689999997600000, 0.689999997600000 );
#207 = CARTESIAN_POINT( '', ( 0.000000000000000, -22.2330000000000, -4.00000000000000 ) );
#208 = AXIS2_PLACEMENT_3D( '', #222, #223, #224 );
#209 = CARTESIAN_POINT( '', ( 0.000000000000000, 0.000000000000000, -4.00000000000000 ) );
#210 = AXIS2_PLACEMENT_3D( '', #225, #226, #227 );
#211 = COLOUR_RGB( '', 0.689999997600000, 0.689999997600000, 0.689999997600000 );
#212 = CARTESIAN_POINT( '', ( 0.000000000000000, -23.0000000000000, -3.23300000000000 ) );
#213 = AXIS2_PLACEMENT_3D( '', #228, #229, #230 );
#214 = COLOUR_RGB( '', 0.689999997600000, 0.689999997600000, 0.689999997600000 );
#215 = CARTESIAN_POINT( '', ( 0.000000000000000, 37.5000000000000, -4.33012701892218 ) );
#216 = AXIS2_PLACEMENT_3D( '', #231, #232, #233 );
#217 = COLOUR_RGB( '', 0.689999997600000, 0.689999997600000, 0.689999997600000 );
#218 = CARTESIAN_POINT( '', ( 0.000000000000000, -3.75133951679985E-14, -17.5000000000000 ) );
#219 = AXIS2_PLACEMENT_3D( '', #234, #235, #236 );
#220 = COLOUR_RGB( '', 0.689999997600000, 0.689999997600000, 0.689999997600000 );
#221 = COLOUR_RGB( '', 0.689999997600000, 0.689999997600000, 0.689999997600000 );
#222 = CARTESIAN_POINT( '', ( 0.000000000000000, -22.2330000000000, 0.000000000000000 ) );
#223 = DIRECTION( '', ( 0.000000000000000, -1.00000000000000, -0.000000000000000 ) );
#224 = DIRECTION( '', ( 0.000000000000000, 0.000000000000000, -1.00000000000000 ) );
#225 = CARTESIAN_POINT( '', ( 0.000000000000000, 0.000000000000000, 0.000000000000000 ) );
#226 = DIRECTION( '', ( 0.000000000000000, -1.00000000000000, -0.000000000000000 ) );
#227 = DIRECTION( '', ( 0.000000000000000, 0.000000000000000, -1.00000000000000 ) );
#228 = CARTESIAN_POINT( '', ( 0.000000000000000, -23.0000000000000, 0.000000000000000 ) );
#229 = DIRECTION( '', ( 0.000000000000000, -1.00000000000000, -0.000000000000000 ) );
#230 = DIRECTION( '', ( 0.000000000000000, 0.000000000000000, -1.00000000000000 ) );
#231 = CARTESIAN_POINT( '', ( 0.000000000000000, 37.5000000000000, 0.000000000000000 ) );
#232 = DIRECTION( '', ( 0.000000000000000, -1.00000000000000, -0.000000000000000 ) );
#233 = DIRECTION( '', ( 0.000000000000000, 0.000000000000000, -1.00000000000000 ) );
#234 = CARTESIAN_POINT( '', ( 0.000000000000000, -3.75133951679985E-14, 0.000000000000000 ) );
#235 = DIRECTION( '', ( 0.000000000000000, -1.00000000000000, -0.000000000000000 ) );
#236 = DIRECTION( '', ( 0.000000000000000, 0.000000000000000, -1.00000000000000 ) );
ENDSEC;
END-ISO-10303-21;
