ISO-10303-21;
HEADER;
FILE_DESCRIPTION( ( 'STEP AP214' ), '1' );
FILE_NAME( '//goodhand-server/Shared Folders/GoodHand Data/Kipp CAD/K0127/27618-1008127.stp', '2020-11-25T11:42:56', ( '' ), ( '' ), ' ', 'PARTsolutions', ' ' );
FILE_SCHEMA( ( 'AUTOMOTIVE_DESIGN { 1 0 10303 214 1 1 1 1 }' ) );
ENDSEC;
DATA;
#1 = MECHANICAL_DESIGN_GEOMETRIC_PRESENTATION_REPRESENTATION( ' ', ( #10, #11, #12, #13, #14, #15, #16, #17, #18, #19, #20, #21, #22 ), #6 );
#2 = PRODUCT_DEFINITION_CONTEXT( '', #23, 'design' );
#3 = APPLICATION_PROTOCOL_DEFINITION( 'international standard', 'automotive_design', 2001, #23 );
#4 = PRODUCT_CATEGORY_RELATIONSHIP( 'NONE', 'NONE', #24, #25 );
#5 = SHAPE_DEFINITION_REPRESENTATION( #26, #27 );
#6 =  ( GEOMETRIC_REPRESENTATION_CONTEXT( 3 )GLOBAL_UNCERTAINTY_ASSIGNED_CONTEXT( ( #30 ) )GLOBAL_UNIT_ASSIGNED_CONTEXT( ( #32, #33, #34 ) )REPRESENTATION_CONTEXT( 'NONE', 'WORKSPACE' ) );
#10 = STYLED_ITEM( '', ( #36 ), #37 );
#11 = STYLED_ITEM( '', ( #38 ), #39 );
#12 = STYLED_ITEM( '', ( #40 ), #41 );
#13 = STYLED_ITEM( '', ( #42 ), #43 );
#14 = STYLED_ITEM( '', ( #44 ), #45 );
#15 = STYLED_ITEM( '', ( #46 ), #47 );
#16 = STYLED_ITEM( '', ( #48 ), #49 );
#17 = STYLED_ITEM( '', ( #50 ), #51 );
#18 = STYLED_ITEM( '', ( #52 ), #53 );
#19 = STYLED_ITEM( '', ( #54 ), #55 );
#20 = STYLED_ITEM( '', ( #56 ), #57 );
#21 = STYLED_ITEM( '', ( #58 ), #59 );
#22 = STYLED_ITEM( '', ( #60 ), #61 );
#23 = APPLICATION_CONTEXT( 'core data for automotive mechanical design processes' );
#24 = PRODUCT_CATEGORY( 'part', 'NONE' );
#25 = PRODUCT_RELATED_PRODUCT_CATEGORY( 'detail', ' ', ( #62 ) );
#26 = PRODUCT_DEFINITION_SHAPE( 'NONE', 'NONE', #63 );
#27 = ADVANCED_BREP_SHAPE_REPRESENTATION( '_27618-1008127', ( #64, #65 ), #6 );
#30 = UNCERTAINTY_MEASURE_WITH_UNIT( LENGTH_MEASURE( 0.00100000000000000 ), #32, '', '' );
#32 =  ( CONVERSION_BASED_UNIT( 'MILLIMETRE', #68 )LENGTH_UNIT(  )NAMED_UNIT( #71 ) );
#33 =  ( NAMED_UNIT( #73 )PLANE_ANGLE_UNIT(  )SI_UNIT( $, .RADIAN. ) );
#34 =  ( NAMED_UNIT( #73 )SI_UNIT( $, .STERADIAN. )SOLID_ANGLE_UNIT(  ) );
#36 = PRESENTATION_STYLE_ASSIGNMENT( ( #79 ) );
#37 = ADVANCED_FACE( '', ( #80, #81 ), #82, .T. );
#38 = PRESENTATION_STYLE_ASSIGNMENT( ( #83 ) );
#39 = ADVANCED_FACE( '', ( #84, #85 ), #86, .F. );
#40 = PRESENTATION_STYLE_ASSIGNMENT( ( #87 ) );
#41 = ADVANCED_FACE( '', ( #88 ), #89, .F. );
#42 = PRESENTATION_STYLE_ASSIGNMENT( ( #90 ) );
#43 = ADVANCED_FACE( '', ( #91, #92 ), #93, .F. );
#44 = PRESENTATION_STYLE_ASSIGNMENT( ( #94 ) );
#45 = ADVANCED_FACE( '', ( #95 ), #96, .T. );
#46 = PRESENTATION_STYLE_ASSIGNMENT( ( #97 ) );
#47 = ADVANCED_FACE( '', ( #98, #99 ), #100, .F. );
#48 = PRESENTATION_STYLE_ASSIGNMENT( ( #101 ) );
#49 = ADVANCED_FACE( '', ( #102, #103 ), #104, .F. );
#50 = PRESENTATION_STYLE_ASSIGNMENT( ( #105 ) );
#51 = ADVANCED_FACE( '', ( #106, #107 ), #108, .T. );
#52 = PRESENTATION_STYLE_ASSIGNMENT( ( #109 ) );
#53 = ADVANCED_FACE( '', ( #110, #111 ), #112, .F. );
#54 = PRESENTATION_STYLE_ASSIGNMENT( ( #113 ) );
#55 = ADVANCED_FACE( '', ( #114, #115 ), #116, .T. );
#56 = PRESENTATION_STYLE_ASSIGNMENT( ( #117 ) );
#57 = ADVANCED_FACE( '', ( #118, #119 ), #120, .F. );
#58 = PRESENTATION_STYLE_ASSIGNMENT( ( #121 ) );
#59 = ADVANCED_FACE( '', ( #122, #123 ), #124, .T. );
#60 = PRESENTATION_STYLE_ASSIGNMENT( ( #125 ) );
#61 = ADVANCED_FACE( '', ( #126 ), #127, .T. );
#62 = PRODUCT( '_27618-1008127', '_27618-1008127', 'PART-_27618-1008127-DESC', ( #128 ) );
#63 = PRODUCT_DEFINITION( 'NONE', 'NONE', #129, #2 );
#64 = MANIFOLD_SOLID_BREP( '_27618-1008127', #130 );
#65 = AXIS2_PLACEMENT_3D( '', #131, #132, #133 );
#68 = LENGTH_MEASURE_WITH_UNIT( LENGTH_MEASURE( 1.00000000000000 ), #134 );
#71 = DIMENSIONAL_EXPONENTS( 1.00000000000000, 0.000000000000000, 0.000000000000000, 0.000000000000000, 0.000000000000000, 0.000000000000000, 0.000000000000000 );
#73 = DIMENSIONAL_EXPONENTS( 0.000000000000000, 0.000000000000000, 0.000000000000000, 0.000000000000000, 0.000000000000000, 0.000000000000000, 0.000000000000000 );
#79 = SURFACE_STYLE_USAGE( .BOTH., #135 );
#80 = FACE_BOUND( '', #136, .T. );
#81 = FACE_OUTER_BOUND( '', #137, .T. );
#82 = PLANE( '', #138 );
#83 = SURFACE_STYLE_USAGE( .BOTH., #139 );
#84 = FACE_OUTER_BOUND( '', #140, .T. );
#85 = FACE_OUTER_BOUND( '', #141, .T. );
#86 = CYLINDRICAL_SURFACE( '', #142, 4.18800000000000 );
#87 = SURFACE_STYLE_USAGE( .BOTH., #143 );
#88 = FACE_OUTER_BOUND( '', #144, .T. );
#89 = PLANE( '', #145 );
#90 = SURFACE_STYLE_USAGE( .BOTH., #146 );
#91 = FACE_BOUND( '', #147, .T. );
#92 = FACE_OUTER_BOUND( '', #148, .T. );
#93 = CONICAL_SURFACE( '', #149, 5.00000000000000, 0.785398163400000 );
#94 = SURFACE_STYLE_USAGE( .BOTH., #150 );
#95 = FACE_OUTER_BOUND( '', #151, .T. );
#96 = PLANE( '', #152 );
#97 = SURFACE_STYLE_USAGE( .BOTH., #153 );
#98 = FACE_OUTER_BOUND( '', #154, .T. );
#99 = FACE_OUTER_BOUND( '', #155, .T. );
#100 = CYLINDRICAL_SURFACE( '', #156, 4.05000000000000 );
#101 = SURFACE_STYLE_USAGE( .BOTH., #157 );
#102 = FACE_BOUND( '', #158, .T. );
#103 = FACE_OUTER_BOUND( '', #159, .T. );
#104 = CONICAL_SURFACE( '', #160, 4.55000000000000, 0.785398163400000 );
#105 = SURFACE_STYLE_USAGE( .BOTH., #161 );
#106 = FACE_BOUND( '', #162, .T. );
#107 = FACE_OUTER_BOUND( '', #163, .T. );
#108 = PLANE( '', #164 );
#109 = SURFACE_STYLE_USAGE( .BOTH., #165 );
#110 = FACE_OUTER_BOUND( '', #166, .T. );
#111 = FACE_BOUND( '', #167, .T. );
#112 = CONICAL_SURFACE( '', #168, 4.05000000000000, 0.785398163400000 );
#113 = SURFACE_STYLE_USAGE( .BOTH., #169 );
#114 = FACE_OUTER_BOUND( '', #170, .T. );
#115 = FACE_OUTER_BOUND( '', #171, .T. );
#116 = CYLINDRICAL_SURFACE( '', #172, 9.00000000000000 );
#117 = SURFACE_STYLE_USAGE( .BOTH., #173 );
#118 = FACE_BOUND( '', #174, .T. );
#119 = FACE_OUTER_BOUND( '', #175, .T. );
#120 = PLANE( '', #176 );
#121 = SURFACE_STYLE_USAGE( .BOTH., #177 );
#122 = FACE_BOUND( '', #178, .T. );
#123 = FACE_OUTER_BOUND( '', #179, .T. );
#124 = SPHERICAL_SURFACE( '', #180, 9.00000000000000 );
#125 = SURFACE_STYLE_USAGE( .BOTH., #181 );
#126 = FACE_OUTER_BOUND( '', #182, .T. );
#127 = PLANE( '', #183 );
#128 = PRODUCT_CONTEXT( '', #23, 'mechanical' );
#129 = PRODUCT_DEFINITION_FORMATION_WITH_SPECIFIED_SOURCE( ' ', 'NONE', #62, .NOT_KNOWN. );
#130 = CLOSED_SHELL( '', ( #59, #55, #57, #43, #39, #41, #45, #51, #37, #61, #49, #47, #53 ) );
#131 = CARTESIAN_POINT( '', ( 0.000000000000000, 0.000000000000000, 0.000000000000000 ) );
#132 = DIRECTION( '', ( 0.000000000000000, 0.000000000000000, 1.00000000000000 ) );
#133 = DIRECTION( '', ( 1.00000000000000, 0.000000000000000, 0.000000000000000 ) );
#134 =  ( LENGTH_UNIT(  )NAMED_UNIT( #71 )SI_UNIT( .MILLI., .METRE. ) );
#135 = SURFACE_SIDE_STYLE( '', ( #185 ) );
#136 = EDGE_LOOP( '', ( #186 ) );
#137 = EDGE_LOOP( '', ( #187, #188, #189, #190 ) );
#138 = AXIS2_PLACEMENT_3D( '', #191, #192, #193 );
#139 = SURFACE_SIDE_STYLE( '', ( #194 ) );
#140 = EDGE_LOOP( '', ( #195 ) );
#141 = EDGE_LOOP( '', ( #196 ) );
#142 = AXIS2_PLACEMENT_3D( '', #197, #198, #199 );
#143 = SURFACE_SIDE_STYLE( '', ( #200 ) );
#144 = EDGE_LOOP( '', ( #201 ) );
#145 = AXIS2_PLACEMENT_3D( '', #202, #203, #204 );
#146 = SURFACE_SIDE_STYLE( '', ( #205 ) );
#147 = EDGE_LOOP( '', ( #206 ) );
#148 = EDGE_LOOP( '', ( #207 ) );
#149 = AXIS2_PLACEMENT_3D( '', #208, #209, #210 );
#150 = SURFACE_SIDE_STYLE( '', ( #211 ) );
#151 = EDGE_LOOP( '', ( #212, #213 ) );
#152 = AXIS2_PLACEMENT_3D( '', #214, #215, #216 );
#153 = SURFACE_SIDE_STYLE( '', ( #217 ) );
#154 = EDGE_LOOP( '', ( #218 ) );
#155 = EDGE_LOOP( '', ( #219 ) );
#156 = AXIS2_PLACEMENT_3D( '', #220, #221, #222 );
#157 = SURFACE_SIDE_STYLE( '', ( #223 ) );
#158 = EDGE_LOOP( '', ( #224 ) );
#159 = EDGE_LOOP( '', ( #225 ) );
#160 = AXIS2_PLACEMENT_3D( '', #226, #227, #228 );
#161 = SURFACE_SIDE_STYLE( '', ( #229 ) );
#162 = EDGE_LOOP( '', ( #230 ) );
#163 = EDGE_LOOP( '', ( #231, #232, #233, #234 ) );
#164 = AXIS2_PLACEMENT_3D( '', #235, #236, #237 );
#165 = SURFACE_SIDE_STYLE( '', ( #238 ) );
#166 = EDGE_LOOP( '', ( #239 ) );
#167 = EDGE_LOOP( '', ( #240 ) );
#168 = AXIS2_PLACEMENT_3D( '', #241, #242, #243 );
#169 = SURFACE_SIDE_STYLE( '', ( #244 ) );
#170 = EDGE_LOOP( '', ( #245 ) );
#171 = EDGE_LOOP( '', ( #246, #247, #248, #249, #250, #251, #252, #253 ) );
#172 = AXIS2_PLACEMENT_3D( '', #254, #255, #256 );
#173 = SURFACE_SIDE_STYLE( '', ( #257 ) );
#174 = EDGE_LOOP( '', ( #258 ) );
#175 = EDGE_LOOP( '', ( #259 ) );
#176 = AXIS2_PLACEMENT_3D( '', #260, #261, #262 );
#177 = SURFACE_SIDE_STYLE( '', ( #263 ) );
#178 = VERTEX_LOOP( '', #264 );
#179 = EDGE_LOOP( '', ( #265, #266, #267, #268 ) );
#180 = AXIS2_PLACEMENT_3D( '', #269, #270, #271 );
#181 = SURFACE_SIDE_STYLE( '', ( #272 ) );
#182 = EDGE_LOOP( '', ( #273, #274 ) );
#183 = AXIS2_PLACEMENT_3D( '', #275, #276, #277 );
#185 = SURFACE_STYLE_FILL_AREA( #278 );
#186 = ORIENTED_EDGE( '', *, *, #279, .F. );
#187 = ORIENTED_EDGE( '', *, *, #280, .T. );
#188 = ORIENTED_EDGE( '', *, *, #281, .T. );
#189 = ORIENTED_EDGE( '', *, *, #282, .T. );
#190 = ORIENTED_EDGE( '', *, *, #283, .F. );
#191 = CARTESIAN_POINT( '', ( 5.00000000000000, 36.0000000000000, 9.00000000000000 ) );
#192 = DIRECTION( '', ( 1.00000000000000, 0.000000000000000, -0.000000000000000 ) );
#193 = DIRECTION( '', ( -0.000000000000000, 0.000000000000000, -1.00000000000000 ) );
#194 = SURFACE_STYLE_FILL_AREA( #284 );
#195 = ORIENTED_EDGE( '', *, *, #285, .F. );
#196 = ORIENTED_EDGE( '', *, *, #286, .T. );
#197 = CARTESIAN_POINT( '', ( 0.000000000000000, 0.000000000000000, 0.000000000000000 ) );
#198 = DIRECTION( '', ( -0.000000000000000, 1.00000000000000, 0.000000000000000 ) );
#199 = DIRECTION( '', ( 0.000000000000000, 0.000000000000000, -1.00000000000000 ) );
#200 = SURFACE_STYLE_FILL_AREA( #287 );
#201 = ORIENTED_EDGE( '', *, *, #285, .T. );
#202 = CARTESIAN_POINT( '', ( 4.18800000000000, 12.0000000000000, 0.000000000000000 ) );
#203 = DIRECTION( '', ( 0.000000000000000, 1.00000000000000, 0.000000000000000 ) );
#204 = DIRECTION( '', ( 0.000000000000000, -0.000000000000000, 1.00000000000000 ) );
#205 = SURFACE_STYLE_FILL_AREA( #288 );
#206 = ORIENTED_EDGE( '', *, *, #286, .F. );
#207 = ORIENTED_EDGE( '', *, *, #289, .T. );
#208 = CARTESIAN_POINT( '', ( 0.000000000000000, 0.000000000000000, 0.000000000000000 ) );
#209 = DIRECTION( '', ( -0.000000000000000, -1.00000000000000, -0.000000000000000 ) );
#210 = DIRECTION( '', ( 0.000000000000000, 0.000000000000000, -1.00000000000000 ) );
#211 = SURFACE_STYLE_FILL_AREA( #290 );
#212 = ORIENTED_EDGE( '', *, *, #291, .T. );
#213 = ORIENTED_EDGE( '', *, *, #292, .T. );
#214 = CARTESIAN_POINT( '', ( -9.00000000000000, 12.0000000000000, 9.00000000000000 ) );
#215 = DIRECTION( '', ( 0.000000000000000, 1.00000000000000, 0.000000000000000 ) );
#216 = DIRECTION( '', ( 0.000000000000000, -0.000000000000000, 1.00000000000000 ) );
#217 = SURFACE_STYLE_FILL_AREA( #293 );
#218 = ORIENTED_EDGE( '', *, *, #294, .T. );
#219 = ORIENTED_EDGE( '', *, *, #295, .F. );
#220 = CARTESIAN_POINT( '', ( 5.00000000000000, 27.0000000000000, 0.000000000000000 ) );
#221 = DIRECTION( '', ( -1.00000000000000, -0.000000000000000, 0.000000000000000 ) );
#222 = DIRECTION( '', ( -0.000000000000000, 0.000000000000000, -1.00000000000000 ) );
#223 = SURFACE_STYLE_FILL_AREA( #296 );
#224 = ORIENTED_EDGE( '', *, *, #295, .T. );
#225 = ORIENTED_EDGE( '', *, *, #297, .F. );
#226 = CARTESIAN_POINT( '', ( -5.00000000000000, 27.0000000000000, 0.000000000000000 ) );
#227 = DIRECTION( '', ( -1.00000000000000, 0.000000000000000, -0.000000000000000 ) );
#228 = DIRECTION( '', ( 0.000000000000000, 0.000000000000000, 1.00000000000000 ) );
#229 = SURFACE_STYLE_FILL_AREA( #298 );
#230 = ORIENTED_EDGE( '', *, *, #297, .T. );
#231 = ORIENTED_EDGE( '', *, *, #299, .T. );
#232 = ORIENTED_EDGE( '', *, *, #291, .F. );
#233 = ORIENTED_EDGE( '', *, *, #300, .T. );
#234 = ORIENTED_EDGE( '', *, *, #301, .F. );
#235 = CARTESIAN_POINT( '', ( -5.00000000000000, 12.0000000000000, 9.00000000000000 ) );
#236 = DIRECTION( '', ( -1.00000000000000, 0.000000000000000, 0.000000000000000 ) );
#237 = DIRECTION( '', ( 0.000000000000000, 0.000000000000000, 1.00000000000000 ) );
#238 = SURFACE_STYLE_FILL_AREA( #302 );
#239 = ORIENTED_EDGE( '', *, *, #279, .T. );
#240 = ORIENTED_EDGE( '', *, *, #294, .F. );
#241 = CARTESIAN_POINT( '', ( 4.50000000000000, 27.0000000000000, 0.000000000000000 ) );
#242 = DIRECTION( '', ( 1.00000000000000, -0.000000000000000, -0.000000000000000 ) );
#243 = DIRECTION( '', ( -0.000000000000000, 0.000000000000000, -1.00000000000000 ) );
#244 = SURFACE_STYLE_FILL_AREA( #303 );
#245 = ORIENTED_EDGE( '', *, *, #304, .F. );
#246 = ORIENTED_EDGE( '', *, *, #292, .F. );
#247 = ORIENTED_EDGE( '', *, *, #299, .F. );
#248 = ORIENTED_EDGE( '', *, *, #305, .T. );
#249 = ORIENTED_EDGE( '', *, *, #282, .F. );
#250 = ORIENTED_EDGE( '', *, *, #306, .F. );
#251 = ORIENTED_EDGE( '', *, *, #280, .F. );
#252 = ORIENTED_EDGE( '', *, *, #307, .T. );
#253 = ORIENTED_EDGE( '', *, *, #300, .F. );
#254 = CARTESIAN_POINT( '', ( 0.000000000000000, 0.000000000000000, 0.000000000000000 ) );
#255 = DIRECTION( '', ( -0.000000000000000, 1.00000000000000, 0.000000000000000 ) );
#256 = DIRECTION( '', ( 0.000000000000000, 0.000000000000000, -1.00000000000000 ) );
#257 = SURFACE_STYLE_FILL_AREA( #308 );
#258 = ORIENTED_EDGE( '', *, *, #289, .F. );
#259 = ORIENTED_EDGE( '', *, *, #304, .T. );
#260 = CARTESIAN_POINT( '', ( 9.00000000000000, 0.000000000000000, 0.000000000000000 ) );
#261 = DIRECTION( '', ( 0.000000000000000, 1.00000000000000, 0.000000000000000 ) );
#262 = DIRECTION( '', ( 0.000000000000000, -0.000000000000000, 1.00000000000000 ) );
#263 = SURFACE_STYLE_FILL_AREA( #309 );
#264 = VERTEX_POINT( '', #310 );
#265 = ORIENTED_EDGE( '', *, *, #305, .F. );
#266 = ORIENTED_EDGE( '', *, *, #301, .T. );
#267 = ORIENTED_EDGE( '', *, *, #307, .F. );
#268 = ORIENTED_EDGE( '', *, *, #283, .T. );
#269 = CARTESIAN_POINT( '', ( -1.25767452008319E-14, 27.0000000000000, 0.000000000000000 ) );
#270 = DIRECTION( '', ( 0.000000000000000, -1.00000000000000, 0.000000000000000 ) );
#271 = DIRECTION( '', ( 1.00000000000000, 0.000000000000000, 0.000000000000000 ) );
#272 = SURFACE_STYLE_FILL_AREA( #311 );
#273 = ORIENTED_EDGE( '', *, *, #281, .F. );
#274 = ORIENTED_EDGE( '', *, *, #306, .T. );
#275 = CARTESIAN_POINT( '', ( 5.00000000000000, 12.0000000000000, 9.00000000000000 ) );
#276 = DIRECTION( '', ( 0.000000000000000, 1.00000000000000, 0.000000000000000 ) );
#277 = DIRECTION( '', ( 0.000000000000000, -0.000000000000000, 1.00000000000000 ) );
#278 = FILL_AREA_STYLE( '', ( #312 ) );
#279 = EDGE_CURVE( '', #313, #313, #314, .T. );
#280 = EDGE_CURVE( '', #315, #316, #317, .T. );
#281 = EDGE_CURVE( '', #316, #318, #319, .T. );
#282 = EDGE_CURVE( '', #318, #320, #321, .F. );
#283 = EDGE_CURVE( '', #315, #320, #322, .F. );
#284 = FILL_AREA_STYLE( '', ( #323 ) );
#285 = EDGE_CURVE( '', #324, #324, #325, .T. );
#286 = EDGE_CURVE( '', #326, #326, #327, .T. );
#287 = FILL_AREA_STYLE( '', ( #328 ) );
#288 = FILL_AREA_STYLE( '', ( #329 ) );
#289 = EDGE_CURVE( '', #330, #330, #331, .T. );
#290 = FILL_AREA_STYLE( '', ( #332 ) );
#291 = EDGE_CURVE( '', #333, #334, #335, .T. );
#292 = EDGE_CURVE( '', #334, #333, #336, .T. );
#293 = FILL_AREA_STYLE( '', ( #337 ) );
#294 = EDGE_CURVE( '', #338, #338, #339, .T. );
#295 = EDGE_CURVE( '', #340, #340, #341, .T. );
#296 = FILL_AREA_STYLE( '', ( #342 ) );
#297 = EDGE_CURVE( '', #343, #343, #344, .T. );
#298 = FILL_AREA_STYLE( '', ( #345 ) );
#299 = EDGE_CURVE( '', #346, #334, #347, .T. );
#300 = EDGE_CURVE( '', #333, #348, #349, .F. );
#301 = EDGE_CURVE( '', #346, #348, #350, .F. );
#302 = FILL_AREA_STYLE( '', ( #351 ) );
#303 = FILL_AREA_STYLE( '', ( #352 ) );
#304 = EDGE_CURVE( '', #353, #353, #354, .T. );
#305 = EDGE_CURVE( '', #346, #320, #355, .T. );
#306 = EDGE_CURVE( '', #316, #318, #356, .T. );
#307 = EDGE_CURVE( '', #315, #348, #357, .T. );
#308 = FILL_AREA_STYLE( '', ( #358 ) );
#309 = FILL_AREA_STYLE( '', ( #359 ) );
#310 = CARTESIAN_POINT( '', ( -1.20256541412155E-14, 36.0000000000000, 0.000000000000000 ) );
#311 = FILL_AREA_STYLE( '', ( #360 ) );
#312 = FILL_AREA_STYLE_COLOUR( '', #361 );
#313 = VERTEX_POINT( '', #362 );
#314 = CIRCLE( '', #363, 4.55000000000000 );
#315 = VERTEX_POINT( '', #364 );
#316 = VERTEX_POINT( '', #365 );
#317 = LINE( '', #366, #367 );
#318 = VERTEX_POINT( '', #368 );
#319 = LINE( '', #369, #370 );
#320 = VERTEX_POINT( '', #371 );
#321 = LINE( '', #372, #373 );
#322 = CIRCLE( '', #374, 7.48331477350000 );
#323 = FILL_AREA_STYLE_COLOUR( '', #375 );
#324 = VERTEX_POINT( '', #376 );
#325 = CIRCLE( '', #377, 4.18800000000000 );
#326 = VERTEX_POINT( '', #378 );
#327 = CIRCLE( '', #379, 4.18800000000000 );
#328 = FILL_AREA_STYLE_COLOUR( '', #380 );
#329 = FILL_AREA_STYLE_COLOUR( '', #381 );
#330 = VERTEX_POINT( '', #382 );
#331 = CIRCLE( '', #383, 5.00000000000000 );
#332 = FILL_AREA_STYLE_COLOUR( '', #384 );
#333 = VERTEX_POINT( '', #385 );
#334 = VERTEX_POINT( '', #386 );
#335 = LINE( '', #387, #388 );
#336 = CIRCLE( '', #389, 9.00000000000000 );
#337 = FILL_AREA_STYLE_COLOUR( '', #390 );
#338 = VERTEX_POINT( '', #391 );
#339 = CIRCLE( '', #392, 4.05000000000000 );
#340 = VERTEX_POINT( '', #393 );
#341 = CIRCLE( '', #394, 4.05000000000000 );
#342 = FILL_AREA_STYLE_COLOUR( '', #395 );
#343 = VERTEX_POINT( '', #396 );
#344 = CIRCLE( '', #397, 4.55000000000000 );
#345 = FILL_AREA_STYLE_COLOUR( '', #398 );
#346 = VERTEX_POINT( '', #399 );
#347 = LINE( '', #400, #401 );
#348 = VERTEX_POINT( '', #402 );
#349 = LINE( '', #403, #404 );
#350 = CIRCLE( '', #405, 7.48331477350000 );
#351 = FILL_AREA_STYLE_COLOUR( '', #406 );
#352 = FILL_AREA_STYLE_COLOUR( '', #407 );
#353 = VERTEX_POINT( '', #408 );
#354 = CIRCLE( '', #409, 9.00000000000000 );
#355 = CIRCLE( '', #410, 9.00000000000000 );
#356 = CIRCLE( '', #411, 9.00000000000000 );
#357 = CIRCLE( '', #412, 9.00000000000000 );
#358 = FILL_AREA_STYLE_COLOUR( '', #413 );
#359 = FILL_AREA_STYLE_COLOUR( '', #414 );
#360 = FILL_AREA_STYLE_COLOUR( '', #415 );
#361 = COLOUR_RGB( '', 0.689999997600000, 0.689999997600000, 0.689999997600000 );
#362 = CARTESIAN_POINT( '', ( 5.00000000000000, 27.0000000000000, -4.55000000000000 ) );
#363 = AXIS2_PLACEMENT_3D( '', #416, #417, #418 );
#364 = CARTESIAN_POINT( '', ( 5.00000000000000, 27.0000000000000, 7.48331477354789 ) );
#365 = CARTESIAN_POINT( '', ( 5.00000000000000, 12.0000000000000, 7.48331477354788 ) );
#366 = CARTESIAN_POINT( '', ( 5.00000000000000, 0.000000000000000, 7.48331477354788 ) );
#367 = VECTOR( '', #419, 1000.00000000000 );
#368 = CARTESIAN_POINT( '', ( 5.00000000000000, 12.0000000000000, -7.48331477354788 ) );
#369 = CARTESIAN_POINT( '', ( 5.00000000000000, 12.0000000000000, 9.00000000000000 ) );
#370 = VECTOR( '', #420, 1000.00000000000 );
#371 = CARTESIAN_POINT( '', ( 5.00000000000000, 27.0000000000000, -7.48331477354788 ) );
#372 = CARTESIAN_POINT( '', ( 5.00000000000000, 0.000000000000000, -7.48331477354788 ) );
#373 = VECTOR( '', #421, 1000.00000000000 );
#374 = AXIS2_PLACEMENT_3D( '', #422, #423, #424 );
#375 = COLOUR_RGB( '', 0.689999997600000, 0.689999997600000, 0.689999997600000 );
#376 = CARTESIAN_POINT( '', ( 0.000000000000000, 12.0000000000000, -4.18800000000000 ) );
#377 = AXIS2_PLACEMENT_3D( '', #425, #426, #427 );
#378 = CARTESIAN_POINT( '', ( 0.000000000000000, 0.812000000000000, -4.18800000000000 ) );
#379 = AXIS2_PLACEMENT_3D( '', #428, #429, #430 );
#380 = COLOUR_RGB( '', 0.689999997600000, 0.689999997600000, 0.689999997600000 );
#381 = COLOUR_RGB( '', 0.689999997600000, 0.689999997600000, 0.689999997600000 );
#382 = CARTESIAN_POINT( '', ( 0.000000000000000, 0.000000000000000, -5.00000000000000 ) );
#383 = AXIS2_PLACEMENT_3D( '', #431, #432, #433 );
#384 = COLOUR_RGB( '', 0.689999997600000, 0.689999997600000, 0.689999997600000 );
#385 = CARTESIAN_POINT( '', ( -5.00000000000000, 12.0000000000000, 7.48331477354788 ) );
#386 = CARTESIAN_POINT( '', ( -5.00000000000000, 12.0000000000000, -7.48331477354788 ) );
#387 = CARTESIAN_POINT( '', ( -5.00000000000000, 12.0000000000000, 9.00000000000000 ) );
#388 = VECTOR( '', #434, 1000.00000000000 );
#389 = AXIS2_PLACEMENT_3D( '', #435, #436, #437 );
#390 = COLOUR_RGB( '', 0.689999997600000, 0.689999997600000, 0.689999997600000 );
#391 = CARTESIAN_POINT( '', ( 4.50000000000000, 27.0000000000000, -4.05000000000000 ) );
#392 = AXIS2_PLACEMENT_3D( '', #438, #439, #440 );
#393 = CARTESIAN_POINT( '', ( -4.50000000000000, 27.0000000000000, -4.05000000000000 ) );
#394 = AXIS2_PLACEMENT_3D( '', #441, #442, #443 );
#395 = COLOUR_RGB( '', 0.689999997600000, 0.689999997600000, 0.689999997600000 );
#396 = CARTESIAN_POINT( '', ( -5.00000000000000, 27.0000000000000, -4.55000000000000 ) );
#397 = AXIS2_PLACEMENT_3D( '', #444, #445, #446 );
#398 = COLOUR_RGB( '', 0.689999997600000, 0.689999997600000, 0.689999997600000 );
#399 = CARTESIAN_POINT( '', ( -5.00000000000000, 27.0000000000000, -7.48331477354789 ) );
#400 = CARTESIAN_POINT( '', ( -5.00000000000000, 0.000000000000000, -7.48331477354788 ) );
#401 = VECTOR( '', #447, 1000.00000000000 );
#402 = CARTESIAN_POINT( '', ( -5.00000000000000, 27.0000000000000, 7.48331477354788 ) );
#403 = CARTESIAN_POINT( '', ( -5.00000000000000, 0.000000000000000, 7.48331477354788 ) );
#404 = VECTOR( '', #448, 1000.00000000000 );
#405 = AXIS2_PLACEMENT_3D( '', #449, #450, #451 );
#406 = COLOUR_RGB( '', 0.689999997600000, 0.689999997600000, 0.689999997600000 );
#407 = COLOUR_RGB( '', 0.689999997600000, 0.689999997600000, 0.689999997600000 );
#408 = CARTESIAN_POINT( '', ( 0.000000000000000, 0.000000000000000, -9.00000000000000 ) );
#409 = AXIS2_PLACEMENT_3D( '', #452, #453, #454 );
#410 = AXIS2_PLACEMENT_3D( '', #455, #456, #457 );
#411 = AXIS2_PLACEMENT_3D( '', #458, #459, #460 );
#412 = AXIS2_PLACEMENT_3D( '', #461, #462, #463 );
#413 = COLOUR_RGB( '', 0.689999997600000, 0.689999997600000, 0.689999997600000 );
#414 = COLOUR_RGB( '', 0.689999997600000, 0.689999997600000, 0.689999997600000 );
#415 = COLOUR_RGB( '', 0.689999997600000, 0.689999997600000, 0.689999997600000 );
#416 = CARTESIAN_POINT( '', ( 5.00000000000000, 27.0000000000000, 0.000000000000000 ) );
#417 = DIRECTION( '', ( 1.00000000000000, 0.000000000000000, -0.000000000000000 ) );
#418 = DIRECTION( '', ( -0.000000000000000, 0.000000000000000, -1.00000000000000 ) );
#419 = DIRECTION( '', ( -0.000000000000000, -1.00000000000000, -0.000000000000000 ) );
#420 = DIRECTION( '', ( -0.000000000000000, -0.000000000000000, -1.00000000000000 ) );
#421 = DIRECTION( '', ( -0.000000000000000, -1.00000000000000, -0.000000000000000 ) );
#422 = CARTESIAN_POINT( '', ( 5.00000000000000, 27.0000000000000, 0.000000000000000 ) );
#423 = DIRECTION( '', ( 1.00000000000000, 0.000000000000000, -0.000000000000000 ) );
#424 = DIRECTION( '', ( -0.000000000000000, 0.000000000000000, -1.00000000000000 ) );
#425 = CARTESIAN_POINT( '', ( 0.000000000000000, 12.0000000000000, 0.000000000000000 ) );
#426 = DIRECTION( '', ( 0.000000000000000, -1.00000000000000, -0.000000000000000 ) );
#427 = DIRECTION( '', ( 0.000000000000000, 0.000000000000000, -1.00000000000000 ) );
#428 = CARTESIAN_POINT( '', ( 0.000000000000000, 0.812000000000000, 0.000000000000000 ) );
#429 = DIRECTION( '', ( 0.000000000000000, -1.00000000000000, -0.000000000000000 ) );
#430 = DIRECTION( '', ( 0.000000000000000, 0.000000000000000, -1.00000000000000 ) );
#431 = CARTESIAN_POINT( '', ( 0.000000000000000, 0.000000000000000, 0.000000000000000 ) );
#432 = DIRECTION( '', ( 0.000000000000000, -1.00000000000000, -0.000000000000000 ) );
#433 = DIRECTION( '', ( 0.000000000000000, 0.000000000000000, -1.00000000000000 ) );
#434 = DIRECTION( '', ( -0.000000000000000, -0.000000000000000, -1.00000000000000 ) );
#435 = CARTESIAN_POINT( '', ( 0.000000000000000, 12.0000000000000, 0.000000000000000 ) );
#436 = DIRECTION( '', ( 0.000000000000000, 1.00000000000000, 0.000000000000000 ) );
#437 = DIRECTION( '', ( 0.000000000000000, -0.000000000000000, 1.00000000000000 ) );
#438 = CARTESIAN_POINT( '', ( 4.50000000000000, 27.0000000000000, 0.000000000000000 ) );
#439 = DIRECTION( '', ( 1.00000000000000, 0.000000000000000, -0.000000000000000 ) );
#440 = DIRECTION( '', ( -0.000000000000000, 0.000000000000000, -1.00000000000000 ) );
#441 = CARTESIAN_POINT( '', ( -4.50000000000000, 27.0000000000000, 0.000000000000000 ) );
#442 = DIRECTION( '', ( 1.00000000000000, 0.000000000000000, -0.000000000000000 ) );
#443 = DIRECTION( '', ( -0.000000000000000, 0.000000000000000, -1.00000000000000 ) );
#444 = CARTESIAN_POINT( '', ( -5.00000000000000, 27.0000000000000, 0.000000000000000 ) );
#445 = DIRECTION( '', ( 1.00000000000000, 0.000000000000000, -0.000000000000000 ) );
#446 = DIRECTION( '', ( -0.000000000000000, 0.000000000000000, -1.00000000000000 ) );
#447 = DIRECTION( '', ( -0.000000000000000, -1.00000000000000, -0.000000000000000 ) );
#448 = DIRECTION( '', ( -0.000000000000000, -1.00000000000000, -0.000000000000000 ) );
#449 = CARTESIAN_POINT( '', ( -5.00000000000000, 27.0000000000000, 0.000000000000000 ) );
#450 = DIRECTION( '', ( -1.00000000000000, 0.000000000000000, 0.000000000000000 ) );
#451 = DIRECTION( '', ( 0.000000000000000, 0.000000000000000, 1.00000000000000 ) );
#452 = CARTESIAN_POINT( '', ( 0.000000000000000, 0.000000000000000, 0.000000000000000 ) );
#453 = DIRECTION( '', ( 0.000000000000000, -1.00000000000000, -0.000000000000000 ) );
#454 = DIRECTION( '', ( 0.000000000000000, 0.000000000000000, -1.00000000000000 ) );
#455 = CARTESIAN_POINT( '', ( 0.000000000000000, 27.0000000000000, 0.000000000000000 ) );
#456 = DIRECTION( '', ( 0.000000000000000, -1.00000000000000, -0.000000000000000 ) );
#457 = DIRECTION( '', ( 0.000000000000000, 0.000000000000000, -1.00000000000000 ) );
#458 = CARTESIAN_POINT( '', ( 0.000000000000000, 12.0000000000000, 0.000000000000000 ) );
#459 = DIRECTION( '', ( 0.000000000000000, 1.00000000000000, 0.000000000000000 ) );
#460 = DIRECTION( '', ( 0.000000000000000, -0.000000000000000, 1.00000000000000 ) );
#461 = CARTESIAN_POINT( '', ( 0.000000000000000, 27.0000000000000, 0.000000000000000 ) );
#462 = DIRECTION( '', ( 0.000000000000000, -1.00000000000000, -0.000000000000000 ) );
#463 = DIRECTION( '', ( 0.000000000000000, 0.000000000000000, -1.00000000000000 ) );
ENDSEC;
END-ISO-10303-21;
