ISO-10303-21;
HEADER;
FILE_DESCRIPTION( ( 'STEP AP214' ), '1' );
FILE_NAME( '//goodhand-server/Shared Folders/GoodHand Data/Kipp CAD/K0390/K0390.061X30.stp', '2020-12-07T10:15:17', ( '' ), ( '' ), ' ', 'PARTsolutions', ' ' );
FILE_SCHEMA( ( 'AUTOMOTIVE_DESIGN { 1 0 10303 214 1 1 1 1 }' ) );
ENDSEC;
DATA;
#1 = MECHANICAL_DESIGN_GEOMETRIC_PRESENTATION_REPRESENTATION( ' ', ( #10, #11, #12, #13, #14, #15, #16, #17, #18, #19, #20, #21, #22 ), #6 );
#2 = PRODUCT_DEFINITION_CONTEXT( '', #23, 'design' );
#3 = APPLICATION_PROTOCOL_DEFINITION( 'international standard', 'automotive_design', 2001, #23 );
#4 = PRODUCT_CATEGORY_RELATIONSHIP( 'NONE', 'NONE', #24, #25 );
#5 = SHAPE_DEFINITION_REPRESENTATION( #26, #27 );
#6 =  ( GEOMETRIC_REPRESENTATION_CONTEXT( 3 )GLOBAL_UNCERTAINTY_ASSIGNED_CONTEXT( ( #30 ) )GLOBAL_UNIT_ASSIGNED_CONTEXT( ( #32, #33, #34 ) )REPRESENTATION_CONTEXT( 'NONE', 'WORKSPACE' ) );
#10 = STYLED_ITEM( '', ( #36 ), #37 );
#11 = STYLED_ITEM( '', ( #38 ), #39 );
#12 = STYLED_ITEM( '', ( #40 ), #41 );
#13 = STYLED_ITEM( '', ( #42 ), #43 );
#14 = STYLED_ITEM( '', ( #44 ), #45 );
#15 = STYLED_ITEM( '', ( #46 ), #47 );
#16 = STYLED_ITEM( '', ( #48 ), #49 );
#17 = STYLED_ITEM( '', ( #50 ), #51 );
#18 = STYLED_ITEM( '', ( #52 ), #53 );
#19 = STYLED_ITEM( '', ( #54 ), #55 );
#20 = STYLED_ITEM( '', ( #56 ), #57 );
#21 = STYLED_ITEM( '', ( #58 ), #59 );
#22 = STYLED_ITEM( '', ( #60 ), #61 );
#23 = APPLICATION_CONTEXT( 'core data for automotive mechanical design processes' );
#24 = PRODUCT_CATEGORY( 'part', 'NONE' );
#25 = PRODUCT_RELATED_PRODUCT_CATEGORY( 'detail', ' ', ( #62 ) );
#26 = PRODUCT_DEFINITION_SHAPE( 'NONE', 'NONE', #63 );
#27 = ADVANCED_BREP_SHAPE_REPRESENTATION( '_K0390.061X30', ( #64, #65 ), #6 );
#30 = UNCERTAINTY_MEASURE_WITH_UNIT( LENGTH_MEASURE( 0.00100000000000000 ), #32, '', '' );
#32 =  ( CONVERSION_BASED_UNIT( 'MILLIMETRE', #68 )LENGTH_UNIT(  )NAMED_UNIT( #71 ) );
#33 =  ( NAMED_UNIT( #73 )PLANE_ANGLE_UNIT(  )SI_UNIT( $, .RADIAN. ) );
#34 =  ( NAMED_UNIT( #73 )SI_UNIT( $, .STERADIAN. )SOLID_ANGLE_UNIT(  ) );
#36 = PRESENTATION_STYLE_ASSIGNMENT( ( #79 ) );
#37 = ADVANCED_FACE( '', ( #80 ), #81, .T. );
#38 = PRESENTATION_STYLE_ASSIGNMENT( ( #82 ) );
#39 = ADVANCED_FACE( '', ( #83, #84 ), #85, .F. );
#40 = PRESENTATION_STYLE_ASSIGNMENT( ( #86 ) );
#41 = ADVANCED_FACE( '', ( #87, #88 ), #89, .T. );
#42 = PRESENTATION_STYLE_ASSIGNMENT( ( #90 ) );
#43 = ADVANCED_FACE( '', ( #91, #92 ), #93, .T. );
#44 = PRESENTATION_STYLE_ASSIGNMENT( ( #94 ) );
#45 = ADVANCED_FACE( '', ( #95 ), #96, .F. );
#46 = PRESENTATION_STYLE_ASSIGNMENT( ( #97 ) );
#47 = ADVANCED_FACE( '', ( #98 ), #99, .F. );
#48 = PRESENTATION_STYLE_ASSIGNMENT( ( #100 ) );
#49 = ADVANCED_FACE( '', ( #101 ), #102, .F. );
#50 = PRESENTATION_STYLE_ASSIGNMENT( ( #103 ) );
#51 = ADVANCED_FACE( '', ( #104 ), #105, .F. );
#52 = PRESENTATION_STYLE_ASSIGNMENT( ( #106 ) );
#53 = ADVANCED_FACE( '', ( #107, #108 ), #109, .T. );
#54 = PRESENTATION_STYLE_ASSIGNMENT( ( #110 ) );
#55 = ADVANCED_FACE( '', ( #111, #112 ), #113, .T. );
#56 = PRESENTATION_STYLE_ASSIGNMENT( ( #114 ) );
#57 = ADVANCED_FACE( '', ( #115, #116 ), #117, .T. );
#58 = PRESENTATION_STYLE_ASSIGNMENT( ( #118 ) );
#59 = ADVANCED_FACE( '', ( #119 ), #120, .T. );
#60 = PRESENTATION_STYLE_ASSIGNMENT( ( #121 ) );
#61 = ADVANCED_FACE( '', ( #122 ), #123, .T. );
#62 = PRODUCT( '_K0390.061X30', '_K0390.061X30', 'PART-_K0390.061X30-DESC', ( #124 ) );
#63 = PRODUCT_DEFINITION( 'NONE', 'NONE', #125, #2 );
#64 = MANIFOLD_SOLID_BREP( '_K0390.061X30', #126 );
#65 = AXIS2_PLACEMENT_3D( '', #127, #128, #129 );
#68 = LENGTH_MEASURE_WITH_UNIT( LENGTH_MEASURE( 1.00000000000000 ), #130 );
#71 = DIMENSIONAL_EXPONENTS( 1.00000000000000, 0.000000000000000, 0.000000000000000, 0.000000000000000, 0.000000000000000, 0.000000000000000, 0.000000000000000 );
#73 = DIMENSIONAL_EXPONENTS( 0.000000000000000, 0.000000000000000, 0.000000000000000, 0.000000000000000, 0.000000000000000, 0.000000000000000, 0.000000000000000 );
#79 = SURFACE_STYLE_USAGE( .BOTH., #131 );
#80 = FACE_OUTER_BOUND( '', #132, .T. );
#81 = PLANE( '', #133 );
#82 = SURFACE_STYLE_USAGE( .BOTH., #134 );
#83 = FACE_OUTER_BOUND( '', #135, .T. );
#84 = FACE_BOUND( '', #136, .T. );
#85 = PLANE( '', #137 );
#86 = SURFACE_STYLE_USAGE( .BOTH., #138 );
#87 = FACE_OUTER_BOUND( '', #139, .T. );
#88 = FACE_OUTER_BOUND( '', #140, .T. );
#89 = CYLINDRICAL_SURFACE( '', #141, 2.00000000000000 );
#90 = SURFACE_STYLE_USAGE( .BOTH., #142 );
#91 = FACE_BOUND( '', #143, .T. );
#92 = FACE_OUTER_BOUND( '', #144, .T. );
#93 = CONICAL_SURFACE( '', #145, 3.00000000000000, 1.04717525340000 );
#94 = SURFACE_STYLE_USAGE( .BOTH., #146 );
#95 = FACE_OUTER_BOUND( '', #147, .T. );
#96 = PLANE( '', #148 );
#97 = SURFACE_STYLE_USAGE( .BOTH., #149 );
#98 = FACE_OUTER_BOUND( '', #150, .T. );
#99 = PLANE( '', #151 );
#100 = SURFACE_STYLE_USAGE( .BOTH., #152 );
#101 = FACE_OUTER_BOUND( '', #153, .T. );
#102 = PLANE( '', #154 );
#103 = SURFACE_STYLE_USAGE( .BOTH., #155 );
#104 = FACE_OUTER_BOUND( '', #156, .T. );
#105 = PLANE( '', #157 );
#106 = SURFACE_STYLE_USAGE( .BOTH., #158 );
#107 = FACE_OUTER_BOUND( '', #159, .T. );
#108 = FACE_OUTER_BOUND( '', #160, .T. );
#109 = CYLINDRICAL_SURFACE( '', #161, 2.25000000000000 );
#110 = SURFACE_STYLE_USAGE( .BOTH., #162 );
#111 = FACE_BOUND( '', #163, .T. );
#112 = FACE_OUTER_BOUND( '', #164, .T. );
#113 = SPHERICAL_SURFACE( '', #165, 3.77415000000000 );
#114 = SURFACE_STYLE_USAGE( .BOTH., #166 );
#115 = FACE_OUTER_BOUND( '', #167, .T. );
#116 = FACE_OUTER_BOUND( '', #168, .T. );
#117 = CYLINDRICAL_SURFACE( '', #169, 3.00000000000000 );
#118 = SURFACE_STYLE_USAGE( .BOTH., #170 );
#119 = FACE_OUTER_BOUND( '', #171, .T. );
#120 = CONICAL_SURFACE( '', #172, 2.38650000000000, 0.785398163400000 );
#121 = SURFACE_STYLE_USAGE( .BOTH., #173 );
#122 = FACE_OUTER_BOUND( '', #174, .T. );
#123 = CONICAL_SURFACE( '', #175, 2.38650000000000, 0.785398163400000 );
#124 = PRODUCT_CONTEXT( '', #23, 'mechanical' );
#125 = PRODUCT_DEFINITION_FORMATION_WITH_SPECIFIED_SOURCE( ' ', 'NONE', #62, .NOT_KNOWN. );
#126 = CLOSED_SHELL( '', ( #49, #47, #55, #53, #39, #41, #43, #57, #59, #45, #61, #51, #37 ) );
#127 = CARTESIAN_POINT( '', ( 0.000000000000000, 0.000000000000000, 0.000000000000000 ) );
#128 = DIRECTION( '', ( 0.000000000000000, 0.000000000000000, 1.00000000000000 ) );
#129 = DIRECTION( '', ( 1.00000000000000, 0.000000000000000, 0.000000000000000 ) );
#130 =  ( LENGTH_UNIT(  )NAMED_UNIT( #71 )SI_UNIT( .MILLI., .METRE. ) );
#131 = SURFACE_SIDE_STYLE( '', ( #177 ) );
#132 = EDGE_LOOP( '', ( #178, #179, #180, #181 ) );
#133 = AXIS2_PLACEMENT_3D( '', #182, #183, #184 );
#134 = SURFACE_SIDE_STYLE( '', ( #185 ) );
#135 = EDGE_LOOP( '', ( #186 ) );
#136 = EDGE_LOOP( '', ( #187 ) );
#137 = AXIS2_PLACEMENT_3D( '', #188, #189, #190 );
#138 = SURFACE_SIDE_STYLE( '', ( #191 ) );
#139 = EDGE_LOOP( '', ( #192 ) );
#140 = EDGE_LOOP( '', ( #193 ) );
#141 = AXIS2_PLACEMENT_3D( '', #194, #195, #196 );
#142 = SURFACE_SIDE_STYLE( '', ( #197 ) );
#143 = EDGE_LOOP( '', ( #198 ) );
#144 = EDGE_LOOP( '', ( #199 ) );
#145 = AXIS2_PLACEMENT_3D( '', #200, #201, #202 );
#146 = SURFACE_SIDE_STYLE( '', ( #203 ) );
#147 = EDGE_LOOP( '', ( #204, #205 ) );
#148 = AXIS2_PLACEMENT_3D( '', #206, #207, #208 );
#149 = SURFACE_SIDE_STYLE( '', ( #209 ) );
#150 = EDGE_LOOP( '', ( #210, #211, #212, #213, #214, #215 ) );
#151 = AXIS2_PLACEMENT_3D( '', #216, #217, #218 );
#152 = SURFACE_SIDE_STYLE( '', ( #219 ) );
#153 = EDGE_LOOP( '', ( #220, #221, #222, #223, #224, #225 ) );
#154 = AXIS2_PLACEMENT_3D( '', #226, #227, #228 );
#155 = SURFACE_SIDE_STYLE( '', ( #229 ) );
#156 = EDGE_LOOP( '', ( #230, #231 ) );
#157 = AXIS2_PLACEMENT_3D( '', #232, #233, #234 );
#158 = SURFACE_SIDE_STYLE( '', ( #235 ) );
#159 = EDGE_LOOP( '', ( #236 ) );
#160 = EDGE_LOOP( '', ( #237 ) );
#161 = AXIS2_PLACEMENT_3D( '', #238, #239, #240 );
#162 = SURFACE_SIDE_STYLE( '', ( #241 ) );
#163 = VERTEX_LOOP( '', #242 );
#164 = EDGE_LOOP( '', ( #243 ) );
#165 = AXIS2_PLACEMENT_3D( '', #244, #245, #246 );
#166 = SURFACE_SIDE_STYLE( '', ( #247 ) );
#167 = EDGE_LOOP( '', ( #248 ) );
#168 = EDGE_LOOP( '', ( #249, #250, #251, #252, #253, #254, #255, #256 ) );
#169 = AXIS2_PLACEMENT_3D( '', #257, #258, #259 );
#170 = SURFACE_SIDE_STYLE( '', ( #260 ) );
#171 = EDGE_LOOP( '', ( #261, #262, #263, #264 ) );
#172 = AXIS2_PLACEMENT_3D( '', #265, #266, #267 );
#173 = SURFACE_SIDE_STYLE( '', ( #268 ) );
#174 = EDGE_LOOP( '', ( #269, #270, #271, #272 ) );
#175 = AXIS2_PLACEMENT_3D( '', #273, #274, #275 );
#177 = SURFACE_STYLE_FILL_AREA( #276 );
#178 = ORIENTED_EDGE( '', *, *, #277, .T. );
#179 = ORIENTED_EDGE( '', *, *, #278, .T. );
#180 = ORIENTED_EDGE( '', *, *, #279, .T. );
#181 = ORIENTED_EDGE( '', *, *, #280, .T. );
#182 = CARTESIAN_POINT( '', ( 3.00000000000000, 0.000000000000000, 0.000000000000000 ) );
#183 = DIRECTION( '', ( -1.00000000000000, 0.000000000000000, 0.000000000000000 ) );
#184 = DIRECTION( '', ( 0.000000000000000, 0.000000000000000, 1.00000000000000 ) );
#185 = SURFACE_STYLE_FILL_AREA( #281 );
#186 = ORIENTED_EDGE( '', *, *, #282, .F. );
#187 = ORIENTED_EDGE( '', *, *, #283, .T. );
#188 = CARTESIAN_POINT( '', ( 27.5000000000000, 2.00000000000000, 0.000000000000000 ) );
#189 = DIRECTION( '', ( 1.00000000000000, -6.12323399573677E-17, -0.000000000000000 ) );
#190 = DIRECTION( '', ( 6.12323399573677E-17, 1.00000000000000, 0.000000000000000 ) );
#191 = SURFACE_STYLE_FILL_AREA( #284 );
#192 = ORIENTED_EDGE( '', *, *, #283, .F. );
#193 = ORIENTED_EDGE( '', *, *, #285, .T. );
#194 = CARTESIAN_POINT( '', ( 30.0000000000000, -4.88498130835069E-15, 0.000000000000000 ) );
#195 = DIRECTION( '', ( -1.00000000000000, 6.12323399573677E-17, 0.000000000000000 ) );
#196 = DIRECTION( '', ( 6.12323399573677E-17, 1.00000000000000, 0.000000000000000 ) );
#197 = SURFACE_STYLE_FILL_AREA( #286 );
#198 = ORIENTED_EDGE( '', *, *, #285, .F. );
#199 = ORIENTED_EDGE( '', *, *, #287, .T. );
#200 = CARTESIAN_POINT( '', ( 24.0000000000000, -4.51758726860648E-15, 0.000000000000000 ) );
#201 = DIRECTION( '', ( -1.00000000000000, 6.12323399573677E-17, -0.000000000000000 ) );
#202 = DIRECTION( '', ( -6.12323399573677E-17, -1.00000000000000, 0.000000000000000 ) );
#203 = SURFACE_STYLE_FILL_AREA( #288 );
#204 = ORIENTED_EDGE( '', *, *, #289, .F. );
#205 = ORIENTED_EDGE( '', *, *, #290, .F. );
#206 = CARTESIAN_POINT( '', ( -3.62577916845463E-15, -3.04801110962966E-15, 0.000000000000000 ) );
#207 = DIRECTION( '', ( 1.00000000000000, -6.12323399573677E-17, -0.000000000000000 ) );
#208 = DIRECTION( '', ( 6.12323399573677E-17, 1.00000000000000, 0.000000000000000 ) );
#209 = SURFACE_STYLE_FILL_AREA( #291 );
#210 = ORIENTED_EDGE( '', *, *, #290, .T. );
#211 = ORIENTED_EDGE( '', *, *, #292, .F. );
#212 = ORIENTED_EDGE( '', *, *, #293, .F. );
#213 = ORIENTED_EDGE( '', *, *, #278, .F. );
#214 = ORIENTED_EDGE( '', *, *, #294, .F. );
#215 = ORIENTED_EDGE( '', *, *, #295, .F. );
#216 = CARTESIAN_POINT( '', ( 3.00000000000000, -0.900000000000003, -10.5000000000000 ) );
#217 = DIRECTION( '', ( 0.000000000000000, -1.00000000000000, 0.000000000000000 ) );
#218 = DIRECTION( '', ( 0.000000000000000, 0.000000000000000, -1.00000000000000 ) );
#219 = SURFACE_STYLE_FILL_AREA( #296 );
#220 = ORIENTED_EDGE( '', *, *, #297, .F. );
#221 = ORIENTED_EDGE( '', *, *, #298, .T. );
#222 = ORIENTED_EDGE( '', *, *, #299, .F. );
#223 = ORIENTED_EDGE( '', *, *, #300, .F. );
#224 = ORIENTED_EDGE( '', *, *, #280, .F. );
#225 = ORIENTED_EDGE( '', *, *, #301, .F. );
#226 = CARTESIAN_POINT( '', ( 3.00000000000000, 0.899999999999997, 10.5000000000000 ) );
#227 = DIRECTION( '', ( 0.000000000000000, 1.00000000000000, 0.000000000000000 ) );
#228 = DIRECTION( '', ( 0.000000000000000, -0.000000000000000, 1.00000000000000 ) );
#229 = SURFACE_STYLE_FILL_AREA( #302 );
#230 = ORIENTED_EDGE( '', *, *, #303, .F. );
#231 = ORIENTED_EDGE( '', *, *, #298, .F. );
#232 = CARTESIAN_POINT( '', ( -3.62577916845463E-15, -3.04801110962966E-15, 0.000000000000000 ) );
#233 = DIRECTION( '', ( 1.00000000000000, -6.12323399573677E-17, -0.000000000000000 ) );
#234 = DIRECTION( '', ( 6.12323399573677E-17, 1.00000000000000, 0.000000000000000 ) );
#235 = SURFACE_STYLE_FILL_AREA( #304 );
#236 = ORIENTED_EDGE( '', *, *, #305, .F. );
#237 = ORIENTED_EDGE( '', *, *, #282, .T. );
#238 = CARTESIAN_POINT( '', ( 30.0000000000000, -4.88498130835069E-15, 0.000000000000000 ) );
#239 = DIRECTION( '', ( -1.00000000000000, 6.12323399573676E-17, 0.000000000000000 ) );
#240 = DIRECTION( '', ( 6.12323399573676E-17, 1.00000000000000, 0.000000000000000 ) );
#241 = SURFACE_STYLE_FILL_AREA( #306 );
#242 = VERTEX_POINT( '', #307 );
#243 = ORIENTED_EDGE( '', *, *, #305, .T. );
#244 = CARTESIAN_POINT( '', ( 26.2258500000000, -9.75781955236954E-15, 0.000000000000000 ) );
#245 = DIRECTION( '', ( 1.00000000000000, 0.000000000000000, 0.000000000000000 ) );
#246 = DIRECTION( '', ( 0.000000000000000, 1.00000000000000, 0.000000000000000 ) );
#247 = SURFACE_STYLE_FILL_AREA( #308 );
#248 = ORIENTED_EDGE( '', *, *, #287, .F. );
#249 = ORIENTED_EDGE( '', *, *, #309, .T. );
#250 = ORIENTED_EDGE( '', *, *, #294, .T. );
#251 = ORIENTED_EDGE( '', *, *, #277, .F. );
#252 = ORIENTED_EDGE( '', *, *, #300, .T. );
#253 = ORIENTED_EDGE( '', *, *, #310, .T. );
#254 = ORIENTED_EDGE( '', *, *, #301, .T. );
#255 = ORIENTED_EDGE( '', *, *, #279, .F. );
#256 = ORIENTED_EDGE( '', *, *, #293, .T. );
#257 = CARTESIAN_POINT( '', ( 30.0000000000000, -4.88498130835069E-15, 0.000000000000000 ) );
#258 = DIRECTION( '', ( -1.00000000000000, 6.12323399573677E-17, 0.000000000000000 ) );
#259 = DIRECTION( '', ( 6.12323399573677E-17, 1.00000000000000, 0.000000000000000 ) );
#260 = SURFACE_STYLE_FILL_AREA( #311 );
#261 = ORIENTED_EDGE( '', *, *, #303, .T. );
#262 = ORIENTED_EDGE( '', *, *, #297, .T. );
#263 = ORIENTED_EDGE( '', *, *, #310, .F. );
#264 = ORIENTED_EDGE( '', *, *, #299, .T. );
#265 = CARTESIAN_POINT( '', ( -3.46944695195361E-15, -3.04801110962966E-15, 0.000000000000000 ) );
#266 = DIRECTION( '', ( 1.00000000000000, -6.12323399573677E-17, -0.000000000000000 ) );
#267 = DIRECTION( '', ( 6.12323399573676E-17, 1.00000000000000, 0.000000000000000 ) );
#268 = SURFACE_STYLE_FILL_AREA( #312 );
#269 = ORIENTED_EDGE( '', *, *, #309, .F. );
#270 = ORIENTED_EDGE( '', *, *, #292, .T. );
#271 = ORIENTED_EDGE( '', *, *, #289, .T. );
#272 = ORIENTED_EDGE( '', *, *, #295, .T. );
#273 = CARTESIAN_POINT( '', ( -3.46944695195361E-15, -3.04801110962966E-15, 0.000000000000000 ) );
#274 = DIRECTION( '', ( 1.00000000000000, -6.12323399573677E-17, -0.000000000000000 ) );
#275 = DIRECTION( '', ( 6.12323399573676E-17, 1.00000000000000, 0.000000000000000 ) );
#276 = FILL_AREA_STYLE( '', ( #313 ) );
#277 = EDGE_CURVE( '', #314, #315, #316, .T. );
#278 = EDGE_CURVE( '', #315, #317, #318, .T. );
#279 = EDGE_CURVE( '', #317, #319, #320, .T. );
#280 = EDGE_CURVE( '', #319, #314, #321, .T. );
#281 = FILL_AREA_STYLE( '', ( #322 ) );
#282 = EDGE_CURVE( '', #323, #323, #324, .T. );
#283 = EDGE_CURVE( '', #325, #325, #326, .T. );
#284 = FILL_AREA_STYLE( '', ( #327 ) );
#285 = EDGE_CURVE( '', #328, #328, #329, .T. );
#286 = FILL_AREA_STYLE( '', ( #330 ) );
#287 = EDGE_CURVE( '', #331, #331, #332, .T. );
#288 = FILL_AREA_STYLE( '', ( #333 ) );
#289 = EDGE_CURVE( '', #334, #335, #336, .T. );
#290 = EDGE_CURVE( '', #335, #334, #337, .T. );
#291 = FILL_AREA_STYLE( '', ( #338 ) );
#292 = EDGE_CURVE( '', #339, #334, #340, .T. );
#293 = EDGE_CURVE( '', #317, #339, #341, .F. );
#294 = EDGE_CURVE( '', #342, #315, #343, .T. );
#295 = EDGE_CURVE( '', #335, #342, #344, .T. );
#296 = FILL_AREA_STYLE( '', ( #345 ) );
#297 = EDGE_CURVE( '', #346, #347, #348, .T. );
#298 = EDGE_CURVE( '', #346, #349, #350, .T. );
#299 = EDGE_CURVE( '', #351, #349, #352, .T. );
#300 = EDGE_CURVE( '', #314, #351, #353, .F. );
#301 = EDGE_CURVE( '', #347, #319, #354, .T. );
#302 = FILL_AREA_STYLE( '', ( #355 ) );
#303 = EDGE_CURVE( '', #349, #346, #356, .T. );
#304 = FILL_AREA_STYLE( '', ( #357 ) );
#305 = EDGE_CURVE( '', #358, #358, #359, .T. );
#306 = FILL_AREA_STYLE( '', ( #360 ) );
#307 = CARTESIAN_POINT( '', ( 30.0000000000000, -9.75781955236954E-15, 0.000000000000000 ) );
#308 = FILL_AREA_STYLE( '', ( #361 ) );
#309 = EDGE_CURVE( '', #339, #342, #362, .T. );
#310 = EDGE_CURVE( '', #351, #347, #363, .T. );
#311 = FILL_AREA_STYLE( '', ( #364 ) );
#312 = FILL_AREA_STYLE( '', ( #365 ) );
#313 = FILL_AREA_STYLE_COLOUR( '', #366 );
#314 = VERTEX_POINT( '', #367 );
#315 = VERTEX_POINT( '', #368 );
#316 = CIRCLE( '', #369, 3.00000000000000 );
#317 = VERTEX_POINT( '', #370 );
#318 = LINE( '', #371, #372 );
#319 = VERTEX_POINT( '', #373 );
#320 = CIRCLE( '', #374, 3.00000000000000 );
#321 = LINE( '', #375, #376 );
#322 = FILL_AREA_STYLE_COLOUR( '', #377 );
#323 = VERTEX_POINT( '', #378 );
#324 = CIRCLE( '', #379, 2.25000000000000 );
#325 = VERTEX_POINT( '', #380 );
#326 = CIRCLE( '', #381, 2.00000000000000 );
#327 = FILL_AREA_STYLE_COLOUR( '', #382 );
#328 = VERTEX_POINT( '', #383 );
#329 = CIRCLE( '', #384, 2.00000000000000 );
#330 = FILL_AREA_STYLE_COLOUR( '', #385 );
#331 = VERTEX_POINT( '', #386 );
#332 = CIRCLE( '', #387, 3.00000000000000 );
#333 = FILL_AREA_STYLE_COLOUR( '', #388 );
#334 = VERTEX_POINT( '', #389 );
#335 = VERTEX_POINT( '', #390 );
#336 = CIRCLE( '', #391, 2.38650000000000 );
#337 = LINE( '', #392, #393 );
#338 = FILL_AREA_STYLE_COLOUR( '', #394 );
#339 = VERTEX_POINT( '', #395 );
#340 = B_SPLINE_CURVE_WITH_KNOTS( '', 3, ( #396, #397, #398, #399 ), .UNSPECIFIED., .F., .F., ( 4, 4 ), ( 0.00517174792821183, 0.00606665925501706 ), .UNSPECIFIED. );
#341 = LINE( '', #400, #401 );
#342 = VERTEX_POINT( '', #402 );
#343 = LINE( '', #403, #404 );
#344 = B_SPLINE_CURVE_WITH_KNOTS( '', 3, ( #405, #406, #407, #408 ), .UNSPECIFIED., .F., .F., ( 4, 4 ), ( 0.0114683889299691, 0.0123621468805004 ), .UNSPECIFIED. );
#345 = FILL_AREA_STYLE_COLOUR( '', #409 );
#346 = VERTEX_POINT( '', #410 );
#347 = VERTEX_POINT( '', #411 );
#348 = B_SPLINE_CURVE_WITH_KNOTS( '', 3, ( #412, #413, #414, #415 ), .UNSPECIFIED., .F., .F., ( 4, 4 ), ( 0.0114683889299691, 0.0123621468805004 ), .UNSPECIFIED. );
#349 = VERTEX_POINT( '', #416 );
#350 = LINE( '', #417, #418 );
#351 = VERTEX_POINT( '', #419 );
#352 = B_SPLINE_CURVE_WITH_KNOTS( '', 3, ( #420, #421, #422, #423 ), .UNSPECIFIED., .F., .F., ( 4, 4 ), ( 0.00517174792821183, 0.00606665925501706 ), .UNSPECIFIED. );
#353 = LINE( '', #424, #425 );
#354 = LINE( '', #426, #427 );
#355 = FILL_AREA_STYLE_COLOUR( '', #428 );
#356 = CIRCLE( '', #429, 2.38650000000000 );
#357 = FILL_AREA_STYLE_COLOUR( '', #430 );
#358 = VERTEX_POINT( '', #431 );
#359 = CIRCLE( '', #432, 2.25000000000000 );
#360 = FILL_AREA_STYLE_COLOUR( '', #433 );
#361 = FILL_AREA_STYLE_COLOUR( '', #434 );
#362 = CIRCLE( '', #435, 3.00000000000000 );
#363 = CIRCLE( '', #436, 3.00000000000000 );
#364 = FILL_AREA_STYLE_COLOUR( '', #437 );
#365 = FILL_AREA_STYLE_COLOUR( '', #438 );
#366 = COLOUR_RGB( '', 0.689999997600000, 0.689999997600000, 0.689999997600000 );
#367 = CARTESIAN_POINT( '', ( 3.00000000000000, 0.899999999999997, -2.86181760425084 ) );
#368 = CARTESIAN_POINT( '', ( 3.00000000000000, -0.900000000000003, -2.86181760425084 ) );
#369 = AXIS2_PLACEMENT_3D( '', #439, #440, #441 );
#370 = CARTESIAN_POINT( '', ( 3.00000000000000, -0.900000000000003, 2.86181760425084 ) );
#371 = CARTESIAN_POINT( '', ( 3.00000000000000, -0.900000000000003, -10.5000000000000 ) );
#372 = VECTOR( '', #442, 1000.00000000000 );
#373 = CARTESIAN_POINT( '', ( 3.00000000000000, 0.899999999999997, 2.86181760425084 ) );
#374 = AXIS2_PLACEMENT_3D( '', #443, #444, #445 );
#375 = CARTESIAN_POINT( '', ( 3.00000000000000, 0.899999999999997, 10.5000000000000 ) );
#376 = VECTOR( '', #446, 1000.00000000000 );
#377 = COLOUR_RGB( '', 0.689999997600000, 0.689999997600000, 0.689999997600000 );
#378 = CARTESIAN_POINT( '', ( 27.5000000000000, 2.25000000000000, 0.000000000000000 ) );
#379 = AXIS2_PLACEMENT_3D( '', #447, #448, #449 );
#380 = CARTESIAN_POINT( '', ( 27.5000000000000, 2.00000000000000, 0.000000000000000 ) );
#381 = AXIS2_PLACEMENT_3D( '', #450, #451, #452 );
#382 = COLOUR_RGB( '', 0.689999997600000, 0.689999997600000, 0.689999997600000 );
#383 = CARTESIAN_POINT( '', ( 24.5773800000000, 2.00000000000000, 0.000000000000000 ) );
#384 = AXIS2_PLACEMENT_3D( '', #453, #454, #455 );
#385 = COLOUR_RGB( '', 0.689999997600000, 0.689999997600000, 0.689999997600000 );
#386 = CARTESIAN_POINT( '', ( 24.0000000000000, 3.00000000000000, 0.000000000000000 ) );
#387 = AXIS2_PLACEMENT_3D( '', #456, #457, #458 );
#388 = COLOUR_RGB( '', 0.689999997600000, 0.689999997600000, 0.689999997600000 );
#389 = CARTESIAN_POINT( '', ( -3.55271367880050E-15, -0.900000000000003, 2.21029008277194 ) );
#390 = CARTESIAN_POINT( '', ( -3.55271367880050E-15, -0.900000000000003, -2.21029008277194 ) );
#391 = AXIS2_PLACEMENT_3D( '', #459, #460, #461 );
#392 = CARTESIAN_POINT( '', ( -3.55271367880050E-15, -0.900000000000003, -10.5000000000000 ) );
#393 = VECTOR( '', #462, 1000.00000000000 );
#394 = COLOUR_RGB( '', 0.689999997600000, 0.689999997600000, 0.689999997600000 );
#395 = CARTESIAN_POINT( '', ( 0.613499999999999, -0.900000000000001, 2.86181760425084 ) );
#396 = CARTESIAN_POINT( '', ( 0.613499999999998, -0.900000000000003, 2.86181760425084 ) );
#397 = CARTESIAN_POINT( '', ( 0.407595119446488, -0.900000000000003, 2.64597064015956 ) );
#398 = CARTESIAN_POINT( '', ( 0.202709233475274, -0.900000000000003, 2.42915980917548 ) );
#399 = CARTESIAN_POINT( '', ( -2.74064730447215E-15, -0.900000000000003, 2.21029008277194 ) );
#400 = CARTESIAN_POINT( '', ( 30.0000000000000, -0.900000000000003, 2.86181760425084 ) );
#401 = VECTOR( '', #463, 1000.00000000000 );
#402 = CARTESIAN_POINT( '', ( 0.613499999999999, -0.900000000000001, -2.86181760425084 ) );
#403 = CARTESIAN_POINT( '', ( 30.0000000000000, -0.900000000000003, -2.86181760425084 ) );
#404 = VECTOR( '', #464, 1000.00000000000 );
#405 = CARTESIAN_POINT( '', ( -3.97073008708690E-15, -0.900000000000003, -2.21029008277194 ) );
#406 = CARTESIAN_POINT( '', ( 0.202635101633540, -0.900000000000003, -2.42907976735578 ) );
#407 = CARTESIAN_POINT( '', ( 0.407562831349358, -0.900000000000003, -2.64593679303693 ) );
#408 = CARTESIAN_POINT( '', ( 0.613499999999997, -0.900000000000003, -2.86181760425084 ) );
#409 = COLOUR_RGB( '', 0.689999997600000, 0.689999997600000, 0.689999997600000 );
#410 = CARTESIAN_POINT( '', ( -3.55271367880050E-15, 0.899999999999997, 2.21029008277194 ) );
#411 = CARTESIAN_POINT( '', ( 0.613499999999999, 0.899999999999999, 2.86181760425084 ) );
#412 = CARTESIAN_POINT( '', ( -5.01766278404382E-15, 0.899999999999997, 2.21029008277194 ) );
#413 = CARTESIAN_POINT( '', ( 0.202635101633539, 0.899999999999997, 2.42907976735578 ) );
#414 = CARTESIAN_POINT( '', ( 0.407562831349358, 0.899999999999997, 2.64593679303693 ) );
#415 = CARTESIAN_POINT( '', ( 0.613499999999997, 0.899999999999997, 2.86181760425084 ) );
#416 = CARTESIAN_POINT( '', ( -3.55271367880050E-15, 0.899999999999997, -2.21029008277194 ) );
#417 = CARTESIAN_POINT( '', ( -3.55271367880050E-15, 0.899999999999997, 10.5000000000000 ) );
#418 = VECTOR( '', #465, 1000.00000000000 );
#419 = CARTESIAN_POINT( '', ( 0.613499999999999, 0.899999999999999, -2.86181760425084 ) );
#420 = CARTESIAN_POINT( '', ( 0.613499999999997, 0.899999999999997, -2.86181760425084 ) );
#421 = CARTESIAN_POINT( '', ( 0.407595119446487, 0.899999999999997, -2.64597064015956 ) );
#422 = CARTESIAN_POINT( '', ( 0.202709233475272, 0.899999999999997, -2.42915980917548 ) );
#423 = CARTESIAN_POINT( '', ( -4.40900284475370E-15, 0.899999999999997, -2.21029008277194 ) );
#424 = CARTESIAN_POINT( '', ( 30.0000000000000, 0.899999999999997, -2.86181760425084 ) );
#425 = VECTOR( '', #466, 1000.00000000000 );
#426 = CARTESIAN_POINT( '', ( 30.0000000000000, 0.899999999999997, 2.86181760425084 ) );
#427 = VECTOR( '', #467, 1000.00000000000 );
#428 = COLOUR_RGB( '', 0.689999997600000, 0.689999997600000, 0.689999997600000 );
#429 = AXIS2_PLACEMENT_3D( '', #468, #469, #470 );
#430 = COLOUR_RGB( '', 0.689999997600000, 0.689999997600000, 0.689999997600000 );
#431 = CARTESIAN_POINT( '', ( 29.2559833671144, 2.25000000000000, 0.000000000000000 ) );
#432 = AXIS2_PLACEMENT_3D( '', #471, #472, #473 );
#433 = COLOUR_RGB( '', 0.689999997600000, 0.689999997600000, 0.689999997600000 );
#434 = COLOUR_RGB( '', 0.689999997600000, 0.689999997600000, 0.689999997600000 );
#435 = AXIS2_PLACEMENT_3D( '', #474, #475, #476 );
#436 = AXIS2_PLACEMENT_3D( '', #477, #478, #479 );
#437 = COLOUR_RGB( '', 0.689999997600000, 0.689999997600000, 0.689999997600000 );
#438 = COLOUR_RGB( '', 0.689999997600000, 0.689999997600000, 0.689999997600000 );
#439 = CARTESIAN_POINT( '', ( 3.00000000000000, -3.23170812950176E-15, 0.000000000000000 ) );
#440 = DIRECTION( '', ( -1.00000000000000, 0.000000000000000, 0.000000000000000 ) );
#441 = DIRECTION( '', ( 0.000000000000000, 0.000000000000000, 1.00000000000000 ) );
#442 = DIRECTION( '', ( 0.000000000000000, 0.000000000000000, 1.00000000000000 ) );
#443 = CARTESIAN_POINT( '', ( 3.00000000000000, -3.23170812950176E-15, 0.000000000000000 ) );
#444 = DIRECTION( '', ( -1.00000000000000, 0.000000000000000, 0.000000000000000 ) );
#445 = DIRECTION( '', ( 0.000000000000000, 0.000000000000000, 1.00000000000000 ) );
#446 = DIRECTION( '', ( 0.000000000000000, 0.000000000000000, -1.00000000000000 ) );
#447 = CARTESIAN_POINT( '', ( 27.5000000000000, -4.73190045845727E-15, 0.000000000000000 ) );
#448 = DIRECTION( '', ( 1.00000000000000, -6.12323399573676E-17, -0.000000000000000 ) );
#449 = DIRECTION( '', ( 6.12323399573676E-17, 1.00000000000000, 0.000000000000000 ) );
#450 = CARTESIAN_POINT( '', ( 27.5000000000000, -4.73190045845727E-15, 0.000000000000000 ) );
#451 = DIRECTION( '', ( 1.00000000000000, -6.12323399573677E-17, -0.000000000000000 ) );
#452 = DIRECTION( '', ( 6.12323399573677E-17, 1.00000000000000, 0.000000000000000 ) );
#453 = CARTESIAN_POINT( '', ( 24.5773800000000, -4.55294159705107E-15, 0.000000000000000 ) );
#454 = DIRECTION( '', ( 1.00000000000000, -6.12323399573677E-17, -0.000000000000000 ) );
#455 = DIRECTION( '', ( 6.12323399573677E-17, 1.00000000000000, 0.000000000000000 ) );
#456 = CARTESIAN_POINT( '', ( 24.0000000000000, -4.51758726860648E-15, 0.000000000000000 ) );
#457 = DIRECTION( '', ( 1.00000000000000, -6.12323399573677E-17, -0.000000000000000 ) );
#458 = DIRECTION( '', ( 6.12323399573677E-17, 1.00000000000000, 0.000000000000000 ) );
#459 = CARTESIAN_POINT( '', ( -3.46944695195361E-15, -3.04801110962966E-15, 0.000000000000000 ) );
#460 = DIRECTION( '', ( 1.00000000000000, -6.12323399573677E-17, -0.000000000000000 ) );
#461 = DIRECTION( '', ( 6.12323399573676E-17, 1.00000000000000, 0.000000000000000 ) );
#462 = DIRECTION( '', ( 0.000000000000000, 0.000000000000000, 1.00000000000000 ) );
#463 = DIRECTION( '', ( 1.00000000000000, -6.12323399573677E-17, -0.000000000000000 ) );
#464 = DIRECTION( '', ( 1.00000000000000, -6.12323399573677E-17, -0.000000000000000 ) );
#465 = DIRECTION( '', ( 0.000000000000000, 0.000000000000000, -1.00000000000000 ) );
#466 = DIRECTION( '', ( 1.00000000000000, -6.12323399573677E-17, -0.000000000000000 ) );
#467 = DIRECTION( '', ( 1.00000000000000, -6.12323399573677E-17, -0.000000000000000 ) );
#468 = CARTESIAN_POINT( '', ( -3.46944695195361E-15, -3.04801110962966E-15, 0.000000000000000 ) );
#469 = DIRECTION( '', ( 1.00000000000000, -6.12323399573677E-17, -0.000000000000000 ) );
#470 = DIRECTION( '', ( 6.12323399573676E-17, 1.00000000000000, 0.000000000000000 ) );
#471 = CARTESIAN_POINT( '', ( 29.2559833671144, -4.83942342895190E-15, 0.000000000000000 ) );
#472 = DIRECTION( '', ( 1.00000000000000, -6.12323399573676E-17, -0.000000000000000 ) );
#473 = DIRECTION( '', ( 6.12323399573676E-17, 1.00000000000000, 0.000000000000000 ) );
#474 = CARTESIAN_POINT( '', ( 0.613499999999996, -3.08557715019350E-15, 0.000000000000000 ) );
#475 = DIRECTION( '', ( 1.00000000000000, -6.12323399573677E-17, -0.000000000000000 ) );
#476 = DIRECTION( '', ( 6.12323399573677E-17, 1.00000000000000, 0.000000000000000 ) );
#477 = CARTESIAN_POINT( '', ( 0.613499999999996, -3.08557715019350E-15, 0.000000000000000 ) );
#478 = DIRECTION( '', ( 1.00000000000000, -6.12323399573677E-17, -0.000000000000000 ) );
#479 = DIRECTION( '', ( 6.12323399573677E-17, 1.00000000000000, 0.000000000000000 ) );
ENDSEC;
END-ISO-10303-21;
