ISO-10303-21;
HEADER;
FILE_DESCRIPTION( ( 'STEP AP214' ), '1' );
FILE_NAME( '//goodhand-server/Shared Folders/GoodHand Data/Kipp CAD/K0020/K0020.04_0.stp', '2020-11-24T14:50:32', ( '' ), ( '' ), ' ', 'PARTsolutions', ' ' );
FILE_SCHEMA( ( 'AUTOMOTIVE_DESIGN { 1 0 10303 214 1 1 1 1 }' ) );
ENDSEC;
DATA;
#1 = MECHANICAL_DESIGN_GEOMETRIC_PRESENTATION_REPRESENTATION( ' ', ( #10, #11, #12, #13, #14, #15, #16, #17, #18, #19, #20, #21 ), #6 );
#2 = PRODUCT_DEFINITION_CONTEXT( '', #22, 'design' );
#3 = APPLICATION_PROTOCOL_DEFINITION( 'international standard', 'automotive_design', 2001, #22 );
#4 = PRODUCT_CATEGORY_RELATIONSHIP( 'NONE', 'NONE', #23, #24 );
#5 = SHAPE_DEFINITION_REPRESENTATION( #25, #26 );
#6 =  ( GEOMETRIC_REPRESENTATION_CONTEXT( 3 )GLOBAL_UNCERTAINTY_ASSIGNED_CONTEXT( ( #29 ) )GLOBAL_UNIT_ASSIGNED_CONTEXT( ( #31, #32, #33 ) )REPRESENTATION_CONTEXT( 'NONE', 'WORKSPACE' ) );
#10 = STYLED_ITEM( '', ( #35 ), #36 );
#11 = STYLED_ITEM( '', ( #37 ), #38 );
#12 = STYLED_ITEM( '', ( #39 ), #40 );
#13 = STYLED_ITEM( '', ( #41 ), #42 );
#14 = STYLED_ITEM( '', ( #43 ), #44 );
#15 = STYLED_ITEM( '', ( #45 ), #46 );
#16 = STYLED_ITEM( '', ( #47 ), #48 );
#17 = STYLED_ITEM( '', ( #49 ), #50 );
#18 = STYLED_ITEM( '', ( #51 ), #52 );
#19 = STYLED_ITEM( '', ( #53 ), #54 );
#20 = STYLED_ITEM( '', ( #55 ), #56 );
#21 = STYLED_ITEM( '', ( #57 ), #58 );
#22 = APPLICATION_CONTEXT( 'core data for automotive mechanical design processes' );
#23 = PRODUCT_CATEGORY( 'part', 'NONE' );
#24 = PRODUCT_RELATED_PRODUCT_CATEGORY( 'detail', ' ', ( #59 ) );
#25 = PRODUCT_DEFINITION_SHAPE( 'NONE', 'NONE', #60 );
#26 = ADVANCED_BREP_SHAPE_REPRESENTATION( '_K0020.04_0', ( #61, #62 ), #6 );
#29 = UNCERTAINTY_MEASURE_WITH_UNIT( LENGTH_MEASURE( 0.00100000000000000 ), #31, '', '' );
#31 =  ( CONVERSION_BASED_UNIT( 'MILLIMETRE', #65 )LENGTH_UNIT(  )NAMED_UNIT( #68 ) );
#32 =  ( NAMED_UNIT( #70 )PLANE_ANGLE_UNIT(  )SI_UNIT( $, .RADIAN. ) );
#33 =  ( NAMED_UNIT( #70 )SI_UNIT( $, .STERADIAN. )SOLID_ANGLE_UNIT(  ) );
#35 = PRESENTATION_STYLE_ASSIGNMENT( ( #76 ) );
#36 = ADVANCED_FACE( '', ( #77 ), #78, .F. );
#37 = PRESENTATION_STYLE_ASSIGNMENT( ( #79 ) );
#38 = ADVANCED_FACE( '', ( #80 ), #81, .T. );
#39 = PRESENTATION_STYLE_ASSIGNMENT( ( #82 ) );
#40 = ADVANCED_FACE( '', ( #83 ), #84, .T. );
#41 = PRESENTATION_STYLE_ASSIGNMENT( ( #85 ) );
#42 = ADVANCED_FACE( '', ( #86 ), #87, .F. );
#43 = PRESENTATION_STYLE_ASSIGNMENT( ( #88 ) );
#44 = ADVANCED_FACE( '', ( #89 ), #90, .F. );
#45 = PRESENTATION_STYLE_ASSIGNMENT( ( #91 ) );
#46 = ADVANCED_FACE( '', ( #92, #93 ), #94, .T. );
#47 = PRESENTATION_STYLE_ASSIGNMENT( ( #95 ) );
#48 = ADVANCED_FACE( '', ( #96 ), #97, .T. );
#49 = PRESENTATION_STYLE_ASSIGNMENT( ( #98 ) );
#50 = ADVANCED_FACE( '', ( #99, #100 ), #101, .F. );
#51 = PRESENTATION_STYLE_ASSIGNMENT( ( #102 ) );
#52 = ADVANCED_FACE( '', ( #103, #104 ), #105, .T. );
#53 = PRESENTATION_STYLE_ASSIGNMENT( ( #106 ) );
#54 = ADVANCED_FACE( '', ( #107 ), #108, .T. );
#55 = PRESENTATION_STYLE_ASSIGNMENT( ( #109 ) );
#56 = ADVANCED_FACE( '', ( #110, #111 ), #112, .T. );
#57 = PRESENTATION_STYLE_ASSIGNMENT( ( #113 ) );
#58 = ADVANCED_FACE( '', ( #114 ), #115, .T. );
#59 = PRODUCT( '_K0020.04_0', '_K0020.04_0', 'PART-_K0020.04_0-DESC', ( #116 ) );
#60 = PRODUCT_DEFINITION( 'NONE', 'NONE', #117, #2 );
#61 = MANIFOLD_SOLID_BREP( '_K0020.04_0', #118 );
#62 = AXIS2_PLACEMENT_3D( '', #119, #120, #121 );
#65 = LENGTH_MEASURE_WITH_UNIT( LENGTH_MEASURE( 1.00000000000000 ), #122 );
#68 = DIMENSIONAL_EXPONENTS( 1.00000000000000, 0.000000000000000, 0.000000000000000, 0.000000000000000, 0.000000000000000, 0.000000000000000, 0.000000000000000 );
#70 = DIMENSIONAL_EXPONENTS( 0.000000000000000, 0.000000000000000, 0.000000000000000, 0.000000000000000, 0.000000000000000, 0.000000000000000, 0.000000000000000 );
#76 = SURFACE_STYLE_USAGE( .BOTH., #123 );
#77 = FACE_OUTER_BOUND( '', #124, .T. );
#78 = PLANE( '', #125 );
#79 = SURFACE_STYLE_USAGE( .BOTH., #126 );
#80 = FACE_OUTER_BOUND( '', #127, .T. );
#81 = PLANE( '', #128 );
#82 = SURFACE_STYLE_USAGE( .BOTH., #129 );
#83 = FACE_OUTER_BOUND( '', #130, .T. );
#84 = PLANE( '', #131 );
#85 = SURFACE_STYLE_USAGE( .BOTH., #132 );
#86 = FACE_OUTER_BOUND( '', #133, .T. );
#87 = PLANE( '', #134 );
#88 = SURFACE_STYLE_USAGE( .BOTH., #135 );
#89 = FACE_OUTER_BOUND( '', #136, .T. );
#90 = PLANE( '', #137 );
#91 = SURFACE_STYLE_USAGE( .BOTH., #138 );
#92 = FACE_OUTER_BOUND( '', #139, .T. );
#93 = FACE_OUTER_BOUND( '', #140, .T. );
#94 = CYLINDRICAL_SURFACE( '', #141, 7.00000000000000 );
#95 = SURFACE_STYLE_USAGE( .BOTH., #142 );
#96 = FACE_OUTER_BOUND( '', #143, .T. );
#97 = PLANE( '', #144 );
#98 = SURFACE_STYLE_USAGE( .BOTH., #145 );
#99 = FACE_OUTER_BOUND( '', #146, .T. );
#100 = FACE_BOUND( '', #147, .T. );
#101 = PLANE( '', #148 );
#102 = SURFACE_STYLE_USAGE( .BOTH., #149 );
#103 = FACE_OUTER_BOUND( '', #150, .T. );
#104 = FACE_BOUND( '', #151, .T. );
#105 = CONICAL_SURFACE( '', #152, 6.00000000000000, 0.785398163400000 );
#106 = SURFACE_STYLE_USAGE( .BOTH., #153 );
#107 = FACE_OUTER_BOUND( '', #154, .T. );
#108 = PLANE( '', #155 );
#109 = SURFACE_STYLE_USAGE( .BOTH., #156 );
#110 = FACE_OUTER_BOUND( '', #157, .T. );
#111 = FACE_OUTER_BOUND( '', #158, .T. );
#112 = CYLINDRICAL_SURFACE( '', #159, 12.0000000000000 );
#113 = SURFACE_STYLE_USAGE( .BOTH., #160 );
#114 = FACE_OUTER_BOUND( '', #161, .T. );
#115 = PLANE( '', #162 );
#116 = PRODUCT_CONTEXT( '', #22, 'mechanical' );
#117 = PRODUCT_DEFINITION_FORMATION_WITH_SPECIFIED_SOURCE( ' ', 'NONE', #59, .NOT_KNOWN. );
#118 = CLOSED_SHELL( '', ( #36, #44, #42, #56, #50, #46, #52, #38, #48, #58, #40, #54 ) );
#119 = CARTESIAN_POINT( '', ( 0.000000000000000, 0.000000000000000, 0.000000000000000 ) );
#120 = DIRECTION( '', ( 0.000000000000000, 0.000000000000000, 1.00000000000000 ) );
#121 = DIRECTION( '', ( 1.00000000000000, 0.000000000000000, 0.000000000000000 ) );
#122 =  ( LENGTH_UNIT(  )NAMED_UNIT( #68 )SI_UNIT( .MILLI., .METRE. ) );
#123 = SURFACE_SIDE_STYLE( '', ( #164 ) );
#124 = EDGE_LOOP( '', ( #165, #166 ) );
#125 = AXIS2_PLACEMENT_3D( '', #167, #168, #169 );
#126 = SURFACE_SIDE_STYLE( '', ( #170 ) );
#127 = EDGE_LOOP( '', ( #171, #172, #173, #174 ) );
#128 = AXIS2_PLACEMENT_3D( '', #175, #176, #177 );
#129 = SURFACE_SIDE_STYLE( '', ( #178 ) );
#130 = EDGE_LOOP( '', ( #179, #180, #181, #182 ) );
#131 = AXIS2_PLACEMENT_3D( '', #183, #184, #185 );
#132 = SURFACE_SIDE_STYLE( '', ( #186 ) );
#133 = EDGE_LOOP( '', ( #187, #188 ) );
#134 = AXIS2_PLACEMENT_3D( '', #189, #190, #191 );
#135 = SURFACE_SIDE_STYLE( '', ( #192 ) );
#136 = EDGE_LOOP( '', ( #193 ) );
#137 = AXIS2_PLACEMENT_3D( '', #194, #195, #196 );
#138 = SURFACE_SIDE_STYLE( '', ( #197 ) );
#139 = EDGE_LOOP( '', ( #198 ) );
#140 = EDGE_LOOP( '', ( #199 ) );
#141 = AXIS2_PLACEMENT_3D( '', #200, #201, #202 );
#142 = SURFACE_SIDE_STYLE( '', ( #203 ) );
#143 = EDGE_LOOP( '', ( #204, #205, #206, #207 ) );
#144 = AXIS2_PLACEMENT_3D( '', #208, #209, #210 );
#145 = SURFACE_SIDE_STYLE( '', ( #211 ) );
#146 = EDGE_LOOP( '', ( #212 ) );
#147 = EDGE_LOOP( '', ( #213 ) );
#148 = AXIS2_PLACEMENT_3D( '', #214, #215, #216 );
#149 = SURFACE_SIDE_STYLE( '', ( #217 ) );
#150 = EDGE_LOOP( '', ( #218 ) );
#151 = EDGE_LOOP( '', ( #219 ) );
#152 = AXIS2_PLACEMENT_3D( '', #220, #221, #222 );
#153 = SURFACE_SIDE_STYLE( '', ( #223 ) );
#154 = EDGE_LOOP( '', ( #224, #225, #226, #227 ) );
#155 = AXIS2_PLACEMENT_3D( '', #228, #229, #230 );
#156 = SURFACE_SIDE_STYLE( '', ( #231 ) );
#157 = EDGE_LOOP( '', ( #232, #233, #234, #235, #236, #237, #238, #239, #240, #241, #242, #243 ) );
#158 = EDGE_LOOP( '', ( #244 ) );
#159 = AXIS2_PLACEMENT_3D( '', #245, #246, #247 );
#160 = SURFACE_SIDE_STYLE( '', ( #248 ) );
#161 = EDGE_LOOP( '', ( #249, #250, #251, #252 ) );
#162 = AXIS2_PLACEMENT_3D( '', #253, #254, #255 );
#164 = SURFACE_STYLE_FILL_AREA( #256 );
#165 = ORIENTED_EDGE( '', *, *, #257, .F. );
#166 = ORIENTED_EDGE( '', *, *, #258, .T. );
#167 = CARTESIAN_POINT( '', ( -20.0000000000000, -12.0000000000000, 0.000000000000000 ) );
#168 = DIRECTION( '', ( 1.00000000000000, -6.12323399573677E-17, 0.000000000000000 ) );
#169 = DIRECTION( '', ( 6.12323399573677E-17, 1.00000000000000, 0.000000000000000 ) );
#170 = SURFACE_STYLE_FILL_AREA( #259 );
#171 = ORIENTED_EDGE( '', *, *, #260, .T. );
#172 = ORIENTED_EDGE( '', *, *, #261, .F. );
#173 = ORIENTED_EDGE( '', *, *, #262, .T. );
#174 = ORIENTED_EDGE( '', *, *, #263, .T. );
#175 = CARTESIAN_POINT( '', ( -13.0000000000000, -1.50000000000000, 15.0000000000000 ) );
#176 = DIRECTION( '', ( 3.25260651745651E-16, 1.00000000000000, -0.000000000000000 ) );
#177 = DIRECTION( '', ( -1.00000000000000, 3.25260651745651E-16, 0.000000000000000 ) );
#178 = SURFACE_STYLE_FILL_AREA( #264 );
#179 = ORIENTED_EDGE( '', *, *, #265, .T. );
#180 = ORIENTED_EDGE( '', *, *, #266, .F. );
#181 = ORIENTED_EDGE( '', *, *, #267, .T. );
#182 = ORIENTED_EDGE( '', *, *, #268, .T. );
#183 = CARTESIAN_POINT( '', ( -13.0000000000000, 1.50000000000000, 15.0000000000000 ) );
#184 = DIRECTION( '', ( -0.707106781186548, -0.707106781186548, 0.000000000000000 ) );
#185 = DIRECTION( '', ( 0.707106781186547, -0.707106781186547, 0.000000000000000 ) );
#186 = SURFACE_STYLE_FILL_AREA( #269 );
#187 = ORIENTED_EDGE( '', *, *, #268, .F. );
#188 = ORIENTED_EDGE( '', *, *, #270, .T. );
#189 = CARTESIAN_POINT( '', ( -20.0000000000000, -12.0000000000000, 0.000000000000000 ) );
#190 = DIRECTION( '', ( 1.00000000000000, -6.12323399573677E-17, 0.000000000000000 ) );
#191 = DIRECTION( '', ( 6.12323399573677E-17, 1.00000000000000, 0.000000000000000 ) );
#192 = SURFACE_STYLE_FILL_AREA( #271 );
#193 = ORIENTED_EDGE( '', *, *, #272, .F. );
#194 = CARTESIAN_POINT( '', ( 24.0000000000000, -1.46957615897682E-15, 0.000000000000000 ) );
#195 = DIRECTION( '', ( -1.00000000000000, 6.12323399573677E-17, 0.000000000000000 ) );
#196 = DIRECTION( '', ( -6.12323399573677E-17, -1.00000000000000, 0.000000000000000 ) );
#197 = SURFACE_STYLE_FILL_AREA( #273 );
#198 = ORIENTED_EDGE( '', *, *, #274, .F. );
#199 = ORIENTED_EDGE( '', *, *, #275, .T. );
#200 = CARTESIAN_POINT( '', ( -20.0000000000000, 1.22464679914735E-15, 0.000000000000000 ) );
#201 = DIRECTION( '', ( 1.00000000000000, -6.12323399573677E-17, -0.000000000000000 ) );
#202 = DIRECTION( '', ( -6.12323399573677E-17, -1.00000000000000, 0.000000000000000 ) );
#203 = SURFACE_STYLE_FILL_AREA( #276 );
#204 = ORIENTED_EDGE( '', *, *, #277, .T. );
#205 = ORIENTED_EDGE( '', *, *, #263, .F. );
#206 = ORIENTED_EDGE( '', *, *, #278, .T. );
#207 = ORIENTED_EDGE( '', *, *, #279, .T. );
#208 = CARTESIAN_POINT( '', ( -9.00000000000000, -1.50000000000000, 15.0000000000000 ) );
#209 = DIRECTION( '', ( -1.00000000000000, 0.000000000000000, 0.000000000000000 ) );
#210 = DIRECTION( '', ( 0.000000000000000, 0.000000000000000, 1.00000000000000 ) );
#211 = SURFACE_STYLE_FILL_AREA( #280 );
#212 = ORIENTED_EDGE( '', *, *, #281, .F. );
#213 = ORIENTED_EDGE( '', *, *, #274, .T. );
#214 = CARTESIAN_POINT( '', ( -2.14313189850787E-16, -7.00000000000000, 0.000000000000000 ) );
#215 = DIRECTION( '', ( -1.00000000000000, 6.12323399573677E-17, 0.000000000000000 ) );
#216 = DIRECTION( '', ( -6.12323399573677E-17, -1.00000000000000, 0.000000000000000 ) );
#217 = SURFACE_STYLE_FILL_AREA( #282 );
#218 = ORIENTED_EDGE( '', *, *, #275, .F. );
#219 = ORIENTED_EDGE( '', *, *, #272, .T. );
#220 = CARTESIAN_POINT( '', ( 24.0000000000000, -1.46957615897682E-15, 0.000000000000000 ) );
#221 = DIRECTION( '', ( -1.00000000000000, 6.12323399573677E-17, -0.000000000000000 ) );
#222 = DIRECTION( '', ( -6.12323399573677E-17, -1.00000000000000, 0.000000000000000 ) );
#223 = SURFACE_STYLE_FILL_AREA( #283 );
#224 = ORIENTED_EDGE( '', *, *, #284, .T. );
#225 = ORIENTED_EDGE( '', *, *, #261, .T. );
#226 = ORIENTED_EDGE( '', *, *, #285, .T. );
#227 = ORIENTED_EDGE( '', *, *, #257, .T. );
#228 = CARTESIAN_POINT( '', ( -26.5000000000000, -15.0000000000000, 15.0000000000000 ) );
#229 = DIRECTION( '', ( -0.707106781186548, 0.707106781186547, 0.000000000000000 ) );
#230 = DIRECTION( '', ( -0.707106781186547, -0.707106781186548, 0.000000000000000 ) );
#231 = SURFACE_STYLE_FILL_AREA( #286 );
#232 = ORIENTED_EDGE( '', *, *, #258, .F. );
#233 = ORIENTED_EDGE( '', *, *, #285, .F. );
#234 = ORIENTED_EDGE( '', *, *, #260, .F. );
#235 = ORIENTED_EDGE( '', *, *, #277, .F. );
#236 = ORIENTED_EDGE( '', *, *, #287, .F. );
#237 = ORIENTED_EDGE( '', *, *, #265, .F. );
#238 = ORIENTED_EDGE( '', *, *, #270, .F. );
#239 = ORIENTED_EDGE( '', *, *, #267, .F. );
#240 = ORIENTED_EDGE( '', *, *, #288, .F. );
#241 = ORIENTED_EDGE( '', *, *, #278, .F. );
#242 = ORIENTED_EDGE( '', *, *, #262, .F. );
#243 = ORIENTED_EDGE( '', *, *, #284, .F. );
#244 = ORIENTED_EDGE( '', *, *, #281, .T. );
#245 = CARTESIAN_POINT( '', ( -20.0000000000000, 1.22464679914735E-15, 0.000000000000000 ) );
#246 = DIRECTION( '', ( 1.00000000000000, -6.12323399573677E-17, -0.000000000000000 ) );
#247 = DIRECTION( '', ( -6.12323399573677E-17, -1.00000000000000, 0.000000000000000 ) );
#248 = SURFACE_STYLE_FILL_AREA( #289 );
#249 = ORIENTED_EDGE( '', *, *, #288, .T. );
#250 = ORIENTED_EDGE( '', *, *, #266, .T. );
#251 = ORIENTED_EDGE( '', *, *, #287, .T. );
#252 = ORIENTED_EDGE( '', *, *, #279, .F. );
#253 = CARTESIAN_POINT( '', ( -9.00000000000000, 1.50000000000000, 15.0000000000000 ) );
#254 = DIRECTION( '', ( -1.08420217248550E-16, -1.00000000000000, 0.000000000000000 ) );
#255 = DIRECTION( '', ( 1.00000000000000, -1.08420217248550E-16, 0.000000000000000 ) );
#256 = FILL_AREA_STYLE( '', ( #290 ) );
#257 = EDGE_CURVE( '', #291, #292, #293, .T. );
#258 = EDGE_CURVE( '', #291, #292, #294, .T. );
#259 = FILL_AREA_STYLE( '', ( #295 ) );
#260 = EDGE_CURVE( '', #296, #297, #298, .T. );
#261 = EDGE_CURVE( '', #299, #297, #300, .T. );
#262 = EDGE_CURVE( '', #299, #301, #302, .F. );
#263 = EDGE_CURVE( '', #301, #296, #303, .T. );
#264 = FILL_AREA_STYLE( '', ( #304 ) );
#265 = EDGE_CURVE( '', #305, #306, #307, .T. );
#266 = EDGE_CURVE( '', #308, #306, #309, .T. );
#267 = EDGE_CURVE( '', #308, #310, #311, .T. );
#268 = EDGE_CURVE( '', #310, #305, #312, .T. );
#269 = FILL_AREA_STYLE( '', ( #313 ) );
#270 = EDGE_CURVE( '', #310, #305, #314, .T. );
#271 = FILL_AREA_STYLE( '', ( #315 ) );
#272 = EDGE_CURVE( '', #316, #316, #317, .T. );
#273 = FILL_AREA_STYLE( '', ( #318 ) );
#274 = EDGE_CURVE( '', #319, #319, #320, .T. );
#275 = EDGE_CURVE( '', #321, #321, #322, .T. );
#276 = FILL_AREA_STYLE( '', ( #323 ) );
#277 = EDGE_CURVE( '', #324, #296, #325, .T. );
#278 = EDGE_CURVE( '', #301, #326, #327, .T. );
#279 = EDGE_CURVE( '', #326, #324, #328, .T. );
#280 = FILL_AREA_STYLE( '', ( #329 ) );
#281 = EDGE_CURVE( '', #330, #330, #331, .T. );
#282 = FILL_AREA_STYLE( '', ( #332 ) );
#283 = FILL_AREA_STYLE( '', ( #333 ) );
#284 = EDGE_CURVE( '', #292, #299, #334, .T. );
#285 = EDGE_CURVE( '', #297, #291, #335, .T. );
#286 = FILL_AREA_STYLE( '', ( #336 ) );
#287 = EDGE_CURVE( '', #306, #324, #337, .F. );
#288 = EDGE_CURVE( '', #326, #308, #338, .T. );
#289 = FILL_AREA_STYLE( '', ( #339 ) );
#290 = FILL_AREA_STYLE_COLOUR( '', #340 );
#291 = VERTEX_POINT( '', #341 );
#292 = VERTEX_POINT( '', #342 );
#293 = LINE( '', #343, #344 );
#294 = CIRCLE( '', #345, 12.0000000000000 );
#295 = FILL_AREA_STYLE_COLOUR( '', #346 );
#296 = VERTEX_POINT( '', #347 );
#297 = VERTEX_POINT( '', #348 );
#298 = LINE( '', #349, #350 );
#299 = VERTEX_POINT( '', #351 );
#300 = LINE( '', #352, #353 );
#301 = VERTEX_POINT( '', #354 );
#302 = LINE( '', #355, #356 );
#303 = LINE( '', #357, #358 );
#304 = FILL_AREA_STYLE_COLOUR( '', #359 );
#305 = VERTEX_POINT( '', #360 );
#306 = VERTEX_POINT( '', #361 );
#307 = ELLIPSE( '', #362, 16.9705627485000, 12.0000000000000 );
#308 = VERTEX_POINT( '', #363 );
#309 = LINE( '', #364, #365 );
#310 = VERTEX_POINT( '', #366 );
#311 = ELLIPSE( '', #367, 16.9705627485000, 12.0000000000000 );
#312 = LINE( '', #368, #369 );
#313 = FILL_AREA_STYLE_COLOUR( '', #370 );
#314 = CIRCLE( '', #371, 12.0000000000000 );
#315 = FILL_AREA_STYLE_COLOUR( '', #372 );
#316 = VERTEX_POINT( '', #373 );
#317 = CIRCLE( '', #374, 6.00000000000000 );
#318 = FILL_AREA_STYLE_COLOUR( '', #375 );
#319 = VERTEX_POINT( '', #376 );
#320 = CIRCLE( '', #377, 7.00000000000000 );
#321 = VERTEX_POINT( '', #378 );
#322 = CIRCLE( '', #379, 7.00000000000000 );
#323 = FILL_AREA_STYLE_COLOUR( '', #380 );
#324 = VERTEX_POINT( '', #381 );
#325 = CIRCLE( '', #382, 12.0000000000000 );
#326 = VERTEX_POINT( '', #383 );
#327 = CIRCLE( '', #384, 12.0000000000000 );
#328 = LINE( '', #385, #386 );
#329 = FILL_AREA_STYLE_COLOUR( '', #387 );
#330 = VERTEX_POINT( '', #388 );
#331 = CIRCLE( '', #389, 12.0000000000000 );
#332 = FILL_AREA_STYLE_COLOUR( '', #390 );
#333 = FILL_AREA_STYLE_COLOUR( '', #391 );
#334 = ELLIPSE( '', #392, 16.9705627485000, 12.0000000000000 );
#335 = ELLIPSE( '', #393, 16.9705627485000, 12.0000000000000 );
#336 = FILL_AREA_STYLE_COLOUR( '', #394 );
#337 = LINE( '', #395, #396 );
#338 = LINE( '', #397, #398 );
#339 = FILL_AREA_STYLE_COLOUR( '', #399 );
#340 = COLOUR_RGB( '', 0.689999997600000, 0.689999997600000, 0.689999997600000 );
#341 = CARTESIAN_POINT( '', ( -20.0000000000000, -8.50000000000000, -8.47053717304871 ) );
#342 = CARTESIAN_POINT( '', ( -20.0000000000000, -8.50000000000000, 8.47053717304871 ) );
#343 = CARTESIAN_POINT( '', ( -20.0000000000000, -8.50000000000000, 0.000000000000000 ) );
#344 = VECTOR( '', #400, 1000.00000000000 );
#345 = AXIS2_PLACEMENT_3D( '', #401, #402, #403 );
#346 = COLOUR_RGB( '', 0.689999997600000, 0.689999997600000, 0.689999997600000 );
#347 = CARTESIAN_POINT( '', ( -9.00000000000000, -1.50000000000000, -11.9058808997907 ) );
#348 = CARTESIAN_POINT( '', ( -13.0000000000000, -1.50000000000000, -11.9058808997907 ) );
#349 = CARTESIAN_POINT( '', ( -20.0000000000000, -1.50000000000000, -11.9058808997907 ) );
#350 = VECTOR( '', #404, 1000.00000000000 );
#351 = CARTESIAN_POINT( '', ( -13.0000000000000, -1.50000000000000, 11.9058808997907 ) );
#352 = CARTESIAN_POINT( '', ( -13.0000000000000, -1.50000000000000, 15.0000000000000 ) );
#353 = VECTOR( '', #405, 1000.00000000000 );
#354 = CARTESIAN_POINT( '', ( -9.00000000000000, -1.50000000000000, 11.9058808997907 ) );
#355 = CARTESIAN_POINT( '', ( -20.0000000000000, -1.50000000000000, 11.9058808997907 ) );
#356 = VECTOR( '', #406, 1000.00000000000 );
#357 = CARTESIAN_POINT( '', ( -9.00000000000000, -1.50000000000000, 15.0000000000000 ) );
#358 = VECTOR( '', #407, 1000.00000000000 );
#359 = COLOUR_RGB( '', 0.689999997600000, 0.689999997600000, 0.689999997600000 );
#360 = CARTESIAN_POINT( '', ( -20.0000000000000, 8.50000000000000, -8.47053717304871 ) );
#361 = CARTESIAN_POINT( '', ( -13.0000000000000, 1.50000000000000, -11.9058808997907 ) );
#362 = AXIS2_PLACEMENT_3D( '', #408, #409, #410 );
#363 = CARTESIAN_POINT( '', ( -13.0000000000000, 1.50000000000000, 11.9058808997907 ) );
#364 = CARTESIAN_POINT( '', ( -13.0000000000000, 1.50000000000000, 15.0000000000000 ) );
#365 = VECTOR( '', #411, 1000.00000000000 );
#366 = CARTESIAN_POINT( '', ( -20.0000000000000, 8.50000000000000, 8.47053717304871 ) );
#367 = AXIS2_PLACEMENT_3D( '', #412, #413, #414 );
#368 = CARTESIAN_POINT( '', ( -20.0000000000000, 8.50000000000000, 0.000000000000000 ) );
#369 = VECTOR( '', #415, 1000.00000000000 );
#370 = COLOUR_RGB( '', 0.689999997600000, 0.689999997600000, 0.689999997600000 );
#371 = AXIS2_PLACEMENT_3D( '', #416, #417, #418 );
#372 = COLOUR_RGB( '', 0.689999997600000, 0.689999997600000, 0.689999997600000 );
#373 = CARTESIAN_POINT( '', ( 24.0000000000000, -6.00000000000000, 0.000000000000000 ) );
#374 = AXIS2_PLACEMENT_3D( '', #419, #420, #421 );
#375 = COLOUR_RGB( '', 0.689999997600000, 0.689999997600000, 0.689999997600000 );
#376 = CARTESIAN_POINT( '', ( -4.28626379701574E-16, -7.00000000000000, 0.000000000000000 ) );
#377 = AXIS2_PLACEMENT_3D( '', #422, #423, #424 );
#378 = CARTESIAN_POINT( '', ( 23.0000000000000, -7.00000000000000, 0.000000000000000 ) );
#379 = AXIS2_PLACEMENT_3D( '', #425, #426, #427 );
#380 = COLOUR_RGB( '', 0.689999997600000, 0.689999997600000, 0.689999997600000 );
#381 = CARTESIAN_POINT( '', ( -9.00000000000000, 1.50000000000000, -11.9058808997907 ) );
#382 = AXIS2_PLACEMENT_3D( '', #428, #429, #430 );
#383 = CARTESIAN_POINT( '', ( -9.00000000000000, 1.50000000000000, 11.9058808997907 ) );
#384 = AXIS2_PLACEMENT_3D( '', #431, #432, #433 );
#385 = CARTESIAN_POINT( '', ( -9.00000000000000, 1.50000000000000, 15.0000000000000 ) );
#386 = VECTOR( '', #434, 1000.00000000000 );
#387 = COLOUR_RGB( '', 0.689999997600000, 0.689999997600000, 0.689999997600000 );
#388 = CARTESIAN_POINT( '', ( -7.34788079488412E-16, -12.0000000000000, 0.000000000000000 ) );
#389 = AXIS2_PLACEMENT_3D( '', #435, #436, #437 );
#390 = COLOUR_RGB( '', 0.689999997600000, 0.689999997600000, 0.689999997600000 );
#391 = COLOUR_RGB( '', 0.689999997600000, 0.689999997600000, 0.689999997600000 );
#392 = AXIS2_PLACEMENT_3D( '', #438, #439, #440 );
#393 = AXIS2_PLACEMENT_3D( '', #441, #442, #443 );
#394 = COLOUR_RGB( '', 0.689999997600000, 0.689999997600000, 0.689999997600000 );
#395 = CARTESIAN_POINT( '', ( -20.0000000000000, 1.50000000000000, -11.9058808997907 ) );
#396 = VECTOR( '', #444, 1000.00000000000 );
#397 = CARTESIAN_POINT( '', ( -20.0000000000000, 1.50000000000000, 11.9058808997907 ) );
#398 = VECTOR( '', #445, 1000.00000000000 );
#399 = COLOUR_RGB( '', 0.689999997600000, 0.689999997600000, 0.689999997600000 );
#400 = DIRECTION( '', ( 0.000000000000000, 0.000000000000000, 1.00000000000000 ) );
#401 = CARTESIAN_POINT( '', ( -20.0000000000000, 1.22464679914735E-15, 0.000000000000000 ) );
#402 = DIRECTION( '', ( -1.00000000000000, 6.12323399573677E-17, 0.000000000000000 ) );
#403 = DIRECTION( '', ( -6.12323399573677E-17, -1.00000000000000, 0.000000000000000 ) );
#404 = DIRECTION( '', ( -1.00000000000000, 6.12323399573677E-17, -0.000000000000000 ) );
#405 = DIRECTION( '', ( -0.000000000000000, -0.000000000000000, -1.00000000000000 ) );
#406 = DIRECTION( '', ( -1.00000000000000, 6.12323399573677E-17, -0.000000000000000 ) );
#407 = DIRECTION( '', ( -0.000000000000000, -0.000000000000000, -1.00000000000000 ) );
#408 = CARTESIAN_POINT( '', ( -11.5000000000000, 7.04171909509728E-16, 0.000000000000000 ) );
#409 = DIRECTION( '', ( -0.707106781186548, -0.707106781186548, 0.000000000000000 ) );
#410 = DIRECTION( '', ( -0.707106781186548, 0.707106781186548, -0.000000000000000 ) );
#411 = DIRECTION( '', ( -0.000000000000000, -0.000000000000000, -1.00000000000000 ) );
#412 = CARTESIAN_POINT( '', ( -11.5000000000000, 7.04171909509728E-16, 0.000000000000000 ) );
#413 = DIRECTION( '', ( -0.707106781186548, -0.707106781186548, 0.000000000000000 ) );
#414 = DIRECTION( '', ( -0.707106781186548, 0.707106781186548, -0.000000000000000 ) );
#415 = DIRECTION( '', ( 0.000000000000000, 0.000000000000000, -1.00000000000000 ) );
#416 = CARTESIAN_POINT( '', ( -20.0000000000000, 1.22464679914735E-15, 0.000000000000000 ) );
#417 = DIRECTION( '', ( -1.00000000000000, 6.12323399573677E-17, 0.000000000000000 ) );
#418 = DIRECTION( '', ( -6.12323399573677E-17, -1.00000000000000, 0.000000000000000 ) );
#419 = CARTESIAN_POINT( '', ( 24.0000000000000, -1.46957615897682E-15, 0.000000000000000 ) );
#420 = DIRECTION( '', ( -1.00000000000000, 6.12323399573677E-17, 0.000000000000000 ) );
#421 = DIRECTION( '', ( -6.12323399573677E-17, -1.00000000000000, 0.000000000000000 ) );
#422 = CARTESIAN_POINT( '', ( 0.000000000000000, -1.92592994438724E-31, 0.000000000000000 ) );
#423 = DIRECTION( '', ( -1.00000000000000, 6.12323399573677E-17, 0.000000000000000 ) );
#424 = DIRECTION( '', ( -6.12323399573677E-17, -1.00000000000000, 0.000000000000000 ) );
#425 = CARTESIAN_POINT( '', ( 23.0000000000000, -1.40834381901946E-15, 0.000000000000000 ) );
#426 = DIRECTION( '', ( -1.00000000000000, 6.12323399573677E-17, 0.000000000000000 ) );
#427 = DIRECTION( '', ( -6.12323399573677E-17, -1.00000000000000, 0.000000000000000 ) );
#428 = CARTESIAN_POINT( '', ( -9.00000000000000, 5.51091059616309E-16, 0.000000000000000 ) );
#429 = DIRECTION( '', ( -1.00000000000000, 0.000000000000000, 0.000000000000000 ) );
#430 = DIRECTION( '', ( 0.000000000000000, 0.000000000000000, 1.00000000000000 ) );
#431 = CARTESIAN_POINT( '', ( -9.00000000000000, 5.51091059616309E-16, 0.000000000000000 ) );
#432 = DIRECTION( '', ( -1.00000000000000, 0.000000000000000, 0.000000000000000 ) );
#433 = DIRECTION( '', ( 0.000000000000000, 0.000000000000000, 1.00000000000000 ) );
#434 = DIRECTION( '', ( -0.000000000000000, -0.000000000000000, -1.00000000000000 ) );
#435 = CARTESIAN_POINT( '', ( 0.000000000000000, -1.92592994438724E-31, 0.000000000000000 ) );
#436 = DIRECTION( '', ( -1.00000000000000, 6.12323399573677E-17, 0.000000000000000 ) );
#437 = DIRECTION( '', ( -6.12323399573677E-17, -1.00000000000000, 0.000000000000000 ) );
#438 = CARTESIAN_POINT( '', ( -11.5000000000000, 7.04171909509728E-16, 0.000000000000000 ) );
#439 = DIRECTION( '', ( -0.707106781186548, 0.707106781186547, 0.000000000000000 ) );
#440 = DIRECTION( '', ( -0.707106781186547, -0.707106781186548, -0.000000000000000 ) );
#441 = CARTESIAN_POINT( '', ( -11.5000000000000, 7.04171909509728E-16, 0.000000000000000 ) );
#442 = DIRECTION( '', ( -0.707106781186548, 0.707106781186547, 0.000000000000000 ) );
#443 = DIRECTION( '', ( -0.707106781186547, -0.707106781186548, -0.000000000000000 ) );
#444 = DIRECTION( '', ( -1.00000000000000, 6.12323399573677E-17, -0.000000000000000 ) );
#445 = DIRECTION( '', ( -1.00000000000000, 6.12323399573677E-17, -0.000000000000000 ) );
ENDSEC;
END-ISO-10303-21;
