ISO-10303-21;
HEADER;
FILE_DESCRIPTION( ( 'STEP AP214' ), '1' );
FILE_NAME( '//goodhand-server/Shared Folders/GoodHand Data/Kipp CAD/K0390/K0390.081X50.stp', '2020-12-07T10:15:32', ( '' ), ( '' ), ' ', 'PARTsolutions', ' ' );
FILE_SCHEMA( ( 'AUTOMOTIVE_DESIGN { 1 0 10303 214 1 1 1 1 }' ) );
ENDSEC;
DATA;
#1 = MECHANICAL_DESIGN_GEOMETRIC_PRESENTATION_REPRESENTATION( ' ', ( #10, #11, #12, #13, #14, #15, #16, #17, #18, #19, #20, #21, #22 ), #6 );
#2 = PRODUCT_DEFINITION_CONTEXT( '', #23, 'design' );
#3 = APPLICATION_PROTOCOL_DEFINITION( 'international standard', 'automotive_design', 2001, #23 );
#4 = PRODUCT_CATEGORY_RELATIONSHIP( 'NONE', 'NONE', #24, #25 );
#5 = SHAPE_DEFINITION_REPRESENTATION( #26, #27 );
#6 =  ( GEOMETRIC_REPRESENTATION_CONTEXT( 3 )GLOBAL_UNCERTAINTY_ASSIGNED_CONTEXT( ( #30 ) )GLOBAL_UNIT_ASSIGNED_CONTEXT( ( #32, #33, #34 ) )REPRESENTATION_CONTEXT( 'NONE', 'WORKSPACE' ) );
#10 = STYLED_ITEM( '', ( #36 ), #37 );
#11 = STYLED_ITEM( '', ( #38 ), #39 );
#12 = STYLED_ITEM( '', ( #40 ), #41 );
#13 = STYLED_ITEM( '', ( #42 ), #43 );
#14 = STYLED_ITEM( '', ( #44 ), #45 );
#15 = STYLED_ITEM( '', ( #46 ), #47 );
#16 = STYLED_ITEM( '', ( #48 ), #49 );
#17 = STYLED_ITEM( '', ( #50 ), #51 );
#18 = STYLED_ITEM( '', ( #52 ), #53 );
#19 = STYLED_ITEM( '', ( #54 ), #55 );
#20 = STYLED_ITEM( '', ( #56 ), #57 );
#21 = STYLED_ITEM( '', ( #58 ), #59 );
#22 = STYLED_ITEM( '', ( #60 ), #61 );
#23 = APPLICATION_CONTEXT( 'core data for automotive mechanical design processes' );
#24 = PRODUCT_CATEGORY( 'part', 'NONE' );
#25 = PRODUCT_RELATED_PRODUCT_CATEGORY( 'detail', ' ', ( #62 ) );
#26 = PRODUCT_DEFINITION_SHAPE( 'NONE', 'NONE', #63 );
#27 = ADVANCED_BREP_SHAPE_REPRESENTATION( '_K0390.081X50', ( #64, #65 ), #6 );
#30 = UNCERTAINTY_MEASURE_WITH_UNIT( LENGTH_MEASURE( 0.00100000000000000 ), #32, '', '' );
#32 =  ( CONVERSION_BASED_UNIT( 'MILLIMETRE', #68 )LENGTH_UNIT(  )NAMED_UNIT( #71 ) );
#33 =  ( NAMED_UNIT( #73 )PLANE_ANGLE_UNIT(  )SI_UNIT( $, .RADIAN. ) );
#34 =  ( NAMED_UNIT( #73 )SI_UNIT( $, .STERADIAN. )SOLID_ANGLE_UNIT(  ) );
#36 = PRESENTATION_STYLE_ASSIGNMENT( ( #79 ) );
#37 = ADVANCED_FACE( '', ( #80 ), #81, .T. );
#38 = PRESENTATION_STYLE_ASSIGNMENT( ( #82 ) );
#39 = ADVANCED_FACE( '', ( #83, #84 ), #85, .T. );
#40 = PRESENTATION_STYLE_ASSIGNMENT( ( #86 ) );
#41 = ADVANCED_FACE( '', ( #87 ), #88, .T. );
#42 = PRESENTATION_STYLE_ASSIGNMENT( ( #89 ) );
#43 = ADVANCED_FACE( '', ( #90 ), #91, .T. );
#44 = PRESENTATION_STYLE_ASSIGNMENT( ( #92 ) );
#45 = ADVANCED_FACE( '', ( #93 ), #94, .F. );
#46 = PRESENTATION_STYLE_ASSIGNMENT( ( #95 ) );
#47 = ADVANCED_FACE( '', ( #96, #97 ), #98, .T. );
#48 = PRESENTATION_STYLE_ASSIGNMENT( ( #99 ) );
#49 = ADVANCED_FACE( '', ( #100, #101 ), #102, .F. );
#50 = PRESENTATION_STYLE_ASSIGNMENT( ( #103 ) );
#51 = ADVANCED_FACE( '', ( #104, #105 ), #106, .T. );
#52 = PRESENTATION_STYLE_ASSIGNMENT( ( #107 ) );
#53 = ADVANCED_FACE( '', ( #108 ), #109, .F. );
#54 = PRESENTATION_STYLE_ASSIGNMENT( ( #110 ) );
#55 = ADVANCED_FACE( '', ( #111 ), #112, .F. );
#56 = PRESENTATION_STYLE_ASSIGNMENT( ( #113 ) );
#57 = ADVANCED_FACE( '', ( #114, #115 ), #116, .T. );
#58 = PRESENTATION_STYLE_ASSIGNMENT( ( #117 ) );
#59 = ADVANCED_FACE( '', ( #118 ), #119, .F. );
#60 = PRESENTATION_STYLE_ASSIGNMENT( ( #120 ) );
#61 = ADVANCED_FACE( '', ( #121, #122 ), #123, .T. );
#62 = PRODUCT( '_K0390.081X50', '_K0390.081X50', 'PART-_K0390.081X50-DESC', ( #124 ) );
#63 = PRODUCT_DEFINITION( 'NONE', 'NONE', #125, #2 );
#64 = MANIFOLD_SOLID_BREP( '_K0390.081X50', #126 );
#65 = AXIS2_PLACEMENT_3D( '', #127, #128, #129 );
#68 = LENGTH_MEASURE_WITH_UNIT( LENGTH_MEASURE( 1.00000000000000 ), #130 );
#71 = DIMENSIONAL_EXPONENTS( 1.00000000000000, 0.000000000000000, 0.000000000000000, 0.000000000000000, 0.000000000000000, 0.000000000000000, 0.000000000000000 );
#73 = DIMENSIONAL_EXPONENTS( 0.000000000000000, 0.000000000000000, 0.000000000000000, 0.000000000000000, 0.000000000000000, 0.000000000000000, 0.000000000000000 );
#79 = SURFACE_STYLE_USAGE( .BOTH., #131 );
#80 = FACE_OUTER_BOUND( '', #132, .T. );
#81 = CONICAL_SURFACE( '', #133, 3.23300000000000, 0.785398163400000 );
#82 = SURFACE_STYLE_USAGE( .BOTH., #134 );
#83 = FACE_OUTER_BOUND( '', #135, .T. );
#84 = FACE_OUTER_BOUND( '', #136, .T. );
#85 = CYLINDRICAL_SURFACE( '', #137, 2.70000000000000 );
#86 = SURFACE_STYLE_USAGE( .BOTH., #138 );
#87 = FACE_OUTER_BOUND( '', #139, .T. );
#88 = PLANE( '', #140 );
#89 = SURFACE_STYLE_USAGE( .BOTH., #141 );
#90 = FACE_OUTER_BOUND( '', #142, .T. );
#91 = CONICAL_SURFACE( '', #143, 3.23300000000000, 0.785398163400000 );
#92 = SURFACE_STYLE_USAGE( .BOTH., #144 );
#93 = FACE_OUTER_BOUND( '', #145, .T. );
#94 = PLANE( '', #146 );
#95 = SURFACE_STYLE_USAGE( .BOTH., #147 );
#96 = FACE_BOUND( '', #148, .T. );
#97 = FACE_OUTER_BOUND( '', #149, .T. );
#98 = SPHERICAL_SURFACE( '', #150, 5.03220000000000 );
#99 = SURFACE_STYLE_USAGE( .BOTH., #151 );
#100 = FACE_OUTER_BOUND( '', #152, .T. );
#101 = FACE_BOUND( '', #153, .T. );
#102 = PLANE( '', #154 );
#103 = SURFACE_STYLE_USAGE( .BOTH., #155 );
#104 = FACE_OUTER_BOUND( '', #156, .T. );
#105 = FACE_OUTER_BOUND( '', #157, .T. );
#106 = CYLINDRICAL_SURFACE( '', #158, 4.00000000000000 );
#107 = SURFACE_STYLE_USAGE( .BOTH., #159 );
#108 = FACE_OUTER_BOUND( '', #160, .T. );
#109 = PLANE( '', #161 );
#110 = SURFACE_STYLE_USAGE( .BOTH., #162 );
#111 = FACE_OUTER_BOUND( '', #163, .T. );
#112 = PLANE( '', #164 );
#113 = SURFACE_STYLE_USAGE( .BOTH., #165 );
#114 = FACE_BOUND( '', #166, .T. );
#115 = FACE_OUTER_BOUND( '', #167, .T. );
#116 = CONICAL_SURFACE( '', #168, 4.00000000000000, 1.06399014130000 );
#117 = SURFACE_STYLE_USAGE( .BOTH., #169 );
#118 = FACE_OUTER_BOUND( '', #170, .T. );
#119 = PLANE( '', #171 );
#120 = SURFACE_STYLE_USAGE( .BOTH., #172 );
#121 = FACE_OUTER_BOUND( '', #173, .T. );
#122 = FACE_OUTER_BOUND( '', #174, .T. );
#123 = CYLINDRICAL_SURFACE( '', #175, 3.00000000000000 );
#124 = PRODUCT_CONTEXT( '', #23, 'mechanical' );
#125 = PRODUCT_DEFINITION_FORMATION_WITH_SPECIFIED_SOURCE( ' ', 'NONE', #62, .NOT_KNOWN. );
#126 = CLOSED_SHELL( '', ( #55, #59, #47, #61, #49, #39, #57, #51, #37, #45, #43, #53, #41 ) );
#127 = CARTESIAN_POINT( '', ( 0.000000000000000, 0.000000000000000, 0.000000000000000 ) );
#128 = DIRECTION( '', ( 0.000000000000000, 0.000000000000000, 1.00000000000000 ) );
#129 = DIRECTION( '', ( 1.00000000000000, 0.000000000000000, 0.000000000000000 ) );
#130 =  ( LENGTH_UNIT(  )NAMED_UNIT( #71 )SI_UNIT( .MILLI., .METRE. ) );
#131 = SURFACE_SIDE_STYLE( '', ( #177 ) );
#132 = EDGE_LOOP( '', ( #178, #179, #180, #181 ) );
#133 = AXIS2_PLACEMENT_3D( '', #182, #183, #184 );
#134 = SURFACE_SIDE_STYLE( '', ( #185 ) );
#135 = EDGE_LOOP( '', ( #186 ) );
#136 = EDGE_LOOP( '', ( #187 ) );
#137 = AXIS2_PLACEMENT_3D( '', #188, #189, #190 );
#138 = SURFACE_SIDE_STYLE( '', ( #191 ) );
#139 = EDGE_LOOP( '', ( #192, #193, #194, #195 ) );
#140 = AXIS2_PLACEMENT_3D( '', #196, #197, #198 );
#141 = SURFACE_SIDE_STYLE( '', ( #199 ) );
#142 = EDGE_LOOP( '', ( #200, #201, #202, #203 ) );
#143 = AXIS2_PLACEMENT_3D( '', #204, #205, #206 );
#144 = SURFACE_SIDE_STYLE( '', ( #207 ) );
#145 = EDGE_LOOP( '', ( #208, #209 ) );
#146 = AXIS2_PLACEMENT_3D( '', #210, #211, #212 );
#147 = SURFACE_SIDE_STYLE( '', ( #213 ) );
#148 = VERTEX_LOOP( '', #214 );
#149 = EDGE_LOOP( '', ( #215 ) );
#150 = AXIS2_PLACEMENT_3D( '', #216, #217, #218 );
#151 = SURFACE_SIDE_STYLE( '', ( #219 ) );
#152 = EDGE_LOOP( '', ( #220 ) );
#153 = EDGE_LOOP( '', ( #221 ) );
#154 = AXIS2_PLACEMENT_3D( '', #222, #223, #224 );
#155 = SURFACE_SIDE_STYLE( '', ( #225 ) );
#156 = EDGE_LOOP( '', ( #226 ) );
#157 = EDGE_LOOP( '', ( #227, #228, #229, #230, #231, #232, #233, #234 ) );
#158 = AXIS2_PLACEMENT_3D( '', #235, #236, #237 );
#159 = SURFACE_SIDE_STYLE( '', ( #238 ) );
#160 = EDGE_LOOP( '', ( #239, #240 ) );
#161 = AXIS2_PLACEMENT_3D( '', #241, #242, #243 );
#162 = SURFACE_SIDE_STYLE( '', ( #244 ) );
#163 = EDGE_LOOP( '', ( #245, #246, #247, #248, #249, #250 ) );
#164 = AXIS2_PLACEMENT_3D( '', #251, #252, #253 );
#165 = SURFACE_SIDE_STYLE( '', ( #254 ) );
#166 = EDGE_LOOP( '', ( #255 ) );
#167 = EDGE_LOOP( '', ( #256 ) );
#168 = AXIS2_PLACEMENT_3D( '', #257, #258, #259 );
#169 = SURFACE_SIDE_STYLE( '', ( #260 ) );
#170 = EDGE_LOOP( '', ( #261, #262, #263, #264, #265, #266 ) );
#171 = AXIS2_PLACEMENT_3D( '', #267, #268, #269 );
#172 = SURFACE_SIDE_STYLE( '', ( #270 ) );
#173 = EDGE_LOOP( '', ( #271 ) );
#174 = EDGE_LOOP( '', ( #272 ) );
#175 = AXIS2_PLACEMENT_3D( '', #273, #274, #275 );
#177 = SURFACE_STYLE_FILL_AREA( #276 );
#178 = ORIENTED_EDGE( '', *, *, #277, .T. );
#179 = ORIENTED_EDGE( '', *, *, #278, .T. );
#180 = ORIENTED_EDGE( '', *, *, #279, .F. );
#181 = ORIENTED_EDGE( '', *, *, #280, .T. );
#182 = CARTESIAN_POINT( '', ( 0.000000000000000, 6.61433067666888E-15, 0.000000000000000 ) );
#183 = DIRECTION( '', ( 1.00000000000000, -6.12323399573676E-17, -0.000000000000000 ) );
#184 = DIRECTION( '', ( 6.12323399573676E-17, 1.00000000000000, 0.000000000000000 ) );
#185 = SURFACE_STYLE_FILL_AREA( #281 );
#186 = ORIENTED_EDGE( '', *, *, #282, .F. );
#187 = ORIENTED_EDGE( '', *, *, #283, .T. );
#188 = CARTESIAN_POINT( '', ( 50.0000000000000, 3.55271367880050E-15, 0.000000000000000 ) );
#189 = DIRECTION( '', ( -1.00000000000000, 6.12323399573676E-17, 0.000000000000000 ) );
#190 = DIRECTION( '', ( 6.12323399573676E-17, 1.00000000000000, 0.000000000000000 ) );
#191 = SURFACE_STYLE_FILL_AREA( #284 );
#192 = ORIENTED_EDGE( '', *, *, #285, .T. );
#193 = ORIENTED_EDGE( '', *, *, #286, .T. );
#194 = ORIENTED_EDGE( '', *, *, #287, .T. );
#195 = ORIENTED_EDGE( '', *, *, #288, .T. );
#196 = CARTESIAN_POINT( '', ( 3.00000000000000, 0.000000000000000, 0.000000000000000 ) );
#197 = DIRECTION( '', ( -1.00000000000000, 0.000000000000000, 0.000000000000000 ) );
#198 = DIRECTION( '', ( 0.000000000000000, 0.000000000000000, 1.00000000000000 ) );
#199 = SURFACE_STYLE_FILL_AREA( #289 );
#200 = ORIENTED_EDGE( '', *, *, #290, .F. );
#201 = ORIENTED_EDGE( '', *, *, #291, .T. );
#202 = ORIENTED_EDGE( '', *, *, #292, .T. );
#203 = ORIENTED_EDGE( '', *, *, #293, .T. );
#204 = CARTESIAN_POINT( '', ( 0.000000000000000, 6.61433067666888E-15, 0.000000000000000 ) );
#205 = DIRECTION( '', ( 1.00000000000000, -6.12323399573676E-17, -0.000000000000000 ) );
#206 = DIRECTION( '', ( 6.12323399573676E-17, 1.00000000000000, 0.000000000000000 ) );
#207 = SURFACE_STYLE_FILL_AREA( #294 );
#208 = ORIENTED_EDGE( '', *, *, #292, .F. );
#209 = ORIENTED_EDGE( '', *, *, #295, .F. );
#210 = CARTESIAN_POINT( '', ( -9.89820775410848E-17, 6.61433067666888E-15, 0.000000000000000 ) );
#211 = DIRECTION( '', ( 1.00000000000000, -6.12323399573676E-17, -0.000000000000000 ) );
#212 = DIRECTION( '', ( 6.12323399573676E-17, 1.00000000000000, 0.000000000000000 ) );
#213 = SURFACE_STYLE_FILL_AREA( #296 );
#214 = VERTEX_POINT( '', #297 );
#215 = ORIENTED_EDGE( '', *, *, #298, .T. );
#216 = CARTESIAN_POINT( '', ( 44.9678000000001, 2.94902990916057E-14, 0.000000000000000 ) );
#217 = DIRECTION( '', ( 1.00000000000000, 0.000000000000000, 0.000000000000000 ) );
#218 = DIRECTION( '', ( 0.000000000000000, -1.00000000000000, 0.000000000000000 ) );
#219 = SURFACE_STYLE_FILL_AREA( #299 );
#220 = ORIENTED_EDGE( '', *, *, #300, .F. );
#221 = ORIENTED_EDGE( '', *, *, #282, .T. );
#222 = CARTESIAN_POINT( '', ( 47.0000000000000, 2.70000000000000, 0.000000000000000 ) );
#223 = DIRECTION( '', ( 1.00000000000000, -6.12323399573676E-17, -0.000000000000000 ) );
#224 = DIRECTION( '', ( 6.12323399573676E-17, 1.00000000000000, 0.000000000000000 ) );
#225 = SURFACE_STYLE_FILL_AREA( #301 );
#226 = ORIENTED_EDGE( '', *, *, #302, .F. );
#227 = ORIENTED_EDGE( '', *, *, #290, .T. );
#228 = ORIENTED_EDGE( '', *, *, #303, .T. );
#229 = ORIENTED_EDGE( '', *, *, #285, .F. );
#230 = ORIENTED_EDGE( '', *, *, #304, .T. );
#231 = ORIENTED_EDGE( '', *, *, #279, .T. );
#232 = ORIENTED_EDGE( '', *, *, #305, .T. );
#233 = ORIENTED_EDGE( '', *, *, #287, .F. );
#234 = ORIENTED_EDGE( '', *, *, #306, .T. );
#235 = CARTESIAN_POINT( '', ( 50.0000000000000, 3.55271367880050E-15, 0.000000000000000 ) );
#236 = DIRECTION( '', ( -1.00000000000000, 6.12323399573676E-17, 0.000000000000000 ) );
#237 = DIRECTION( '', ( 6.12323399573676E-17, 1.00000000000000, 0.000000000000000 ) );
#238 = SURFACE_STYLE_FILL_AREA( #307 );
#239 = ORIENTED_EDGE( '', *, *, #277, .F. );
#240 = ORIENTED_EDGE( '', *, *, #308, .F. );
#241 = CARTESIAN_POINT( '', ( -9.89820775410848E-17, 6.61433067666888E-15, 0.000000000000000 ) );
#242 = DIRECTION( '', ( 1.00000000000000, -6.12323399573676E-17, -0.000000000000000 ) );
#243 = DIRECTION( '', ( 6.12323399573676E-17, 1.00000000000000, 0.000000000000000 ) );
#244 = SURFACE_STYLE_FILL_AREA( #309 );
#245 = ORIENTED_EDGE( '', *, *, #278, .F. );
#246 = ORIENTED_EDGE( '', *, *, #308, .T. );
#247 = ORIENTED_EDGE( '', *, *, #280, .F. );
#248 = ORIENTED_EDGE( '', *, *, #304, .F. );
#249 = ORIENTED_EDGE( '', *, *, #288, .F. );
#250 = ORIENTED_EDGE( '', *, *, #305, .F. );
#251 = CARTESIAN_POINT( '', ( 3.00000000000000, 0.900000000000007, 10.5000000000000 ) );
#252 = DIRECTION( '', ( 0.000000000000000, 1.00000000000000, 0.000000000000000 ) );
#253 = DIRECTION( '', ( 0.000000000000000, -0.000000000000000, 1.00000000000000 ) );
#254 = SURFACE_STYLE_FILL_AREA( #310 );
#255 = ORIENTED_EDGE( '', *, *, #283, .F. );
#256 = ORIENTED_EDGE( '', *, *, #302, .T. );
#257 = CARTESIAN_POINT( '', ( 42.5000000000000, 4.01195622848076E-15, 0.000000000000000 ) );
#258 = DIRECTION( '', ( -1.00000000000000, 6.12323399573676E-17, -0.000000000000000 ) );
#259 = DIRECTION( '', ( -6.12323399573676E-17, -1.00000000000000, 0.000000000000000 ) );
#260 = SURFACE_STYLE_FILL_AREA( #311 );
#261 = ORIENTED_EDGE( '', *, *, #295, .T. );
#262 = ORIENTED_EDGE( '', *, *, #291, .F. );
#263 = ORIENTED_EDGE( '', *, *, #306, .F. );
#264 = ORIENTED_EDGE( '', *, *, #286, .F. );
#265 = ORIENTED_EDGE( '', *, *, #303, .F. );
#266 = ORIENTED_EDGE( '', *, *, #293, .F. );
#267 = CARTESIAN_POINT( '', ( 3.00000000000000, -0.899999999999993, -10.5000000000000 ) );
#268 = DIRECTION( '', ( 0.000000000000000, -1.00000000000000, 0.000000000000000 ) );
#269 = DIRECTION( '', ( 0.000000000000000, 0.000000000000000, -1.00000000000000 ) );
#270 = SURFACE_STYLE_FILL_AREA( #312 );
#271 = ORIENTED_EDGE( '', *, *, #298, .F. );
#272 = ORIENTED_EDGE( '', *, *, #300, .T. );
#273 = CARTESIAN_POINT( '', ( 50.0000000000000, 3.55271367880050E-15, 0.000000000000000 ) );
#274 = DIRECTION( '', ( -1.00000000000000, 6.12323399573677E-17, 0.000000000000000 ) );
#275 = DIRECTION( '', ( 6.12323399573677E-17, 1.00000000000000, 0.000000000000000 ) );
#276 = FILL_AREA_STYLE( '', ( #313 ) );
#277 = EDGE_CURVE( '', #314, #315, #316, .T. );
#278 = EDGE_CURVE( '', #315, #317, #318, .T. );
#279 = EDGE_CURVE( '', #319, #317, #320, .T. );
#280 = EDGE_CURVE( '', #319, #314, #321, .T. );
#281 = FILL_AREA_STYLE( '', ( #322 ) );
#282 = EDGE_CURVE( '', #323, #323, #324, .T. );
#283 = EDGE_CURVE( '', #325, #325, #326, .T. );
#284 = FILL_AREA_STYLE( '', ( #327 ) );
#285 = EDGE_CURVE( '', #328, #329, #330, .T. );
#286 = EDGE_CURVE( '', #329, #331, #332, .T. );
#287 = EDGE_CURVE( '', #331, #333, #334, .T. );
#288 = EDGE_CURVE( '', #333, #328, #335, .T. );
#289 = FILL_AREA_STYLE( '', ( #336 ) );
#290 = EDGE_CURVE( '', #337, #338, #339, .T. );
#291 = EDGE_CURVE( '', #337, #340, #341, .T. );
#292 = EDGE_CURVE( '', #340, #342, #343, .T. );
#293 = EDGE_CURVE( '', #342, #338, #344, .T. );
#294 = FILL_AREA_STYLE( '', ( #345 ) );
#295 = EDGE_CURVE( '', #342, #340, #346, .T. );
#296 = FILL_AREA_STYLE( '', ( #347 ) );
#297 = CARTESIAN_POINT( '', ( 50.0000000000000, 2.88740323293388E-14, 0.000000000000000 ) );
#298 = EDGE_CURVE( '', #348, #348, #349, .T. );
#299 = FILL_AREA_STYLE( '', ( #350 ) );
#300 = EDGE_CURVE( '', #351, #351, #352, .T. );
#301 = FILL_AREA_STYLE( '', ( #353 ) );
#302 = EDGE_CURVE( '', #354, #354, #355, .T. );
#303 = EDGE_CURVE( '', #338, #329, #356, .T. );
#304 = EDGE_CURVE( '', #328, #319, #357, .F. );
#305 = EDGE_CURVE( '', #317, #333, #358, .T. );
#306 = EDGE_CURVE( '', #331, #337, #359, .F. );
#307 = FILL_AREA_STYLE( '', ( #360 ) );
#308 = EDGE_CURVE( '', #315, #314, #361, .T. );
#309 = FILL_AREA_STYLE( '', ( #362 ) );
#310 = FILL_AREA_STYLE( '', ( #363 ) );
#311 = FILL_AREA_STYLE( '', ( #364 ) );
#312 = FILL_AREA_STYLE( '', ( #365 ) );
#313 = FILL_AREA_STYLE_COLOUR( '', #366 );
#314 = VERTEX_POINT( '', #367 );
#315 = VERTEX_POINT( '', #368 );
#316 = CIRCLE( '', #369, 3.23300000000000 );
#317 = VERTEX_POINT( '', #370 );
#318 = B_SPLINE_CURVE_WITH_KNOTS( '', 3, ( #371, #372, #373, #374 ), .UNSPECIFIED., .F., .F., ( 4, 4 ), ( 0.0158157249040059, 0.0169130244324276 ), .UNSPECIFIED. );
#319 = VERTEX_POINT( '', #375 );
#320 = CIRCLE( '', #376, 4.00000000000000 );
#321 = B_SPLINE_CURVE_WITH_KNOTS( '', 3, ( #377, #378, #379, #380 ), .UNSPECIFIED., .F., .F., ( 4, 4 ), ( 0.00685941369446052, 0.00796210091278451 ), .UNSPECIFIED. );
#322 = FILL_AREA_STYLE_COLOUR( '', #381 );
#323 = VERTEX_POINT( '', #382 );
#324 = CIRCLE( '', #383, 2.70000000000000 );
#325 = VERTEX_POINT( '', #384 );
#326 = CIRCLE( '', #385, 2.70000000000000 );
#327 = FILL_AREA_STYLE_COLOUR( '', #386 );
#328 = VERTEX_POINT( '', #387 );
#329 = VERTEX_POINT( '', #388 );
#330 = CIRCLE( '', #389, 4.00000000000000 );
#331 = VERTEX_POINT( '', #390 );
#332 = LINE( '', #391, #392 );
#333 = VERTEX_POINT( '', #393 );
#334 = CIRCLE( '', #394, 4.00000000000000 );
#335 = LINE( '', #395, #396 );
#336 = FILL_AREA_STYLE_COLOUR( '', #397 );
#337 = VERTEX_POINT( '', #398 );
#338 = VERTEX_POINT( '', #399 );
#339 = CIRCLE( '', #400, 4.00000000000000 );
#340 = VERTEX_POINT( '', #401 );
#341 = B_SPLINE_CURVE_WITH_KNOTS( '', 3, ( #402, #403, #404, #405 ), .UNSPECIFIED., .F., .F., ( 4, 4 ), ( 0.00685941369446051, 0.00796210091278451 ), .UNSPECIFIED. );
#342 = VERTEX_POINT( '', #406 );
#343 = CIRCLE( '', #407, 3.23300000000000 );
#344 = B_SPLINE_CURVE_WITH_KNOTS( '', 3, ( #408, #409, #410, #411 ), .UNSPECIFIED., .F., .F., ( 4, 4 ), ( 0.0158157249040059, 0.0169130244324276 ), .UNSPECIFIED. );
#345 = FILL_AREA_STYLE_COLOUR( '', #412 );
#346 = LINE( '', #413, #414 );
#347 = FILL_AREA_STYLE_COLOUR( '', #415 );
#348 = VERTEX_POINT( '', #416 );
#349 = CIRCLE( '', #417, 3.00000000000000 );
#350 = FILL_AREA_STYLE_COLOUR( '', #418 );
#351 = VERTEX_POINT( '', #419 );
#352 = CIRCLE( '', #420, 3.00000000000000 );
#353 = FILL_AREA_STYLE_COLOUR( '', #421 );
#354 = VERTEX_POINT( '', #422 );
#355 = CIRCLE( '', #423, 4.00000000000000 );
#356 = LINE( '', #424, #425 );
#357 = LINE( '', #426, #427 );
#358 = LINE( '', #428, #429 );
#359 = LINE( '', #430, #431 );
#360 = FILL_AREA_STYLE_COLOUR( '', #432 );
#361 = LINE( '', #433, #434 );
#362 = FILL_AREA_STYLE_COLOUR( '', #435 );
#363 = FILL_AREA_STYLE_COLOUR( '', #436 );
#364 = FILL_AREA_STYLE_COLOUR( '', #437 );
#365 = FILL_AREA_STYLE_COLOUR( '', #438 );
#366 = COLOUR_RGB( '', 0.689999997600000, 0.689999997600000, 0.689999997600000 );
#367 = CARTESIAN_POINT( '', ( 0.000000000000000, 0.900000000000006, -3.10520353600211 ) );
#368 = CARTESIAN_POINT( '', ( 0.000000000000000, 0.900000000000006, 3.10520353600211 ) );
#369 = AXIS2_PLACEMENT_3D( '', #439, #440, #441 );
#370 = CARTESIAN_POINT( '', ( 0.767000000000004, 0.900000000000010, 3.89743505398101 ) );
#371 = CARTESIAN_POINT( '', ( -3.14911240955613E-16, 0.900000000000007, 3.10520353600211 ) );
#372 = CARTESIAN_POINT( '', ( 0.254623855499881, 0.900000000000007, 3.37030658489628 ) );
#373 = CARTESIAN_POINT( '', ( 0.510496360619596, 0.900000000000007, 3.63418126185596 ) );
#374 = CARTESIAN_POINT( '', ( 0.766999999999999, 0.900000000000007, 3.89743505398102 ) );
#375 = CARTESIAN_POINT( '', ( 0.767000000000004, 0.900000000000010, -3.89743505398101 ) );
#376 = AXIS2_PLACEMENT_3D( '', #442, #443, #444 );
#377 = CARTESIAN_POINT( '', ( 0.767000000000000, 0.900000000000007, -3.89743505398102 ) );
#378 = CARTESIAN_POINT( '', ( 0.510490421567082, 0.900000000000007, -3.63417516651127 ) );
#379 = CARTESIAN_POINT( '', ( 0.254616510453988, 0.900000000000007, -3.37029893756074 ) );
#380 = CARTESIAN_POINT( '', ( -1.07797795260380E-15, 0.900000000000007, -3.10520353600211 ) );
#381 = COLOUR_RGB( '', 0.689999997600000, 0.689999997600000, 0.689999997600000 );
#382 = CARTESIAN_POINT( '', ( 47.0000000000000, 2.70000000000000, 0.000000000000000 ) );
#383 = AXIS2_PLACEMENT_3D( '', #445, #446, #447 );
#384 = CARTESIAN_POINT( '', ( 43.2217250000000, 2.70000000000000, 0.000000000000000 ) );
#385 = AXIS2_PLACEMENT_3D( '', #448, #449, #450 );
#386 = COLOUR_RGB( '', 0.689999997600000, 0.689999997600000, 0.689999997600000 );
#387 = CARTESIAN_POINT( '', ( 3.00000000000000, 0.900000000000006, -3.89743505398101 ) );
#388 = CARTESIAN_POINT( '', ( 3.00000000000000, -0.899999999999993, -3.89743505398101 ) );
#389 = AXIS2_PLACEMENT_3D( '', #451, #452, #453 );
#390 = CARTESIAN_POINT( '', ( 3.00000000000000, -0.899999999999993, 3.89743505398101 ) );
#391 = CARTESIAN_POINT( '', ( 3.00000000000000, -0.899999999999993, -10.5000000000000 ) );
#392 = VECTOR( '', #454, 1000.00000000000 );
#393 = CARTESIAN_POINT( '', ( 3.00000000000000, 0.900000000000006, 3.89743505398101 ) );
#394 = AXIS2_PLACEMENT_3D( '', #455, #456, #457 );
#395 = CARTESIAN_POINT( '', ( 3.00000000000000, 0.900000000000007, 10.5000000000000 ) );
#396 = VECTOR( '', #458, 1000.00000000000 );
#397 = COLOUR_RGB( '', 0.689999997600000, 0.689999997600000, 0.689999997600000 );
#398 = CARTESIAN_POINT( '', ( 0.767000000000004, -0.899999999999990, 3.89743505398102 ) );
#399 = CARTESIAN_POINT( '', ( 0.767000000000004, -0.899999999999990, -3.89743505398102 ) );
#400 = AXIS2_PLACEMENT_3D( '', #459, #460, #461 );
#401 = CARTESIAN_POINT( '', ( 0.000000000000000, -0.899999999999993, 3.10520353600211 ) );
#402 = CARTESIAN_POINT( '', ( 0.767000000000001, -0.899999999999993, 3.89743505398102 ) );
#403 = CARTESIAN_POINT( '', ( 0.510490421567083, -0.899999999999993, 3.63417516651128 ) );
#404 = CARTESIAN_POINT( '', ( 0.254616510453990, -0.899999999999993, 3.37029893756074 ) );
#405 = CARTESIAN_POINT( '', ( 5.98544661405433E-16, -0.899999999999993, 3.10520353600211 ) );
#406 = CARTESIAN_POINT( '', ( 0.000000000000000, -0.899999999999993, -3.10520353600211 ) );
#407 = AXIS2_PLACEMENT_3D( '', #462, #463, #464 );
#408 = CARTESIAN_POINT( '', ( 1.07506289704327E-15, -0.899999999999993, -3.10520353600211 ) );
#409 = CARTESIAN_POINT( '', ( 0.254623855499882, -0.899999999999993, -3.37030658489628 ) );
#410 = CARTESIAN_POINT( '', ( 0.510496360619597, -0.899999999999993, -3.63418126185596 ) );
#411 = CARTESIAN_POINT( '', ( 0.767000000000001, -0.899999999999993, -3.89743505398102 ) );
#412 = COLOUR_RGB( '', 0.689999997600000, 0.689999997600000, 0.689999997600000 );
#413 = CARTESIAN_POINT( '', ( 0.000000000000000, -0.899999999999993, -10.5000000000000 ) );
#414 = VECTOR( '', #465, 1000.00000000000 );
#415 = COLOUR_RGB( '', 0.689999997600000, 0.689999997600000, 0.689999997600000 );
#416 = CARTESIAN_POINT( '', ( 49.0079778228192, 3.00000000000000, 0.000000000000000 ) );
#417 = AXIS2_PLACEMENT_3D( '', #466, #467, #468 );
#418 = COLOUR_RGB( '', 0.689999997600000, 0.689999997600000, 0.689999997600000 );
#419 = CARTESIAN_POINT( '', ( 47.0000000000000, 3.00000000000000, 0.000000000000000 ) );
#420 = AXIS2_PLACEMENT_3D( '', #469, #470, #471 );
#421 = COLOUR_RGB( '', 0.689999997600000, 0.689999997600000, 0.689999997600000 );
#422 = CARTESIAN_POINT( '', ( 42.5000000000000, 4.00000000000000, 0.000000000000000 ) );
#423 = AXIS2_PLACEMENT_3D( '', #472, #473, #474 );
#424 = CARTESIAN_POINT( '', ( 50.0000000000000, -0.899999999999993, -3.89743505398102 ) );
#425 = VECTOR( '', #475, 1000.00000000000 );
#426 = CARTESIAN_POINT( '', ( 50.0000000000000, 0.900000000000007, -3.89743505398101 ) );
#427 = VECTOR( '', #476, 1000.00000000000 );
#428 = CARTESIAN_POINT( '', ( 50.0000000000000, 0.900000000000007, 3.89743505398101 ) );
#429 = VECTOR( '', #477, 1000.00000000000 );
#430 = CARTESIAN_POINT( '', ( 50.0000000000000, -0.899999999999993, 3.89743505398102 ) );
#431 = VECTOR( '', #478, 1000.00000000000 );
#432 = COLOUR_RGB( '', 0.689999997600000, 0.689999997600000, 0.689999997600000 );
#433 = CARTESIAN_POINT( '', ( 0.000000000000000, 0.900000000000007, 10.5000000000000 ) );
#434 = VECTOR( '', #479, 1000.00000000000 );
#435 = COLOUR_RGB( '', 0.689999997600000, 0.689999997600000, 0.689999997600000 );
#436 = COLOUR_RGB( '', 0.689999997600000, 0.689999997600000, 0.689999997600000 );
#437 = COLOUR_RGB( '', 0.689999997600000, 0.689999997600000, 0.689999997600000 );
#438 = COLOUR_RGB( '', 0.689999997600000, 0.689999997600000, 0.689999997600000 );
#439 = CARTESIAN_POINT( '', ( 0.000000000000000, 6.61433067666888E-15, 0.000000000000000 ) );
#440 = DIRECTION( '', ( 1.00000000000000, -6.12323399573676E-17, -0.000000000000000 ) );
#441 = DIRECTION( '', ( 6.12323399573676E-17, 1.00000000000000, 0.000000000000000 ) );
#442 = CARTESIAN_POINT( '', ( 0.766999999999997, 6.56736547192158E-15, 0.000000000000000 ) );
#443 = DIRECTION( '', ( 1.00000000000000, -6.12323399573676E-17, -0.000000000000000 ) );
#444 = DIRECTION( '', ( 6.12323399573676E-17, 1.00000000000000, 0.000000000000000 ) );
#445 = CARTESIAN_POINT( '', ( 47.0000000000000, 3.73641069867260E-15, 0.000000000000000 ) );
#446 = DIRECTION( '', ( 1.00000000000000, -6.12323399573676E-17, -0.000000000000000 ) );
#447 = DIRECTION( '', ( 6.12323399573676E-17, 1.00000000000000, 0.000000000000000 ) );
#448 = CARTESIAN_POINT( '', ( 43.2217250000000, 3.96776331792503E-15, 0.000000000000000 ) );
#449 = DIRECTION( '', ( 1.00000000000000, -6.12323399573676E-17, -0.000000000000000 ) );
#450 = DIRECTION( '', ( 6.12323399573676E-17, 1.00000000000000, 0.000000000000000 ) );
#451 = CARTESIAN_POINT( '', ( 3.00000000000000, 6.43063365679678E-15, 0.000000000000000 ) );
#452 = DIRECTION( '', ( -1.00000000000000, 0.000000000000000, 0.000000000000000 ) );
#453 = DIRECTION( '', ( 0.000000000000000, 0.000000000000000, 1.00000000000000 ) );
#454 = DIRECTION( '', ( 0.000000000000000, 0.000000000000000, 1.00000000000000 ) );
#455 = CARTESIAN_POINT( '', ( 3.00000000000000, 6.43063365679678E-15, 0.000000000000000 ) );
#456 = DIRECTION( '', ( -1.00000000000000, 0.000000000000000, 0.000000000000000 ) );
#457 = DIRECTION( '', ( 0.000000000000000, 0.000000000000000, 1.00000000000000 ) );
#458 = DIRECTION( '', ( 0.000000000000000, 0.000000000000000, -1.00000000000000 ) );
#459 = CARTESIAN_POINT( '', ( 0.766999999999997, 6.56736547192158E-15, 0.000000000000000 ) );
#460 = DIRECTION( '', ( 1.00000000000000, -6.12323399573676E-17, -0.000000000000000 ) );
#461 = DIRECTION( '', ( 6.12323399573676E-17, 1.00000000000000, 0.000000000000000 ) );
#462 = CARTESIAN_POINT( '', ( 0.000000000000000, 6.61433067666888E-15, 0.000000000000000 ) );
#463 = DIRECTION( '', ( 1.00000000000000, -6.12323399573676E-17, -0.000000000000000 ) );
#464 = DIRECTION( '', ( 6.12323399573676E-17, 1.00000000000000, 0.000000000000000 ) );
#465 = DIRECTION( '', ( 0.000000000000000, 0.000000000000000, 1.00000000000000 ) );
#466 = CARTESIAN_POINT( '', ( 49.0079778228192, 3.61345751799888E-15, 0.000000000000000 ) );
#467 = DIRECTION( '', ( 1.00000000000000, -6.12323399573676E-17, -0.000000000000000 ) );
#468 = DIRECTION( '', ( 6.12323399573677E-17, 1.00000000000000, 0.000000000000000 ) );
#469 = CARTESIAN_POINT( '', ( 47.0000000000000, 3.73641069867260E-15, 0.000000000000000 ) );
#470 = DIRECTION( '', ( 1.00000000000000, -6.12323399573676E-17, -0.000000000000000 ) );
#471 = DIRECTION( '', ( 6.12323399573677E-17, 1.00000000000000, 0.000000000000000 ) );
#472 = CARTESIAN_POINT( '', ( 42.5000000000000, 4.01195622848076E-15, 0.000000000000000 ) );
#473 = DIRECTION( '', ( 1.00000000000000, -6.12323399573676E-17, -0.000000000000000 ) );
#474 = DIRECTION( '', ( 6.12323399573676E-17, 1.00000000000000, 0.000000000000000 ) );
#475 = DIRECTION( '', ( 1.00000000000000, -6.12323399573676E-17, -0.000000000000000 ) );
#476 = DIRECTION( '', ( 1.00000000000000, -6.12323399573676E-17, -0.000000000000000 ) );
#477 = DIRECTION( '', ( 1.00000000000000, -6.12323399573676E-17, -0.000000000000000 ) );
#478 = DIRECTION( '', ( 1.00000000000000, -6.12323399573676E-17, -0.000000000000000 ) );
#479 = DIRECTION( '', ( 0.000000000000000, 0.000000000000000, -1.00000000000000 ) );
ENDSEC;
END-ISO-10303-21;
