ISO-10303-21;
HEADER;
FILE_DESCRIPTION( ( 'STEP AP214' ), '1' );
FILE_NAME( '//goodhand-server/Shared Folders/GoodHand Data/Kipp CAD/K0179/K0179.610X50.stp', '2020-11-26T11:24:23', ( '' ), ( '' ), ' ', 'PARTsolutions', ' ' );
FILE_SCHEMA( ( 'AUTOMOTIVE_DESIGN { 1 0 10303 214 1 1 1 1 }' ) );
ENDSEC;
DATA;
#1 = MECHANICAL_DESIGN_GEOMETRIC_PRESENTATION_REPRESENTATION( ' ', ( #10, #11, #12, #13, #14, #15, #16, #17, #18 ), #6 );
#2 = PRODUCT_DEFINITION_CONTEXT( '', #19, 'design' );
#3 = APPLICATION_PROTOCOL_DEFINITION( 'international standard', 'automotive_design', 2001, #19 );
#4 = PRODUCT_CATEGORY_RELATIONSHIP( 'NONE', 'NONE', #20, #21 );
#5 = SHAPE_DEFINITION_REPRESENTATION( #22, #23 );
#6 =  ( GEOMETRIC_REPRESENTATION_CONTEXT( 3 )GLOBAL_UNCERTAINTY_ASSIGNED_CONTEXT( ( #26 ) )GLOBAL_UNIT_ASSIGNED_CONTEXT( ( #28, #29, #30 ) )REPRESENTATION_CONTEXT( 'NONE', 'WORKSPACE' ) );
#10 = STYLED_ITEM( '', ( #32 ), #33 );
#11 = STYLED_ITEM( '', ( #34 ), #35 );
#12 = STYLED_ITEM( '', ( #36 ), #37 );
#13 = STYLED_ITEM( '', ( #38 ), #39 );
#14 = STYLED_ITEM( '', ( #40 ), #41 );
#15 = STYLED_ITEM( '', ( #42 ), #43 );
#16 = STYLED_ITEM( '', ( #44 ), #45 );
#17 = STYLED_ITEM( '', ( #46 ), #47 );
#18 = STYLED_ITEM( '', ( #48 ), #49 );
#19 = APPLICATION_CONTEXT( 'core data for automotive mechanical design processes' );
#20 = PRODUCT_CATEGORY( 'part', 'NONE' );
#21 = PRODUCT_RELATED_PRODUCT_CATEGORY( 'detail', ' ', ( #50 ) );
#22 = PRODUCT_DEFINITION_SHAPE( 'NONE', 'NONE', #51 );
#23 = ADVANCED_BREP_SHAPE_REPRESENTATION( '_K0179.610X50', ( #52, #53 ), #6 );
#26 = UNCERTAINTY_MEASURE_WITH_UNIT( LENGTH_MEASURE( 0.00100000000000000 ), #28, '', '' );
#28 =  ( CONVERSION_BASED_UNIT( 'MILLIMETRE', #56 )LENGTH_UNIT(  )NAMED_UNIT( #59 ) );
#29 =  ( NAMED_UNIT( #61 )PLANE_ANGLE_UNIT(  )SI_UNIT( $, .RADIAN. ) );
#30 =  ( NAMED_UNIT( #61 )SI_UNIT( $, .STERADIAN. )SOLID_ANGLE_UNIT(  ) );
#32 = PRESENTATION_STYLE_ASSIGNMENT( ( #67 ) );
#33 = ADVANCED_FACE( '', ( #68, #69 ), #70, .T. );
#34 = PRESENTATION_STYLE_ASSIGNMENT( ( #71 ) );
#35 = ADVANCED_FACE( '', ( #72, #73 ), #74, .F. );
#36 = PRESENTATION_STYLE_ASSIGNMENT( ( #75 ) );
#37 = ADVANCED_FACE( '', ( #76, #77 ), #78, .T. );
#38 = PRESENTATION_STYLE_ASSIGNMENT( ( #79 ) );
#39 = ADVANCED_FACE( '', ( #80, #81 ), #82, .T. );
#40 = PRESENTATION_STYLE_ASSIGNMENT( ( #83 ) );
#41 = ADVANCED_FACE( '', ( #84, #85 ), #86, .T. );
#42 = PRESENTATION_STYLE_ASSIGNMENT( ( #87 ) );
#43 = ADVANCED_FACE( '', ( #88, #89 ), #90, .T. );
#44 = PRESENTATION_STYLE_ASSIGNMENT( ( #91 ) );
#45 = ADVANCED_FACE( '', ( #92 ), #93, .F. );
#46 = PRESENTATION_STYLE_ASSIGNMENT( ( #94 ) );
#47 = ADVANCED_FACE( '', ( #95, #96 ), #97, .F. );
#48 = PRESENTATION_STYLE_ASSIGNMENT( ( #98 ) );
#49 = ADVANCED_FACE( '', ( #99, #100 ), #101, .T. );
#50 = PRODUCT( '_K0179.610X50', '_K0179.610X50', 'PART-_K0179.610X50-DESC', ( #102 ) );
#51 = PRODUCT_DEFINITION( 'NONE', 'NONE', #103, #2 );
#52 = MANIFOLD_SOLID_BREP( '_K0179.610X50', #104 );
#53 = AXIS2_PLACEMENT_3D( '', #105, #106, #107 );
#56 = LENGTH_MEASURE_WITH_UNIT( LENGTH_MEASURE( 1.00000000000000 ), #108 );
#59 = DIMENSIONAL_EXPONENTS( 1.00000000000000, 0.000000000000000, 0.000000000000000, 0.000000000000000, 0.000000000000000, 0.000000000000000, 0.000000000000000 );
#61 = DIMENSIONAL_EXPONENTS( 0.000000000000000, 0.000000000000000, 0.000000000000000, 0.000000000000000, 0.000000000000000, 0.000000000000000, 0.000000000000000 );
#67 = SURFACE_STYLE_USAGE( .BOTH., #109 );
#68 = FACE_BOUND( '', #110, .T. );
#69 = FACE_OUTER_BOUND( '', #111, .T. );
#70 = SPHERICAL_SURFACE( '', #112, 61.0000000000000 );
#71 = SURFACE_STYLE_USAGE( .BOTH., #113 );
#72 = FACE_BOUND( '', #114, .T. );
#73 = FACE_OUTER_BOUND( '', #115, .T. );
#74 = PLANE( '', #116 );
#75 = SURFACE_STYLE_USAGE( .BOTH., #117 );
#76 = FACE_BOUND( '', #118, .T. );
#77 = FACE_OUTER_BOUND( '', #119, .T. );
#78 = CONICAL_SURFACE( '', #120, 11.5000000000000, 0.0846334138000000 );
#79 = SURFACE_STYLE_USAGE( .BOTH., #121 );
#80 = FACE_BOUND( '', #122, .T. );
#81 = FACE_OUTER_BOUND( '', #123, .T. );
#82 = CONICAL_SURFACE( '', #124, 4.00000000000000, 0.785398163400000 );
#83 = SURFACE_STYLE_USAGE( .BOTH., #125 );
#84 = FACE_OUTER_BOUND( '', #126, .T. );
#85 = FACE_OUTER_BOUND( '', #127, .T. );
#86 = CYLINDRICAL_SURFACE( '', #128, 11.5000000000000 );
#87 = SURFACE_STYLE_USAGE( .BOTH., #129 );
#88 = FACE_OUTER_BOUND( '', #130, .T. );
#89 = FACE_OUTER_BOUND( '', #131, .T. );
#90 = CYLINDRICAL_SURFACE( '', #132, 5.00000000000000 );
#91 = SURFACE_STYLE_USAGE( .BOTH., #133 );
#92 = FACE_OUTER_BOUND( '', #134, .T. );
#93 = PLANE( '', #135 );
#94 = SURFACE_STYLE_USAGE( .BOTH., #136 );
#95 = FACE_BOUND( '', #137, .T. );
#96 = FACE_OUTER_BOUND( '', #138, .T. );
#97 = PLANE( '', #139 );
#98 = SURFACE_STYLE_USAGE( .BOTH., #140 );
#99 = FACE_OUTER_BOUND( '', #141, .T. );
#100 = FACE_OUTER_BOUND( '', #142, .T. );
#101 = CYLINDRICAL_SURFACE( '', #143, 4.00000000000000 );
#102 = PRODUCT_CONTEXT( '', #19, 'mechanical' );
#103 = PRODUCT_DEFINITION_FORMATION_WITH_SPECIFIED_SOURCE( ' ', 'NONE', #50, .NOT_KNOWN. );
#104 = CLOSED_SHELL( '', ( #39, #49, #47, #43, #35, #37, #41, #33, #45 ) );
#105 = CARTESIAN_POINT( '', ( 0.000000000000000, 0.000000000000000, 0.000000000000000 ) );
#106 = DIRECTION( '', ( 0.000000000000000, 0.000000000000000, 1.00000000000000 ) );
#107 = DIRECTION( '', ( 1.00000000000000, 0.000000000000000, 0.000000000000000 ) );
#108 =  ( LENGTH_UNIT(  )NAMED_UNIT( #59 )SI_UNIT( .MILLI., .METRE. ) );
#109 = SURFACE_SIDE_STYLE( '', ( #145 ) );
#110 = VERTEX_LOOP( '', #146 );
#111 = EDGE_LOOP( '', ( #147 ) );
#112 = AXIS2_PLACEMENT_3D( '', #148, #149, #150 );
#113 = SURFACE_SIDE_STYLE( '', ( #151 ) );
#114 = EDGE_LOOP( '', ( #152 ) );
#115 = EDGE_LOOP( '', ( #153 ) );
#116 = AXIS2_PLACEMENT_3D( '', #154, #155, #156 );
#117 = SURFACE_SIDE_STYLE( '', ( #157 ) );
#118 = EDGE_LOOP( '', ( #158 ) );
#119 = EDGE_LOOP( '', ( #159 ) );
#120 = AXIS2_PLACEMENT_3D( '', #160, #161, #162 );
#121 = SURFACE_SIDE_STYLE( '', ( #163 ) );
#122 = EDGE_LOOP( '', ( #164 ) );
#123 = EDGE_LOOP( '', ( #165 ) );
#124 = AXIS2_PLACEMENT_3D( '', #166, #167, #168 );
#125 = SURFACE_SIDE_STYLE( '', ( #169 ) );
#126 = EDGE_LOOP( '', ( #170 ) );
#127 = EDGE_LOOP( '', ( #171 ) );
#128 = AXIS2_PLACEMENT_3D( '', #172, #173, #174 );
#129 = SURFACE_SIDE_STYLE( '', ( #175 ) );
#130 = EDGE_LOOP( '', ( #176 ) );
#131 = EDGE_LOOP( '', ( #177 ) );
#132 = AXIS2_PLACEMENT_3D( '', #178, #179, #180 );
#133 = SURFACE_SIDE_STYLE( '', ( #181 ) );
#134 = EDGE_LOOP( '', ( #182 ) );
#135 = AXIS2_PLACEMENT_3D( '', #183, #184, #185 );
#136 = SURFACE_SIDE_STYLE( '', ( #186 ) );
#137 = EDGE_LOOP( '', ( #187 ) );
#138 = EDGE_LOOP( '', ( #188 ) );
#139 = AXIS2_PLACEMENT_3D( '', #189, #190, #191 );
#140 = SURFACE_SIDE_STYLE( '', ( #192 ) );
#141 = EDGE_LOOP( '', ( #193 ) );
#142 = EDGE_LOOP( '', ( #194 ) );
#143 = AXIS2_PLACEMENT_3D( '', #195, #196, #197 );
#145 = SURFACE_STYLE_FILL_AREA( #198 );
#146 = VERTEX_POINT( '', #199 );
#147 = ORIENTED_EDGE( '', *, *, #200, .F. );
#148 = CARTESIAN_POINT( '', ( 60.9999999999988, 3.90312782094782E-14, 0.000000000000000 ) );
#149 = DIRECTION( '', ( 1.00000000000000, 0.000000000000000, 0.000000000000000 ) );
#150 = DIRECTION( '', ( 0.000000000000000, 1.00000000000000, 0.000000000000000 ) );
#151 = SURFACE_STYLE_FILL_AREA( #201 );
#152 = ORIENTED_EDGE( '', *, *, #202, .F. );
#153 = ORIENTED_EDGE( '', *, *, #203, .T. );
#154 = CARTESIAN_POINT( '', ( 61.0000000000000, 8.05000000000000, 0.000000000000000 ) );
#155 = DIRECTION( '', ( -1.00000000000000, 0.000000000000000, 0.000000000000000 ) );
#156 = DIRECTION( '', ( 0.000000000000000, 0.000000000000000, 1.00000000000000 ) );
#157 = SURFACE_STYLE_FILL_AREA( #204 );
#158 = ORIENTED_EDGE( '', *, *, #203, .F. );
#159 = ORIENTED_EDGE( '', *, *, #205, .T. );
#160 = CARTESIAN_POINT( '', ( 20.3333333333333, 0.000000000000000, 0.000000000000000 ) );
#161 = DIRECTION( '', ( -1.00000000000000, 0.000000000000000, -0.000000000000000 ) );
#162 = DIRECTION( '', ( 0.000000000000000, 0.000000000000000, 1.00000000000000 ) );
#163 = SURFACE_STYLE_FILL_AREA( #206 );
#164 = ORIENTED_EDGE( '', *, *, #207, .F. );
#165 = ORIENTED_EDGE( '', *, *, #208, .T. );
#166 = CARTESIAN_POINT( '', ( 123.233000000000, 0.000000000000000, 0.000000000000000 ) );
#167 = DIRECTION( '', ( -1.00000000000000, 0.000000000000000, -0.000000000000000 ) );
#168 = DIRECTION( '', ( 0.000000000000000, 0.000000000000000, 1.00000000000000 ) );
#169 = SURFACE_STYLE_FILL_AREA( #209 );
#170 = ORIENTED_EDGE( '', *, *, #205, .F. );
#171 = ORIENTED_EDGE( '', *, *, #200, .T. );
#172 = CARTESIAN_POINT( '', ( 124.000000000000, 0.000000000000000, 0.000000000000000 ) );
#173 = DIRECTION( '', ( -1.00000000000000, -0.000000000000000, 0.000000000000000 ) );
#174 = DIRECTION( '', ( -0.000000000000000, 0.000000000000000, -1.00000000000000 ) );
#175 = SURFACE_STYLE_FILL_AREA( #210 );
#176 = ORIENTED_EDGE( '', *, *, #211, .F. );
#177 = ORIENTED_EDGE( '', *, *, #202, .T. );
#178 = CARTESIAN_POINT( '', ( 124.000000000000, 0.000000000000000, 0.000000000000000 ) );
#179 = DIRECTION( '', ( -1.00000000000000, -0.000000000000000, 0.000000000000000 ) );
#180 = DIRECTION( '', ( -0.000000000000000, 0.000000000000000, -1.00000000000000 ) );
#181 = SURFACE_STYLE_FILL_AREA( #212 );
#182 = ORIENTED_EDGE( '', *, *, #207, .T. );
#183 = CARTESIAN_POINT( '', ( 124.000000000000, 3.23300000000000, 0.000000000000000 ) );
#184 = DIRECTION( '', ( -1.00000000000000, 0.000000000000000, 0.000000000000000 ) );
#185 = DIRECTION( '', ( 0.000000000000000, 0.000000000000000, 1.00000000000000 ) );
#186 = SURFACE_STYLE_FILL_AREA( #213 );
#187 = ORIENTED_EDGE( '', *, *, #214, .F. );
#188 = ORIENTED_EDGE( '', *, *, #211, .T. );
#189 = CARTESIAN_POINT( '', ( 111.000000000000, 5.00000000000000, 0.000000000000000 ) );
#190 = DIRECTION( '', ( -1.00000000000000, 0.000000000000000, 0.000000000000000 ) );
#191 = DIRECTION( '', ( 0.000000000000000, 0.000000000000000, 1.00000000000000 ) );
#192 = SURFACE_STYLE_FILL_AREA( #215 );
#193 = ORIENTED_EDGE( '', *, *, #208, .F. );
#194 = ORIENTED_EDGE( '', *, *, #214, .T. );
#195 = CARTESIAN_POINT( '', ( 124.000000000000, 0.000000000000000, 0.000000000000000 ) );
#196 = DIRECTION( '', ( -1.00000000000000, -0.000000000000000, 0.000000000000000 ) );
#197 = DIRECTION( '', ( -0.000000000000000, 0.000000000000000, -1.00000000000000 ) );
#198 = FILL_AREA_STYLE( '', ( #216 ) );
#199 = CARTESIAN_POINT( '', ( 0.000000000000000, 4.27664509468775E-14, 0.000000000000000 ) );
#200 = EDGE_CURVE( '', #217, #217, #218, .T. );
#201 = FILL_AREA_STYLE( '', ( #219 ) );
#202 = EDGE_CURVE( '', #220, #220, #221, .T. );
#203 = EDGE_CURVE( '', #222, #222, #223, .T. );
#204 = FILL_AREA_STYLE( '', ( #224 ) );
#205 = EDGE_CURVE( '', #225, #225, #226, .T. );
#206 = FILL_AREA_STYLE( '', ( #227 ) );
#207 = EDGE_CURVE( '', #228, #228, #229, .T. );
#208 = EDGE_CURVE( '', #230, #230, #231, .T. );
#209 = FILL_AREA_STYLE( '', ( #232 ) );
#210 = FILL_AREA_STYLE( '', ( #233 ) );
#211 = EDGE_CURVE( '', #234, #234, #235, .T. );
#212 = FILL_AREA_STYLE( '', ( #236 ) );
#213 = FILL_AREA_STYLE( '', ( #237 ) );
#214 = EDGE_CURVE( '', #238, #238, #239, .T. );
#215 = FILL_AREA_STYLE( '', ( #240 ) );
#216 = FILL_AREA_STYLE_COLOUR( '', #241 );
#217 = VERTEX_POINT( '', #242 );
#218 = CIRCLE( '', #243, 11.5000000000000 );
#219 = FILL_AREA_STYLE_COLOUR( '', #244 );
#220 = VERTEX_POINT( '', #245 );
#221 = CIRCLE( '', #246, 5.00000000000000 );
#222 = VERTEX_POINT( '', #247 );
#223 = CIRCLE( '', #248, 8.05000000000000 );
#224 = FILL_AREA_STYLE_COLOUR( '', #249 );
#225 = VERTEX_POINT( '', #250 );
#226 = CIRCLE( '', #251, 11.5000000000000 );
#227 = FILL_AREA_STYLE_COLOUR( '', #252 );
#228 = VERTEX_POINT( '', #253 );
#229 = CIRCLE( '', #254, 3.23300000000000 );
#230 = VERTEX_POINT( '', #255 );
#231 = CIRCLE( '', #256, 4.00000000000000 );
#232 = FILL_AREA_STYLE_COLOUR( '', #257 );
#233 = FILL_AREA_STYLE_COLOUR( '', #258 );
#234 = VERTEX_POINT( '', #259 );
#235 = CIRCLE( '', #260, 5.00000000000000 );
#236 = FILL_AREA_STYLE_COLOUR( '', #261 );
#237 = FILL_AREA_STYLE_COLOUR( '', #262 );
#238 = VERTEX_POINT( '', #263 );
#239 = CIRCLE( '', #264, 4.00000000000000 );
#240 = FILL_AREA_STYLE_COLOUR( '', #265 );
#241 = COLOUR_RGB( '', 0.689999997600000, 0.689999997600000, 0.689999997600000 );
#242 = CARTESIAN_POINT( '', ( 1.09382335685243, 0.000000000000000, -11.5000000000000 ) );
#243 = AXIS2_PLACEMENT_3D( '', #266, #267, #268 );
#244 = COLOUR_RGB( '', 0.689999997600000, 0.689999997600000, 0.689999997600000 );
#245 = CARTESIAN_POINT( '', ( 61.0000000000000, 0.000000000000000, -5.00000000000000 ) );
#246 = AXIS2_PLACEMENT_3D( '', #269, #270, #271 );
#247 = CARTESIAN_POINT( '', ( 61.0000000000000, 0.000000000000000, -8.05000000000000 ) );
#248 = AXIS2_PLACEMENT_3D( '', #272, #273, #274 );
#249 = COLOUR_RGB( '', 0.689999997600000, 0.689999997600000, 0.689999997600000 );
#250 = CARTESIAN_POINT( '', ( 20.3333333333333, 0.000000000000000, -11.5000000000000 ) );
#251 = AXIS2_PLACEMENT_3D( '', #275, #276, #277 );
#252 = COLOUR_RGB( '', 0.689999997600000, 0.689999997600000, 0.689999997600000 );
#253 = CARTESIAN_POINT( '', ( 124.000000000000, 0.000000000000000, -3.23300000000000 ) );
#254 = AXIS2_PLACEMENT_3D( '', #278, #279, #280 );
#255 = CARTESIAN_POINT( '', ( 123.233000000000, 0.000000000000000, -4.00000000000000 ) );
#256 = AXIS2_PLACEMENT_3D( '', #281, #282, #283 );
#257 = COLOUR_RGB( '', 0.689999997600000, 0.689999997600000, 0.689999997600000 );
#258 = COLOUR_RGB( '', 0.689999997600000, 0.689999997600000, 0.689999997600000 );
#259 = CARTESIAN_POINT( '', ( 111.000000000000, 0.000000000000000, -5.00000000000000 ) );
#260 = AXIS2_PLACEMENT_3D( '', #284, #285, #286 );
#261 = COLOUR_RGB( '', 0.689999997600000, 0.689999997600000, 0.689999997600000 );
#262 = COLOUR_RGB( '', 0.689999997600000, 0.689999997600000, 0.689999997600000 );
#263 = CARTESIAN_POINT( '', ( 111.000000000000, 0.000000000000000, -4.00000000000000 ) );
#264 = AXIS2_PLACEMENT_3D( '', #287, #288, #289 );
#265 = COLOUR_RGB( '', 0.689999997600000, 0.689999997600000, 0.689999997600000 );
#266 = CARTESIAN_POINT( '', ( 1.09382335685243, 0.000000000000000, 0.000000000000000 ) );
#267 = DIRECTION( '', ( 1.00000000000000, 0.000000000000000, -0.000000000000000 ) );
#268 = DIRECTION( '', ( -0.000000000000000, 0.000000000000000, -1.00000000000000 ) );
#269 = CARTESIAN_POINT( '', ( 61.0000000000000, 0.000000000000000, 0.000000000000000 ) );
#270 = DIRECTION( '', ( 1.00000000000000, 0.000000000000000, -0.000000000000000 ) );
#271 = DIRECTION( '', ( -0.000000000000000, 0.000000000000000, -1.00000000000000 ) );
#272 = CARTESIAN_POINT( '', ( 61.0000000000000, 0.000000000000000, 0.000000000000000 ) );
#273 = DIRECTION( '', ( 1.00000000000000, 0.000000000000000, -0.000000000000000 ) );
#274 = DIRECTION( '', ( -0.000000000000000, 0.000000000000000, -1.00000000000000 ) );
#275 = CARTESIAN_POINT( '', ( 20.3333333333333, 0.000000000000000, 0.000000000000000 ) );
#276 = DIRECTION( '', ( 1.00000000000000, 0.000000000000000, -0.000000000000000 ) );
#277 = DIRECTION( '', ( -0.000000000000000, 0.000000000000000, -1.00000000000000 ) );
#278 = CARTESIAN_POINT( '', ( 124.000000000000, 0.000000000000000, 0.000000000000000 ) );
#279 = DIRECTION( '', ( 1.00000000000000, 0.000000000000000, -0.000000000000000 ) );
#280 = DIRECTION( '', ( -0.000000000000000, 0.000000000000000, -1.00000000000000 ) );
#281 = CARTESIAN_POINT( '', ( 123.233000000000, 0.000000000000000, 0.000000000000000 ) );
#282 = DIRECTION( '', ( 1.00000000000000, 0.000000000000000, -0.000000000000000 ) );
#283 = DIRECTION( '', ( -0.000000000000000, 0.000000000000000, -1.00000000000000 ) );
#284 = CARTESIAN_POINT( '', ( 111.000000000000, 0.000000000000000, 0.000000000000000 ) );
#285 = DIRECTION( '', ( 1.00000000000000, 0.000000000000000, -0.000000000000000 ) );
#286 = DIRECTION( '', ( -0.000000000000000, 0.000000000000000, -1.00000000000000 ) );
#287 = CARTESIAN_POINT( '', ( 111.000000000000, 0.000000000000000, 0.000000000000000 ) );
#288 = DIRECTION( '', ( 1.00000000000000, 0.000000000000000, -0.000000000000000 ) );
#289 = DIRECTION( '', ( -0.000000000000000, 0.000000000000000, -1.00000000000000 ) );
ENDSEC;
END-ISO-10303-21;
