ISO-10303-21;
HEADER;
FILE_DESCRIPTION( ( 'STEP AP214' ), '1' );
FILE_NAME( '//goodhand-server/Shared Folders/GoodHand Data/Kipp CAD/K0391/K0391.10X50.stp', '2020-12-07T10:17:28', ( '' ), ( '' ), ' ', 'PARTsolutions', ' ' );
FILE_SCHEMA( ( 'AUTOMOTIVE_DESIGN { 1 0 10303 214 1 1 1 1 }' ) );
ENDSEC;
DATA;
#1 = MECHANICAL_DESIGN_GEOMETRIC_PRESENTATION_REPRESENTATION( ' ', ( #10, #11, #12, #13, #14, #15, #16, #17, #18, #19, #20, #21, #22 ), #6 );
#2 = PRODUCT_DEFINITION_CONTEXT( '', #23, 'design' );
#3 = APPLICATION_PROTOCOL_DEFINITION( 'international standard', 'automotive_design', 2001, #23 );
#4 = PRODUCT_CATEGORY_RELATIONSHIP( 'NONE', 'NONE', #24, #25 );
#5 = SHAPE_DEFINITION_REPRESENTATION( #26, #27 );
#6 =  ( GEOMETRIC_REPRESENTATION_CONTEXT( 3 )GLOBAL_UNCERTAINTY_ASSIGNED_CONTEXT( ( #30 ) )GLOBAL_UNIT_ASSIGNED_CONTEXT( ( #32, #33, #34 ) )REPRESENTATION_CONTEXT( 'NONE', 'WORKSPACE' ) );
#10 = STYLED_ITEM( '', ( #36 ), #37 );
#11 = STYLED_ITEM( '', ( #38 ), #39 );
#12 = STYLED_ITEM( '', ( #40 ), #41 );
#13 = STYLED_ITEM( '', ( #42 ), #43 );
#14 = STYLED_ITEM( '', ( #44 ), #45 );
#15 = STYLED_ITEM( '', ( #46 ), #47 );
#16 = STYLED_ITEM( '', ( #48 ), #49 );
#17 = STYLED_ITEM( '', ( #50 ), #51 );
#18 = STYLED_ITEM( '', ( #52 ), #53 );
#19 = STYLED_ITEM( '', ( #54 ), #55 );
#20 = STYLED_ITEM( '', ( #56 ), #57 );
#21 = STYLED_ITEM( '', ( #58 ), #59 );
#22 = STYLED_ITEM( '', ( #60 ), #61 );
#23 = APPLICATION_CONTEXT( 'core data for automotive mechanical design processes' );
#24 = PRODUCT_CATEGORY( 'part', 'NONE' );
#25 = PRODUCT_RELATED_PRODUCT_CATEGORY( 'detail', ' ', ( #62 ) );
#26 = PRODUCT_DEFINITION_SHAPE( 'NONE', 'NONE', #63 );
#27 = ADVANCED_BREP_SHAPE_REPRESENTATION( '_K0391.10X50', ( #64, #65 ), #6 );
#30 = UNCERTAINTY_MEASURE_WITH_UNIT( LENGTH_MEASURE( 0.00100000000000000 ), #32, '', '' );
#32 =  ( CONVERSION_BASED_UNIT( 'MILLIMETRE', #68 )LENGTH_UNIT(  )NAMED_UNIT( #71 ) );
#33 =  ( NAMED_UNIT( #73 )PLANE_ANGLE_UNIT(  )SI_UNIT( $, .RADIAN. ) );
#34 =  ( NAMED_UNIT( #73 )SI_UNIT( $, .STERADIAN. )SOLID_ANGLE_UNIT(  ) );
#36 = PRESENTATION_STYLE_ASSIGNMENT( ( #79 ) );
#37 = ADVANCED_FACE( '', ( #80 ), #81, .T. );
#38 = PRESENTATION_STYLE_ASSIGNMENT( ( #82 ) );
#39 = ADVANCED_FACE( '', ( #83, #84 ), #85, .T. );
#40 = PRESENTATION_STYLE_ASSIGNMENT( ( #86 ) );
#41 = ADVANCED_FACE( '', ( #87 ), #88, .T. );
#42 = PRESENTATION_STYLE_ASSIGNMENT( ( #89 ) );
#43 = ADVANCED_FACE( '', ( #90 ), #91, .F. );
#44 = PRESENTATION_STYLE_ASSIGNMENT( ( #92 ) );
#45 = ADVANCED_FACE( '', ( #93, #94 ), #95, .T. );
#46 = PRESENTATION_STYLE_ASSIGNMENT( ( #96 ) );
#47 = ADVANCED_FACE( '', ( #97 ), #98, .T. );
#48 = PRESENTATION_STYLE_ASSIGNMENT( ( #99 ) );
#49 = ADVANCED_FACE( '', ( #100 ), #101, .T. );
#50 = PRESENTATION_STYLE_ASSIGNMENT( ( #102 ) );
#51 = ADVANCED_FACE( '', ( #103, #104 ), #105, .T. );
#52 = PRESENTATION_STYLE_ASSIGNMENT( ( #106 ) );
#53 = ADVANCED_FACE( '', ( #107 ), #108, .T. );
#54 = PRESENTATION_STYLE_ASSIGNMENT( ( #109 ) );
#55 = ADVANCED_FACE( '', ( #110, #111 ), #112, .F. );
#56 = PRESENTATION_STYLE_ASSIGNMENT( ( #113 ) );
#57 = ADVANCED_FACE( '', ( #114, #115 ), #116, .T. );
#58 = PRESENTATION_STYLE_ASSIGNMENT( ( #117 ) );
#59 = ADVANCED_FACE( '', ( #118, #119 ), #120, .T. );
#60 = PRESENTATION_STYLE_ASSIGNMENT( ( #121 ) );
#61 = ADVANCED_FACE( '', ( #122 ), #123, .T. );
#62 = PRODUCT( '_K0391.10X50', '_K0391.10X50', 'PART-_K0391.10X50-DESC', ( #124 ) );
#63 = PRODUCT_DEFINITION( 'NONE', 'NONE', #125, #2 );
#64 = MANIFOLD_SOLID_BREP( '_K0391.10X50', #126 );
#65 = AXIS2_PLACEMENT_3D( '', #127, #128, #129 );
#68 = LENGTH_MEASURE_WITH_UNIT( LENGTH_MEASURE( 1.00000000000000 ), #130 );
#71 = DIMENSIONAL_EXPONENTS( 1.00000000000000, 0.000000000000000, 0.000000000000000, 0.000000000000000, 0.000000000000000, 0.000000000000000, 0.000000000000000 );
#73 = DIMENSIONAL_EXPONENTS( 0.000000000000000, 0.000000000000000, 0.000000000000000, 0.000000000000000, 0.000000000000000, 0.000000000000000, 0.000000000000000 );
#79 = SURFACE_STYLE_USAGE( .BOTH., #131 );
#80 = FACE_OUTER_BOUND( '', #132, .T. );
#81 = PLANE( '', #133 );
#82 = SURFACE_STYLE_USAGE( .BOTH., #134 );
#83 = FACE_BOUND( '', #135, .T. );
#84 = FACE_OUTER_BOUND( '', #136, .T. );
#85 = SPHERICAL_SURFACE( '', #137, 4.00000000000000 );
#86 = SURFACE_STYLE_USAGE( .BOTH., #138 );
#87 = FACE_OUTER_BOUND( '', #139, .T. );
#88 = PLANE( '', #140 );
#89 = SURFACE_STYLE_USAGE( .BOTH., #141 );
#90 = FACE_OUTER_BOUND( '', #142, .T. );
#91 = PLANE( '', #143 );
#92 = SURFACE_STYLE_USAGE( .BOTH., #144 );
#93 = FACE_OUTER_BOUND( '', #145, .T. );
#94 = FACE_OUTER_BOUND( '', #146, .T. );
#95 = CYLINDRICAL_SURFACE( '', #147, 3.25000000000000 );
#96 = SURFACE_STYLE_USAGE( .BOTH., #148 );
#97 = FACE_OUTER_BOUND( '', #149, .T. );
#98 = PLANE( '', #150 );
#99 = SURFACE_STYLE_USAGE( .BOTH., #151 );
#100 = FACE_OUTER_BOUND( '', #152, .T. );
#101 = PLANE( '', #153 );
#102 = SURFACE_STYLE_USAGE( .BOTH., #154 );
#103 = FACE_BOUND( '', #155, .T. );
#104 = FACE_OUTER_BOUND( '', #156, .T. );
#105 = CONICAL_SURFACE( '', #157, 5.00000000000000, 0.771314587600000 );
#106 = SURFACE_STYLE_USAGE( .BOTH., #158 );
#107 = FACE_OUTER_BOUND( '', #159, .T. );
#108 = PLANE( '', #160 );
#109 = SURFACE_STYLE_USAGE( .BOTH., #161 );
#110 = FACE_OUTER_BOUND( '', #162, .T. );
#111 = FACE_BOUND( '', #163, .T. );
#112 = PLANE( '', #164 );
#113 = SURFACE_STYLE_USAGE( .BOTH., #165 );
#114 = FACE_OUTER_BOUND( '', #166, .T. );
#115 = FACE_OUTER_BOUND( '', #167, .T. );
#116 = CYLINDRICAL_SURFACE( '', #168, 5.00000000000000 );
#117 = SURFACE_STYLE_USAGE( .BOTH., #169 );
#118 = FACE_OUTER_BOUND( '', #170, .T. );
#119 = FACE_BOUND( '', #171, .T. );
#120 = CONICAL_SURFACE( '', #172, 4.08000000000000, 0.785398163400000 );
#121 = SURFACE_STYLE_USAGE( .BOTH., #173 );
#122 = FACE_OUTER_BOUND( '', #174, .T. );
#123 = PLANE( '', #175 );
#124 = PRODUCT_CONTEXT( '', #23, 'mechanical' );
#125 = PRODUCT_DEFINITION_FORMATION_WITH_SPECIFIED_SOURCE( ' ', 'NONE', #62, .NOT_KNOWN. );
#126 = CLOSED_SHELL( '', ( #59, #55, #37, #53, #49, #39, #45, #51, #57, #61, #41, #47, #43 ) );
#127 = CARTESIAN_POINT( '', ( 0.000000000000000, 0.000000000000000, 0.000000000000000 ) );
#128 = DIRECTION( '', ( 0.000000000000000, 0.000000000000000, 1.00000000000000 ) );
#129 = DIRECTION( '', ( 1.00000000000000, 0.000000000000000, 0.000000000000000 ) );
#130 =  ( LENGTH_UNIT(  )NAMED_UNIT( #71 )SI_UNIT( .MILLI., .METRE. ) );
#131 = SURFACE_SIDE_STYLE( '', ( #177 ) );
#132 = EDGE_LOOP( '', ( #178, #179, #180, #181 ) );
#133 = AXIS2_PLACEMENT_3D( '', #182, #183, #184 );
#134 = SURFACE_SIDE_STYLE( '', ( #185 ) );
#135 = VERTEX_LOOP( '', #186 );
#136 = EDGE_LOOP( '', ( #187 ) );
#137 = AXIS2_PLACEMENT_3D( '', #188, #189, #190 );
#138 = SURFACE_SIDE_STYLE( '', ( #191 ) );
#139 = EDGE_LOOP( '', ( #192, #193, #194, #195 ) );
#140 = AXIS2_PLACEMENT_3D( '', #196, #197, #198 );
#141 = SURFACE_SIDE_STYLE( '', ( #199 ) );
#142 = EDGE_LOOP( '', ( #200, #201, #202, #203, #204, #205 ) );
#143 = AXIS2_PLACEMENT_3D( '', #206, #207, #208 );
#144 = SURFACE_SIDE_STYLE( '', ( #209 ) );
#145 = EDGE_LOOP( '', ( #210 ) );
#146 = EDGE_LOOP( '', ( #211 ) );
#147 = AXIS2_PLACEMENT_3D( '', #212, #213, #214 );
#148 = SURFACE_SIDE_STYLE( '', ( #215 ) );
#149 = EDGE_LOOP( '', ( #216, #217, #218, #219 ) );
#150 = AXIS2_PLACEMENT_3D( '', #220, #221, #222 );
#151 = SURFACE_SIDE_STYLE( '', ( #223 ) );
#152 = EDGE_LOOP( '', ( #224, #225, #226, #227 ) );
#153 = AXIS2_PLACEMENT_3D( '', #228, #229, #230 );
#154 = SURFACE_SIDE_STYLE( '', ( #231 ) );
#155 = EDGE_LOOP( '', ( #232 ) );
#156 = EDGE_LOOP( '', ( #233 ) );
#157 = AXIS2_PLACEMENT_3D( '', #234, #235, #236 );
#158 = SURFACE_SIDE_STYLE( '', ( #237 ) );
#159 = EDGE_LOOP( '', ( #238, #239, #240, #241 ) );
#160 = AXIS2_PLACEMENT_3D( '', #242, #243, #244 );
#161 = SURFACE_SIDE_STYLE( '', ( #245 ) );
#162 = EDGE_LOOP( '', ( #246 ) );
#163 = EDGE_LOOP( '', ( #247, #248, #249, #250, #251, #252 ) );
#164 = AXIS2_PLACEMENT_3D( '', #253, #254, #255 );
#165 = SURFACE_SIDE_STYLE( '', ( #256 ) );
#166 = EDGE_LOOP( '', ( #257 ) );
#167 = EDGE_LOOP( '', ( #258 ) );
#168 = AXIS2_PLACEMENT_3D( '', #259, #260, #261 );
#169 = SURFACE_SIDE_STYLE( '', ( #262 ) );
#170 = EDGE_LOOP( '', ( #263 ) );
#171 = EDGE_LOOP( '', ( #264 ) );
#172 = AXIS2_PLACEMENT_3D( '', #265, #266, #267 );
#173 = SURFACE_SIDE_STYLE( '', ( #268 ) );
#174 = EDGE_LOOP( '', ( #269, #270, #271, #272 ) );
#175 = AXIS2_PLACEMENT_3D( '', #273, #274, #275 );
#177 = SURFACE_STYLE_FILL_AREA( #276 );
#178 = ORIENTED_EDGE( '', *, *, #277, .F. );
#179 = ORIENTED_EDGE( '', *, *, #278, .F. );
#180 = ORIENTED_EDGE( '', *, *, #279, .T. );
#181 = ORIENTED_EDGE( '', *, *, #280, .T. );
#182 = CARTESIAN_POINT( '', ( 5.00000000000000, -1.44337567297406, 2.50000000000000 ) );
#183 = DIRECTION( '', ( 0.000000000000000, 0.866025403784439, -0.500000000000000 ) );
#184 = DIRECTION( '', ( 0.000000000000000, 0.500000000000000, 0.866025403784439 ) );
#185 = SURFACE_STYLE_FILL_AREA( #281 );
#186 = VERTEX_POINT( '', #282 );
#187 = ORIENTED_EDGE( '', *, *, #283, .T. );
#188 = CARTESIAN_POINT( '', ( 46.0000000000000, 4.33680868994202E-16, 0.000000000000000 ) );
#189 = DIRECTION( '', ( 1.00000000000000, 0.000000000000000, 0.000000000000000 ) );
#190 = DIRECTION( '', ( 0.000000000000000, -1.00000000000000, 0.000000000000000 ) );
#191 = SURFACE_STYLE_FILL_AREA( #284 );
#192 = ORIENTED_EDGE( '', *, *, #285, .F. );
#193 = ORIENTED_EDGE( '', *, *, #286, .F. );
#194 = ORIENTED_EDGE( '', *, *, #287, .T. );
#195 = ORIENTED_EDGE( '', *, *, #288, .T. );
#196 = CARTESIAN_POINT( '', ( 5.00000000000000, 1.44337567297406, -2.50000000000000 ) );
#197 = DIRECTION( '', ( 0.000000000000000, -0.866025403784439, 0.500000000000000 ) );
#198 = DIRECTION( '', ( 0.000000000000000, -0.500000000000000, -0.866025403784439 ) );
#199 = SURFACE_STYLE_FILL_AREA( #289 );
#200 = ORIENTED_EDGE( '', *, *, #290, .F. );
#201 = ORIENTED_EDGE( '', *, *, #291, .F. );
#202 = ORIENTED_EDGE( '', *, *, #287, .F. );
#203 = ORIENTED_EDGE( '', *, *, #292, .F. );
#204 = ORIENTED_EDGE( '', *, *, #293, .F. );
#205 = ORIENTED_EDGE( '', *, *, #279, .F. );
#206 = CARTESIAN_POINT( '', ( 5.00000000000000, 0.000000000000000, 0.000000000000000 ) );
#207 = DIRECTION( '', ( 1.00000000000000, 0.000000000000000, 0.000000000000000 ) );
#208 = DIRECTION( '', ( 0.000000000000000, 0.000000000000000, -1.00000000000000 ) );
#209 = SURFACE_STYLE_FILL_AREA( #294 );
#210 = ORIENTED_EDGE( '', *, *, #283, .F. );
#211 = ORIENTED_EDGE( '', *, *, #295, .T. );
#212 = CARTESIAN_POINT( '', ( 50.0000000000000, 0.000000000000000, 0.000000000000000 ) );
#213 = DIRECTION( '', ( -1.00000000000000, -0.000000000000000, 0.000000000000000 ) );
#214 = DIRECTION( '', ( -0.000000000000000, 0.000000000000000, -1.00000000000000 ) );
#215 = SURFACE_STYLE_FILL_AREA( #296 );
#216 = ORIENTED_EDGE( '', *, *, #297, .F. );
#217 = ORIENTED_EDGE( '', *, *, #288, .F. );
#218 = ORIENTED_EDGE( '', *, *, #291, .T. );
#219 = ORIENTED_EDGE( '', *, *, #298, .T. );
#220 = CARTESIAN_POINT( '', ( 5.00000000000000, 2.88675134594813, 0.000000000000000 ) );
#221 = DIRECTION( '', ( 0.000000000000000, -0.866025403784439, -0.500000000000000 ) );
#222 = DIRECTION( '', ( 0.000000000000000, 0.500000000000000, -0.866025403784439 ) );
#223 = SURFACE_STYLE_FILL_AREA( #299 );
#224 = ORIENTED_EDGE( '', *, *, #300, .F. );
#225 = ORIENTED_EDGE( '', *, *, #298, .F. );
#226 = ORIENTED_EDGE( '', *, *, #290, .T. );
#227 = ORIENTED_EDGE( '', *, *, #278, .T. );
#228 = CARTESIAN_POINT( '', ( 5.00000000000000, 1.44337567297406, 2.50000000000000 ) );
#229 = DIRECTION( '', ( 0.000000000000000, 0.000000000000000, -1.00000000000000 ) );
#230 = DIRECTION( '', ( -1.00000000000000, 0.000000000000000, 0.000000000000000 ) );
#231 = SURFACE_STYLE_FILL_AREA( #301 );
#232 = ORIENTED_EDGE( '', *, *, #295, .F. );
#233 = ORIENTED_EDGE( '', *, *, #302, .T. );
#234 = CARTESIAN_POINT( '', ( 41.0000000000000, 0.000000000000000, 0.000000000000000 ) );
#235 = DIRECTION( '', ( -1.00000000000000, 0.000000000000000, -0.000000000000000 ) );
#236 = DIRECTION( '', ( 0.000000000000000, 0.000000000000000, 1.00000000000000 ) );
#237 = SURFACE_STYLE_FILL_AREA( #303 );
#238 = ORIENTED_EDGE( '', *, *, #304, .F. );
#239 = ORIENTED_EDGE( '', *, *, #280, .F. );
#240 = ORIENTED_EDGE( '', *, *, #293, .T. );
#241 = ORIENTED_EDGE( '', *, *, #305, .T. );
#242 = CARTESIAN_POINT( '', ( 5.00000000000000, -2.88675134594813, 0.000000000000000 ) );
#243 = DIRECTION( '', ( -0.000000000000000, 0.866025403784439, 0.500000000000000 ) );
#244 = DIRECTION( '', ( 0.000000000000000, -0.500000000000000, 0.866025403784439 ) );
#245 = SURFACE_STYLE_FILL_AREA( #306 );
#246 = ORIENTED_EDGE( '', *, *, #307, .F. );
#247 = ORIENTED_EDGE( '', *, *, #300, .T. );
#248 = ORIENTED_EDGE( '', *, *, #277, .T. );
#249 = ORIENTED_EDGE( '', *, *, #304, .T. );
#250 = ORIENTED_EDGE( '', *, *, #308, .T. );
#251 = ORIENTED_EDGE( '', *, *, #285, .T. );
#252 = ORIENTED_EDGE( '', *, *, #297, .T. );
#253 = CARTESIAN_POINT( '', ( 0.000000000000000, 0.000000000000000, 0.000000000000000 ) );
#254 = DIRECTION( '', ( 1.00000000000000, 0.000000000000000, -0.000000000000000 ) );
#255 = DIRECTION( '', ( -0.000000000000000, 0.000000000000000, -1.00000000000000 ) );
#256 = SURFACE_STYLE_FILL_AREA( #309 );
#257 = ORIENTED_EDGE( '', *, *, #302, .F. );
#258 = ORIENTED_EDGE( '', *, *, #310, .T. );
#259 = CARTESIAN_POINT( '', ( 50.0000000000000, 0.000000000000000, 0.000000000000000 ) );
#260 = DIRECTION( '', ( -1.00000000000000, -0.000000000000000, 0.000000000000000 ) );
#261 = DIRECTION( '', ( -0.000000000000000, 0.000000000000000, -1.00000000000000 ) );
#262 = SURFACE_STYLE_FILL_AREA( #311 );
#263 = ORIENTED_EDGE( '', *, *, #310, .F. );
#264 = ORIENTED_EDGE( '', *, *, #307, .T. );
#265 = CARTESIAN_POINT( '', ( 0.000000000000000, 0.000000000000000, 0.000000000000000 ) );
#266 = DIRECTION( '', ( 1.00000000000000, -0.000000000000000, -0.000000000000000 ) );
#267 = DIRECTION( '', ( -0.000000000000000, 0.000000000000000, -1.00000000000000 ) );
#268 = SURFACE_STYLE_FILL_AREA( #312 );
#269 = ORIENTED_EDGE( '', *, *, #308, .F. );
#270 = ORIENTED_EDGE( '', *, *, #305, .F. );
#271 = ORIENTED_EDGE( '', *, *, #292, .T. );
#272 = ORIENTED_EDGE( '', *, *, #286, .T. );
#273 = CARTESIAN_POINT( '', ( 5.00000000000000, -1.44337567297406, -2.50000000000000 ) );
#274 = DIRECTION( '', ( 0.000000000000000, 0.000000000000000, 1.00000000000000 ) );
#275 = DIRECTION( '', ( 1.00000000000000, 0.000000000000000, -0.000000000000000 ) );
#276 = FILL_AREA_STYLE( '', ( #313 ) );
#277 = EDGE_CURVE( '', #314, #315, #316, .T. );
#278 = EDGE_CURVE( '', #317, #314, #318, .T. );
#279 = EDGE_CURVE( '', #317, #319, #320, .T. );
#280 = EDGE_CURVE( '', #319, #315, #321, .T. );
#281 = FILL_AREA_STYLE( '', ( #322 ) );
#282 = CARTESIAN_POINT( '', ( 50.0000000000000, 1.88751509164731E-16, 0.000000000000000 ) );
#283 = EDGE_CURVE( '', #323, #323, #324, .T. );
#284 = FILL_AREA_STYLE( '', ( #325 ) );
#285 = EDGE_CURVE( '', #326, #327, #328, .T. );
#286 = EDGE_CURVE( '', #329, #326, #330, .T. );
#287 = EDGE_CURVE( '', #329, #331, #332, .T. );
#288 = EDGE_CURVE( '', #331, #327, #333, .T. );
#289 = FILL_AREA_STYLE( '', ( #334 ) );
#290 = EDGE_CURVE( '', #335, #317, #336, .T. );
#291 = EDGE_CURVE( '', #331, #335, #337, .T. );
#292 = EDGE_CURVE( '', #338, #329, #339, .T. );
#293 = EDGE_CURVE( '', #319, #338, #340, .T. );
#294 = FILL_AREA_STYLE( '', ( #341 ) );
#295 = EDGE_CURVE( '', #342, #342, #343, .T. );
#296 = FILL_AREA_STYLE( '', ( #344 ) );
#297 = EDGE_CURVE( '', #327, #345, #346, .T. );
#298 = EDGE_CURVE( '', #335, #345, #347, .T. );
#299 = FILL_AREA_STYLE( '', ( #348 ) );
#300 = EDGE_CURVE( '', #345, #314, #349, .T. );
#301 = FILL_AREA_STYLE( '', ( #350 ) );
#302 = EDGE_CURVE( '', #351, #351, #352, .T. );
#303 = FILL_AREA_STYLE( '', ( #353 ) );
#304 = EDGE_CURVE( '', #315, #354, #355, .T. );
#305 = EDGE_CURVE( '', #338, #354, #356, .T. );
#306 = FILL_AREA_STYLE( '', ( #357 ) );
#307 = EDGE_CURVE( '', #358, #358, #359, .T. );
#308 = EDGE_CURVE( '', #354, #326, #360, .T. );
#309 = FILL_AREA_STYLE( '', ( #361 ) );
#310 = EDGE_CURVE( '', #362, #362, #363, .T. );
#311 = FILL_AREA_STYLE( '', ( #364 ) );
#312 = FILL_AREA_STYLE( '', ( #365 ) );
#313 = FILL_AREA_STYLE_COLOUR( '', #366 );
#314 = VERTEX_POINT( '', #367 );
#315 = VERTEX_POINT( '', #368 );
#316 = LINE( '', #369, #370 );
#317 = VERTEX_POINT( '', #371 );
#318 = LINE( '', #372, #373 );
#319 = VERTEX_POINT( '', #374 );
#320 = LINE( '', #375, #376 );
#321 = LINE( '', #377, #378 );
#322 = FILL_AREA_STYLE_COLOUR( '', #379 );
#323 = VERTEX_POINT( '', #380 );
#324 = CIRCLE( '', #381, 3.25000000000000 );
#325 = FILL_AREA_STYLE_COLOUR( '', #382 );
#326 = VERTEX_POINT( '', #383 );
#327 = VERTEX_POINT( '', #384 );
#328 = LINE( '', #385, #386 );
#329 = VERTEX_POINT( '', #387 );
#330 = LINE( '', #388, #389 );
#331 = VERTEX_POINT( '', #390 );
#332 = LINE( '', #391, #392 );
#333 = LINE( '', #393, #394 );
#334 = FILL_AREA_STYLE_COLOUR( '', #395 );
#335 = VERTEX_POINT( '', #396 );
#336 = LINE( '', #397, #398 );
#337 = LINE( '', #399, #400 );
#338 = VERTEX_POINT( '', #401 );
#339 = LINE( '', #402, #403 );
#340 = LINE( '', #404, #405 );
#341 = FILL_AREA_STYLE_COLOUR( '', #406 );
#342 = VERTEX_POINT( '', #407 );
#343 = CIRCLE( '', #408, 3.25000000000000 );
#344 = FILL_AREA_STYLE_COLOUR( '', #409 );
#345 = VERTEX_POINT( '', #410 );
#346 = LINE( '', #411, #412 );
#347 = LINE( '', #413, #414 );
#348 = FILL_AREA_STYLE_COLOUR( '', #415 );
#349 = LINE( '', #416, #417 );
#350 = FILL_AREA_STYLE_COLOUR( '', #418 );
#351 = VERTEX_POINT( '', #419 );
#352 = CIRCLE( '', #420, 5.00000000000000 );
#353 = FILL_AREA_STYLE_COLOUR( '', #421 );
#354 = VERTEX_POINT( '', #422 );
#355 = LINE( '', #423, #424 );
#356 = LINE( '', #425, #426 );
#357 = FILL_AREA_STYLE_COLOUR( '', #427 );
#358 = VERTEX_POINT( '', #428 );
#359 = CIRCLE( '', #429, 4.08000000000000 );
#360 = LINE( '', #430, #431 );
#361 = FILL_AREA_STYLE_COLOUR( '', #432 );
#362 = VERTEX_POINT( '', #433 );
#363 = CIRCLE( '', #434, 5.00000000000000 );
#364 = FILL_AREA_STYLE_COLOUR( '', #435 );
#365 = FILL_AREA_STYLE_COLOUR( '', #436 );
#366 = COLOUR_RGB( '', 0.689999997600000, 0.689999997600000, 0.689999997600000 );
#367 = CARTESIAN_POINT( '', ( 0.000000000000000, -1.44337567297406, 2.50000000000000 ) );
#368 = CARTESIAN_POINT( '', ( 0.000000000000000, -2.88675134594813, 0.000000000000000 ) );
#369 = CARTESIAN_POINT( '', ( 0.000000000000000, -1.44337567297406, 2.50000000000000 ) );
#370 = VECTOR( '', #437, 1000.00000000000 );
#371 = CARTESIAN_POINT( '', ( 5.00000000000000, -1.44337567297406, 2.50000000000000 ) );
#372 = CARTESIAN_POINT( '', ( 5.00000000000000, -1.44337567297406, 2.50000000000000 ) );
#373 = VECTOR( '', #438, 1000.00000000000 );
#374 = CARTESIAN_POINT( '', ( 5.00000000000000, -2.88675134594813, 0.000000000000000 ) );
#375 = CARTESIAN_POINT( '', ( 5.00000000000000, -1.44337567297406, 2.50000000000000 ) );
#376 = VECTOR( '', #439, 1000.00000000000 );
#377 = CARTESIAN_POINT( '', ( 5.00000000000000, -2.88675134594813, 0.000000000000000 ) );
#378 = VECTOR( '', #440, 1000.00000000000 );
#379 = COLOUR_RGB( '', 0.689999997600000, 0.689999997600000, 0.689999997600000 );
#380 = CARTESIAN_POINT( '', ( 43.6681552367278, 0.000000000000000, -3.25000000000000 ) );
#381 = AXIS2_PLACEMENT_3D( '', #441, #442, #443 );
#382 = COLOUR_RGB( '', 0.689999997600000, 0.689999997600000, 0.689999997600000 );
#383 = CARTESIAN_POINT( '', ( 0.000000000000000, 1.44337567297406, -2.50000000000000 ) );
#384 = CARTESIAN_POINT( '', ( 0.000000000000000, 2.88675134594813, 0.000000000000000 ) );
#385 = CARTESIAN_POINT( '', ( 0.000000000000000, 1.44337567297406, -2.50000000000000 ) );
#386 = VECTOR( '', #444, 1000.00000000000 );
#387 = CARTESIAN_POINT( '', ( 5.00000000000000, 1.44337567297406, -2.50000000000000 ) );
#388 = CARTESIAN_POINT( '', ( 5.00000000000000, 1.44337567297406, -2.50000000000000 ) );
#389 = VECTOR( '', #445, 1000.00000000000 );
#390 = CARTESIAN_POINT( '', ( 5.00000000000000, 2.88675134594813, 0.000000000000000 ) );
#391 = CARTESIAN_POINT( '', ( 5.00000000000000, 1.44337567297406, -2.50000000000000 ) );
#392 = VECTOR( '', #446, 1000.00000000000 );
#393 = CARTESIAN_POINT( '', ( 5.00000000000000, 2.88675134594813, 0.000000000000000 ) );
#394 = VECTOR( '', #447, 1000.00000000000 );
#395 = COLOUR_RGB( '', 0.689999997600000, 0.689999997600000, 0.689999997600000 );
#396 = CARTESIAN_POINT( '', ( 5.00000000000000, 1.44337567297406, 2.50000000000000 ) );
#397 = CARTESIAN_POINT( '', ( 5.00000000000000, 1.44337567297406, 2.50000000000000 ) );
#398 = VECTOR( '', #448, 1000.00000000000 );
#399 = CARTESIAN_POINT( '', ( 5.00000000000000, 2.88675134594813, 0.000000000000000 ) );
#400 = VECTOR( '', #449, 1000.00000000000 );
#401 = CARTESIAN_POINT( '', ( 5.00000000000000, -1.44337567297406, -2.50000000000000 ) );
#402 = CARTESIAN_POINT( '', ( 5.00000000000000, -1.44337567297406, -2.50000000000000 ) );
#403 = VECTOR( '', #450, 1000.00000000000 );
#404 = CARTESIAN_POINT( '', ( 5.00000000000000, -2.88675134594813, 0.000000000000000 ) );
#405 = VECTOR( '', #451, 1000.00000000000 );
#406 = COLOUR_RGB( '', 0.689999997600000, 0.689999997600000, 0.689999997600000 );
#407 = CARTESIAN_POINT( '', ( 42.8000000000000, 0.000000000000000, -3.25000000000000 ) );
#408 = AXIS2_PLACEMENT_3D( '', #452, #453, #454 );
#409 = COLOUR_RGB( '', 0.689999997600000, 0.689999997600000, 0.689999997600000 );
#410 = CARTESIAN_POINT( '', ( 0.000000000000000, 1.44337567297406, 2.50000000000000 ) );
#411 = CARTESIAN_POINT( '', ( 0.000000000000000, 2.88675134594813, 0.000000000000000 ) );
#412 = VECTOR( '', #455, 1000.00000000000 );
#413 = CARTESIAN_POINT( '', ( 5.00000000000000, 1.44337567297406, 2.50000000000000 ) );
#414 = VECTOR( '', #456, 1000.00000000000 );
#415 = COLOUR_RGB( '', 0.689999997600000, 0.689999997600000, 0.689999997600000 );
#416 = CARTESIAN_POINT( '', ( 0.000000000000000, 1.44337567297406, 2.50000000000000 ) );
#417 = VECTOR( '', #457, 1000.00000000000 );
#418 = COLOUR_RGB( '', 0.689999997600000, 0.689999997600000, 0.689999997600000 );
#419 = CARTESIAN_POINT( '', ( 41.0000000000000, 0.000000000000000, -5.00000000000001 ) );
#420 = AXIS2_PLACEMENT_3D( '', #458, #459, #460 );
#421 = COLOUR_RGB( '', 0.689999997600000, 0.689999997600000, 0.689999997600000 );
#422 = CARTESIAN_POINT( '', ( 0.000000000000000, -1.44337567297406, -2.50000000000000 ) );
#423 = CARTESIAN_POINT( '', ( 0.000000000000000, -2.88675134594813, 0.000000000000000 ) );
#424 = VECTOR( '', #461, 1000.00000000000 );
#425 = CARTESIAN_POINT( '', ( 5.00000000000000, -1.44337567297406, -2.50000000000000 ) );
#426 = VECTOR( '', #462, 1000.00000000000 );
#427 = COLOUR_RGB( '', 0.689999997600000, 0.689999997600000, 0.689999997600000 );
#428 = CARTESIAN_POINT( '', ( 0.000000000000000, 0.000000000000000, -4.08000000000000 ) );
#429 = AXIS2_PLACEMENT_3D( '', #463, #464, #465 );
#430 = CARTESIAN_POINT( '', ( 0.000000000000000, -1.44337567297406, -2.50000000000000 ) );
#431 = VECTOR( '', #466, 1000.00000000000 );
#432 = COLOUR_RGB( '', 0.689999997600000, 0.689999997600000, 0.689999997600000 );
#433 = CARTESIAN_POINT( '', ( 0.920000000000004, 0.000000000000000, -5.00000000000001 ) );
#434 = AXIS2_PLACEMENT_3D( '', #467, #468, #469 );
#435 = COLOUR_RGB( '', 0.689999997600000, 0.689999997600000, 0.689999997600000 );
#436 = COLOUR_RGB( '', 0.689999997600000, 0.689999997600000, 0.689999997600000 );
#437 = DIRECTION( '', ( 0.000000000000000, -0.500000000000000, -0.866025403784439 ) );
#438 = DIRECTION( '', ( -1.00000000000000, -0.000000000000000, -0.000000000000000 ) );
#439 = DIRECTION( '', ( 0.000000000000000, -0.500000000000000, -0.866025403784439 ) );
#440 = DIRECTION( '', ( -1.00000000000000, -0.000000000000000, -0.000000000000000 ) );
#441 = CARTESIAN_POINT( '', ( 43.6681552367278, 0.000000000000000, 0.000000000000000 ) );
#442 = DIRECTION( '', ( 1.00000000000000, 0.000000000000000, -0.000000000000000 ) );
#443 = DIRECTION( '', ( -0.000000000000000, 0.000000000000000, -1.00000000000000 ) );
#444 = DIRECTION( '', ( 0.000000000000000, 0.500000000000000, 0.866025403784439 ) );
#445 = DIRECTION( '', ( -1.00000000000000, -0.000000000000000, -0.000000000000000 ) );
#446 = DIRECTION( '', ( 0.000000000000000, 0.500000000000000, 0.866025403784439 ) );
#447 = DIRECTION( '', ( -1.00000000000000, -0.000000000000000, -0.000000000000000 ) );
#448 = DIRECTION( '', ( 0.000000000000000, -1.00000000000000, 0.000000000000000 ) );
#449 = DIRECTION( '', ( 0.000000000000000, -0.500000000000000, 0.866025403784439 ) );
#450 = DIRECTION( '', ( 0.000000000000000, 1.00000000000000, 0.000000000000000 ) );
#451 = DIRECTION( '', ( 0.000000000000000, 0.500000000000000, -0.866025403784439 ) );
#452 = CARTESIAN_POINT( '', ( 42.8000000000000, 0.000000000000000, 0.000000000000000 ) );
#453 = DIRECTION( '', ( 1.00000000000000, 0.000000000000000, -0.000000000000000 ) );
#454 = DIRECTION( '', ( -0.000000000000000, 0.000000000000000, -1.00000000000000 ) );
#455 = DIRECTION( '', ( 0.000000000000000, -0.500000000000000, 0.866025403784439 ) );
#456 = DIRECTION( '', ( -1.00000000000000, -0.000000000000000, -0.000000000000000 ) );
#457 = DIRECTION( '', ( 0.000000000000000, -1.00000000000000, 0.000000000000000 ) );
#458 = CARTESIAN_POINT( '', ( 41.0000000000000, 0.000000000000000, 0.000000000000000 ) );
#459 = DIRECTION( '', ( 1.00000000000000, 0.000000000000000, -0.000000000000000 ) );
#460 = DIRECTION( '', ( -0.000000000000000, 0.000000000000000, -1.00000000000000 ) );
#461 = DIRECTION( '', ( 0.000000000000000, 0.500000000000000, -0.866025403784439 ) );
#462 = DIRECTION( '', ( -1.00000000000000, -0.000000000000000, -0.000000000000000 ) );
#463 = CARTESIAN_POINT( '', ( 0.000000000000000, 0.000000000000000, 0.000000000000000 ) );
#464 = DIRECTION( '', ( 1.00000000000000, 0.000000000000000, -0.000000000000000 ) );
#465 = DIRECTION( '', ( -0.000000000000000, 0.000000000000000, -1.00000000000000 ) );
#466 = DIRECTION( '', ( 0.000000000000000, 1.00000000000000, 0.000000000000000 ) );
#467 = CARTESIAN_POINT( '', ( 0.920000000000004, 0.000000000000000, 0.000000000000000 ) );
#468 = DIRECTION( '', ( 1.00000000000000, 0.000000000000000, -0.000000000000000 ) );
#469 = DIRECTION( '', ( -0.000000000000000, 0.000000000000000, -1.00000000000000 ) );
ENDSEC;
END-ISO-10303-21;
